  0
SECTION
  2
HEADER
  9
$ACADVER
  1
AC1015
  9
$ACADMAINTVER
 70
     6
  9
$DWGCODEPAGE
  3
ANSI_1252
  9
$INSBASE
 10
0.0
 20
0.0
 30
0.0
  9
$EXTMIN
 10
0.0
 20
0.0
 30
0.0
  9
$EXTMAX
 10
43.71236
 20
6.704333
 30
2.0
  9
$LIMMIN
 10
0.0
 20
0.0
  9
$LIMMAX
 10
17.0
 20
11.0
  9
$ORTHOMODE
 70
     0
  9
$REGENMODE
 70
     1
  9
$FILLMODE
 70
     1
  9
$QTEXTMODE
 70
     0
  9
$MIRRTEXT
 70
     1
  9
$LTSCALE
 40
1.0
  9
$ATTMODE
 70
     1
  9
$TEXTSIZE
 40
0.2
  9
$TRACEWID
 40
0.05
  9
$TEXTSTYLE
  7
STANDARD
  9
$CLAYER
  8
0
  9
$CELTYPE
  6
ByLayer
  9
$CECOLOR
 62
   256
  9
$CELTSCALE
 40
1.0
  9
$DISPSILH
 70
     0
  9
$DIMSCALE
 40
1.0
  9
$DIMASZ
 40
0.18
  9
$DIMEXO
 40
0.0625
  9
$DIMDLI
 40
0.38
  9
$DIMRND
 40
0.0
  9
$DIMDLE
 40
0.0
  9
$DIMEXE
 40
0.18
  9
$DIMTP
 40
0.0
  9
$DIMTM
 40
0.0
  9
$DIMTXT
 40
0.18
  9
$DIMCEN
 40
0.09
  9
$DIMTSZ
 40
0.0
  9
$DIMTOL
 70
     0
  9
$DIMLIM
 70
     0
  9
$DIMTIH
 70
     1
  9
$DIMTOH
 70
     1
  9
$DIMSE1
 70
     0
  9
$DIMSE2
 70
     0
  9
$DIMTAD
 70
     0
  9
$DIMZIN
 70
     0
  9
$DIMBLK
  1

  9
$DIMASO
 70
     1
  9
$DIMSHO
 70
     1
  9
$DIMPOST
  1

  9
$DIMAPOST
  1

  9
$DIMALT
 70
     0
  9
$DIMALTD
 70
     2
  9
$DIMALTF
 40
25.4
  9
$DIMLFAC
 40
1.0
  9
$DIMTOFL
 70
     0
  9
$DIMTVP
 40
0.0
  9
$DIMTIX
 70
     0
  9
$DIMSOXD
 70
     0
  9
$DIMSAH
 70
     0
  9
$DIMBLK1
  1

  9
$DIMBLK2
  1

  9
$DIMSTYLE
  2
STANDARD
  9
$DIMCLRD
 70
     0
  9
$DIMCLRE
 70
     0
  9
$DIMCLRT
 70
     0
  9
$DIMTFAC
 40
1.0
  9
$DIMGAP
 40
0.09
  9
$DIMJUST
 70
     0
  9
$DIMSD1
 70
     0
  9
$DIMSD2
 70
     0
  9
$DIMTOLJ
 70
     1
  9
$DIMTZIN
 70
     0
  9
$DIMALTZ
 70
     0
  9
$DIMALTTZ
 70
     0
  9
$DIMUPT
 70
     0
  9
$DIMDEC
 70
     4
  9
$DIMTDEC
 70
     4
  9
$DIMALTU
 70
     2
  9
$DIMALTTD
 70
     2
  9
$DIMTXSTY
  7
STANDARD
  9
$DIMAUNIT
 70
     0
  9
$DIMADEC
 70
     0
  9
$DIMALTRND
 40
0.0
  9
$DIMAZIN
 70
     0
  9
$DIMDSEP
 70
    46
  9
$DIMATFIT
 70
     0
  9
$DIMFRAC
 70
     0
  9
$DIMLDRBLK
  1

  9
$DIMLUNIT
 70
     2
  9
$DIMLWD
 70
    -2
  9
$DIMLWE
 70
    -2
  9
$DIMTMOVE
 70
     0
  9
$LUNITS
 70
     2
  9
$LUPREC
 70
     4
  9
$SKETCHINC
 40
0.1
  9
$FILLETRAD
 40
0.125
  9
$AUNITS
 70
     0
  9
$AUPREC
 70
     0
  9
$MENU
  1
.
  9
$ELEVATION
 40
0.0
  9
$PELEVATION
 40
0.0
  9
$THICKNESS
 40
0.0
  9
$LIMCHECK
 70
     0
  9
$CHAMFERA
 40
0.125
  9
$CHAMFERB
 40
0.125
  9
$CHAMFERC
 40
0.0
  9
$CHAMFERD
 40
0.0
  9
$SKPOLY
 70
     0
  9
$TDCREATE
 40
0.000000000
  9
$TDUCREATE
 40
0.000000000
  9
$TDUPDATE
 40
0.000000000
  9
$TDUUPDATE
 40
0.000000000
  9
$TDINDWG
 40
0.0000000000
  9
$TDUSRTIMER
 40
0.0000000000
  9
$USRTIMER
 70
     1
  9
$ANGBASE
 50
0.0
  9
$ANGDIR
 70
     0
  9
$PDMODE
 70
     0
  9
$PDSIZE
 40
0.0
  9
$PLINEWID
 40
0.0
  9
$SPLFRAME
 70
     0
  9
$SPLINETYPE
 70
     6
  9
$SPLINESEGS
 70
     8
  9
$HANDSEED
  5
545
  9
$SURFTAB1
 70
     6
  9
$SURFTAB2
 70
     6
  9
$SURFTYPE
 70
     6
  9
$SURFU
 70
     6
  9
$SURFV
 70
     6
  9
$UCSBASE
  2

  9
$UCSNAME
  2

  9
$UCSORG
 10
0.0
 20
0.0
 30
0.0
  9
$UCSXDIR
 10
1.0
 20
0.0
 30
0.0
  9
$UCSYDIR
 10
0.0
 20
1.0
 30
0.0
  9
$UCSORTHOREF
  2

  9
$UCSORTHOVIEW
 70
     1
  9
$UCSORGTOP
 10
0.0
 20
0.0
 30
0.0
  9
$UCSORGBOTTOM
 10
0.0
 20
0.0
 30
0.0
  9
$UCSORGLEFT
 10
0.0
 20
0.0
 30
0.0
  9
$UCSORGRIGHT
 10
0.0
 20
0.0
 30
0.0
  9
$UCSORGFRONT
 10
0.0
 20
0.0
 30
0.0
  9
$UCSORGBACK
 10
0.0
 20
0.0
 30
0.0
  9
$PUCSBASE
  2

  9
$PUCSNAME
  2

  9
$PUCSORG
 10
0.0
 20
0.0
 30
0.0
  9
$PUCSXDIR
 10
1.0
 20
0.0
 30
0.0
  9
$PUCSYDIR
 10
0.0
 20
1.0
 30
0.0
  9
$PUCSORTHOREF
  2

  9
$PUCSORTHOVIEW
 70
     0
  9
$PUCSORGTOP
 10
0.0
 20
0.0
 30
0.0
  9
$PUCSORGBOTTOM
 10
0.0
 20
0.0
 30
0.0
  9
$PUCSORGLEFT
 10
0.0
 20
0.0
 30
0.0
  9
$PUCSORGRIGHT
 10
0.0
 20
0.0
 30
0.0
  9
$PUCSORGFRONT
 10
0.0
 20
0.0
 30
0.0
  9
$PUCSORGBACK
 10
0.0
 20
0.0
 30
0.0
  9
$USERI1
 70
     0
  9
$USERI2
 70
     0
  9
$USERI3
 70
     0
  9
$USERI4
 70
     0
  9
$USERI5
 70
     0
  9
$USERR1
 40
0.0
  9
$USERR2
 40
0.0
  9
$USERR3
 40
0.0
  9
$USERR4
 40
0.0
  9
$USERR5
 40
0.0
  9
$WORLDVIEW
 70
     1
  9
$SHADEDGE
 70
     3
  9
$SHADEDIF
 70
    70
  9
$TILEMODE
 70
     1
  9
$MAXACTVP
 70
    48
  9
$PINSBASE
 10
0.0
 20
0.0
 30
0.0
  9
$PLIMCHECK
 70
     0
  9
$PEXTMIN
 10
0.0
 20
0.0
 30
0.0
  9
$PEXTMAX
 10
43.71236
 20
6.704333
 30
2.0
  9
$PLIMMIN
 10
0.0
 20
0.0
  9
$PLIMMAX
 10
12.0
 20
9.0
  9
$UNITMODE
 70
     0
  9
$VISRETAIN
 70
     0
  9
$PLINEGEN
 70
     0
  9
$PSLTSCALE
 70
     1
  9
$TREEDEPTH
 70
  3020
  9
$CMLSTYLE
  2
Standard
  9
$CMLJUST
 70
     0
  9
$CMLSCALE
 40
1.0
  9
$PROXYGRAPHICS
 70
     1
  9
$MEASUREMENT
 70
     0
  9
$CELWEIGHT
370
    -1
  9
$ENDCAPS
280
     0
  9
$JOINSTYLE
280
     0
  9
$LWDISPLAY
290
     0
  9
$INSUNITS
 70
     0
  9
$HYPERLINKBASE
  1

  9
$STYLESHEET
  1

  9
$XEDIT
290
     1
  9
$CEPSNTYPE
380
     0
  9
$PSTYLEMODE
290
     0
  9
$FINGERPRINTGUID
  2

  9
$VERSIONGUID
  2

  9
$EXTNAMES
290
     0
  9
$PSVPSCALE
 40
0.0
  0
ENDSEC
  0
SECTION
  2
CLASSES
  0
CLASS
  1
LWPOLYLINE
  2
AcDbPolyline
  3
AutoCAD 2000
 90
        0
280
     0
281
     1
  0
CLASS
  1
IMAGE
  2
AcDbRasterImage
  3
ISM
 90
      127
280
     0
281
     1
  0
CLASS
  1
OLE2FRAME
  2
AcDbOle2Frame
  3
AutoCAD 2000
 90
        0
280
     0
281
     1
  0
CLASS
  1
HATCH
  2
AcDbHatch
  3
AutoCAD 2000
 90
        0
280
     0
281
     1
  0
CLASS
  1
DICTIONARYVAR
  2
AcDbDictionaryVar
  3
AutoCAD 2000
 90
        0
280
     0
281
     0
  0
CLASS
  1
RASTERVARIABLES
  2
AcDbRasterVariables
  3
ISM
 90
        0
280
     0
281
     0
  0
CLASS
  1
IMAGEDEF
  2
AcDbRasterImageDef
  3
ISM
 90
        0
280
     0
281
     0
  0
CLASS
  1
IMAGEDEF_REACTOR
  2
AcDbRasterImageDefReactor
  3
ISM
 90
        1
280
     0
281
     0
  0
CLASS
  1
IDBUFFER
  2
AcDbIdBuffer
  3
AutoCAD 2000
 90
        0
280
     0
281
     0
  0
CLASS
  1
SPATIAL_FILTER
  2
AcDbSpatialFilter
  3
AutoCAD 2000
 90
        0
280
     0
281
     0
  0
CLASS
  1
XRECORD
  2
AcDbXrecord
  3
AutoCAD 2000
 90
        0
280
     0
281
     0
  0
CLASS
  1
SORTENTSTABLE
  2
AcDbSortentsTable
  3
AutoCAD 2000
 90
        0
280
     0
281
     0
  0
CLASS
  1
LAYER_INDEX
  2
AcDbLayerIndex
  3
AutoCAD 2000
 90
        0
280
     0
281
     0
  0
CLASS
  1
SPATIAL_INDEX
  2
AcDbSpatialIndex
  3
AutoCAD 2000
 90
        0
280
     0
281
     0
  0
CLASS
  1
OBJECT_PTR
  2
CAseDLPNTableRecord
  3
"ASE-LPNTableRecord"
 90
        1
280
     0
281
     0
  0
CLASS
  1
LAYOUT
  2
AcDbLayout
  3
AutoCAD 2000
 90
        0
280
     0
281
     0
  0
CLASS
  1
PLOTSETTINGS
  2
AcDbPlotSettings
  3
AutoCAD 2000
 90
        0
280
     0
281
     0
  0
CLASS
  1
ACDBDICTIONARYWDFLT
  2
AcDbDictionaryWithDefault
  3
AutoCAD 2000
 90
        0
280
     0
281
     0
  0
CLASS
  1
ACDBPLACEHOLDER
  2
AcDbPlaceHolder
  3
AutoCAD 2000
 90
        0
280
     0
281
     0
  0
CLASS
  1
VBA_PROJECT
  2
AcDbVbaProject
  3
acadvba
 90
        0
280
     0
281
     0
  0
CLASS
  1
WIPEOUT
  2
AcDbWipeout
  3
WipeOut|AutoCAD Express Tool|expresstools@autodesk.com
 90
      127
280
     0
281
     1
  0
CLASS
  1
WIPEOUTVARIABLES
  2
AcDbWipeoutVariables
  3
WipeOut|AutoCAD Express Tool|expresstools@autodesk.com
 90
        0
280
     0
281
     0
  0
CLASS
  1
RTEXT
  2
RText
  3
RText|AutoCAD Express Tool|expresstools@autodesk.com
 90
        0
280
     0
281
     1
  0
CLASS
  1
ARCALIGNEDTEXT
  2
AcDbArcAlignedText
  3
ATEXT|AutoCAD Express Tool|expresstools@autodesk.com
 90
        0
280
     0
281
     1
  0
ENDSEC
  0
SECTION
  2
TABLES
  0
TABLE
  2
VPORT
  5
7
100
AcDbSymbolTable
 70
     1
  0
VPORT
  5
15
100
AcDbSymbolTableRecord
100
AcDbViewportTableRecord
  2
*ACTIVE
 70
     0
 10
0.0
 20
0.0
 11
1.0
 21
1.0
 12
6.591288
 22
4.579184
 13
0.0
 23
0.0
 14
1.0
 24
1.0
 15
0.0
 25
0.0
 16
0.0
 26
0.0
 36
1.0
 17
0.0
 27
0.0
 37
0.0
 40
9.158369
 41
0.688564
 42
50.0
 43
0.0
 44
0.0
 50
0.0
 51
0.0
 71
     0
 72
   100
 73
     1
 74
     1
 75
     0
 76
     0
 77
     0
 78
     0
281
     0
 65
     0
110
0.0
120
0.0
130
0.0
111
1.0
121
0.0
131
0.0
112
0.0
122
1.0
132
0.0
345
0
346
0
 79
     0
146
0.0
  0
ENDTAB
  0
TABLE
  2
LTYPE
  5
4
100
AcDbSymbolTable
 70
     4
  0
LTYPE
  5
11
100
AcDbSymbolTableRecord
100
AcDbLinetypeTableRecord
  2
ByBlock
 70
    64
  3

 72
    65
 73
     0
 40
0.0
  0
LTYPE
  5
12
100
AcDbSymbolTableRecord
100
AcDbLinetypeTableRecord
  2
ByLayer
 70
    64
  3

 72
    65
 73
     0
 40
0.0
  0
LTYPE
  5
13
100
AcDbSymbolTableRecord
100
AcDbLinetypeTableRecord
  2
Continuous
 70
    64
  3
Solid line
 72
    65
 73
     0
 40
0.0
  0
LTYPE
  5
24
100
AcDbSymbolTableRecord
100
AcDbLinetypeTableRecord
  2
DASHDOT
 70
     0
  3
 __ . __ . __ . __ . __ . __ . __ . 
 72
    65
 73
     4
 40
18.5
 49
12.0
 74
     0
 49
-3.0
 74
     0
 49
0.5
 74
     0
 49
-3.0
 74
     0
  0
ENDTAB
  0
TABLE
  2
LAYER
  5
2
100
AcDbSymbolTable
 70
     2
  0
LAYER
  5
14
100
AcDbSymbolTableRecord
100
AcDbLayerTableRecord
  2
0
 70
     0
 62
     7
  6
Continuous
290
     1
370
    13
390
1D
  0
LAYER
  5
25
100
AcDbSymbolTableRecord
100
AcDbLayerTableRecord
  2
1
 70
     0
 62
     7
  6
Continuous
290
     1
370
    13
390
1D
  0
ENDTAB
  0
TABLE
  2
STYLE
  5
3
100
AcDbSymbolTable
 70
     2
  0
STYLE
  5
17
100
AcDbSymbolTableRecord
100
AcDbTextStyleTableRecord
  2
STANDARD
 70
     0
 40
0.0
 41
1.0
 50
0.0
 71
     0
 42
0.0
  3
isocp.shx
  4

  0
STYLE
  5
26
100
AcDbSymbolTableRecord
100
AcDbTextStyleTableRecord
  2
GDT
 70
     0
 40
0.0
 41
1.0
 50
0.0
 71
     0
 42
0.0
  3
gdt.shx
  4

  0
ENDTAB
  0
TABLE
  2
VIEW
  5
5
100
AcDbSymbolTable
 70
     0
  0
ENDTAB
  0
TABLE
  2
UCS
  5
6
100
AcDbSymbolTable
 70
     0
  0
ENDTAB
  0
TABLE
  2
APPID
  5
8
100
AcDbSymbolTable
 70
     1
  0
APPID
  5
16
100
AcDbSymbolTableRecord
100
AcDbRegAppTableRecord
  2
ACAD
 70
     0
  0
ENDTAB
  0
TABLE
  2
DIMSTYLE
  5
9
100
AcDbSymbolTable
 70
     1
100
AcDbDimStyleTable
 71
     0
  0
DIMSTYLE
105
18
100
AcDbSymbolTableRecord
100
AcDbDimStyleTableRecord
  2
STANDARD
 70
     0
  3

  4

 40
1.0
 41
0.18
 42
0.0625
 43
0.38
 44
0.18
 45
0.0
 46
0.0
 47
0.0
 48
0.0
 71
     0
 72
     0
 73
     1
 74
     1
 75
     0
 76
     0
 77
     0
 78
     0
 79
     0
140
0.18
141
0.09
142
0.0
143
25.4
144
1.0
145
0.0
146
1.0
147
0.09
148
0.0
170
     0
171
     2
172
     0
173
     0
174
     0
175
     0
176
     0
177
     0
178
     0
179
     0
271
     4
272
     4
273
     2
274
     2
275
     0
276
     0
277
     2
278
    46
279
     0
280
     0
281
     0
282
     0
283
     1
284
     0
285
     0
286
     0
288
     0
289
     0
340
0
341
0
342
0
343
0
344
0
371
    -2
372
    -2
  0
ENDTAB
  0
TABLE
  2
BLOCK_RECORD
  5
1
100
AcDbSymbolTable
 70
    20
  0
BLOCK_RECORD
  5
A
100
AcDbSymbolTableRecord
100
AcDbBlockTableRecord
  2
*MODEL_SPACE
340
20
  0
BLOCK_RECORD
  5
B
100
AcDbSymbolTableRecord
100
AcDbBlockTableRecord
  2
*PAPER_SPACE
340
21
  0
BLOCK_RECORD
  5
366
100
AcDbSymbolTableRecord
100
AcDbBlockTableRecord
  2
BLOCK1
340
0
102
{BLKREFS
331
531
102
}
  0
BLOCK_RECORD
  5
367
100
AcDbSymbolTableRecord
100
AcDbBlockTableRecord
  2
BLOCK2
340
0
102
{BLKREFS
331
532
102
}
  0
BLOCK_RECORD
  5
368
100
AcDbSymbolTableRecord
100
AcDbBlockTableRecord
  2
BLOCK3
340
0
102
{BLKREFS
331
533
102
}
  0
BLOCK_RECORD
  5
369
100
AcDbSymbolTableRecord
100
AcDbBlockTableRecord
  2
BLOCK4
340
0
102
{BLKREFS
331
534
102
}
  0
BLOCK_RECORD
  5
36A
100
AcDbSymbolTableRecord
100
AcDbBlockTableRecord
  2
BLOCK5
340
0
102
{BLKREFS
331
535
102
}
  0
BLOCK_RECORD
  5
36B
100
AcDbSymbolTableRecord
100
AcDbBlockTableRecord
  2
BLOCK6
340
0
102
{BLKREFS
331
536
102
}
  0
BLOCK_RECORD
  5
36C
100
AcDbSymbolTableRecord
100
AcDbBlockTableRecord
  2
BLOCK7
340
0
102
{BLKREFS
331
537
102
}
  0
BLOCK_RECORD
  5
36D
100
AcDbSymbolTableRecord
100
AcDbBlockTableRecord
  2
BLOCK8
340
0
102
{BLKREFS
331
538
102
}
  0
BLOCK_RECORD
  5
36E
100
AcDbSymbolTableRecord
100
AcDbBlockTableRecord
  2
BLOCK9
340
0
102
{BLKREFS
331
539
102
}
  0
BLOCK_RECORD
  5
36F
100
AcDbSymbolTableRecord
100
AcDbBlockTableRecord
  2
BLOCK10
340
0
102
{BLKREFS
331
53A
102
}
  0
BLOCK_RECORD
  5
370
100
AcDbSymbolTableRecord
100
AcDbBlockTableRecord
  2
BLOCK11
340
0
102
{BLKREFS
331
53B
102
}
  0
BLOCK_RECORD
  5
371
100
AcDbSymbolTableRecord
100
AcDbBlockTableRecord
  2
BLOCK12
340
0
102
{BLKREFS
331
53C
102
}
  0
BLOCK_RECORD
  5
372
100
AcDbSymbolTableRecord
100
AcDbBlockTableRecord
  2
BLOCK13
340
0
102
{BLKREFS
331
53D
102
}
  0
BLOCK_RECORD
  5
373
100
AcDbSymbolTableRecord
100
AcDbBlockTableRecord
  2
BLOCK14
340
0
102
{BLKREFS
331
53E
102
}
  0
BLOCK_RECORD
  5
374
100
AcDbSymbolTableRecord
100
AcDbBlockTableRecord
  2
BLOCK15
340
0
102
{BLKREFS
331
53F
102
}
  0
BLOCK_RECORD
  5
375
100
AcDbSymbolTableRecord
100
AcDbBlockTableRecord
  2
BLOCK16
340
0
102
{BLKREFS
331
540
102
}
  0
BLOCK_RECORD
  5
376
100
AcDbSymbolTableRecord
100
AcDbBlockTableRecord
  2
BLOCK17
340
0
102
{BLKREFS
331
541
102
}
  0
BLOCK_RECORD
  5
377
100
AcDbSymbolTableRecord
100
AcDbBlockTableRecord
  2
BLOCK18
340
0
102
{BLKREFS
331
542
102
}
  0
BLOCK_RECORD
  5
378
100
AcDbSymbolTableRecord
100
AcDbBlockTableRecord
  2
BLOCK19
340
0
102
{BLKREFS
331
543
102
}
  0
BLOCK_RECORD
  5
379
100
AcDbSymbolTableRecord
100
AcDbBlockTableRecord
  2
BLOCK20
340
0
102
{BLKREFS
331
544
102
}
  0
ENDTAB
  0
ENDSEC
  0
SECTION
  2
BLOCKS
  0
BLOCK
  5
D
100
AcDbEntity
  8
0
390
0
100
AcDbBlockBegin
  2
*MODEL_SPACE
 70
     0
 10
0.0
 20
0.0
 30
0.0
  3
*MODEL_SPACE
  1

  0
ENDBLK
  5
E
100
AcDbEntity
  8
0
390
0
100
AcDbBlockEnd
  0
BLOCK
  5
F
100
AcDbEntity
 67
     1
  8
0
390
0
100
AcDbBlockBegin
  2
*PAPER_SPACE
 70
     0
 10
0.0
 20
0.0
 30
0.0
  3
*PAPER_SPACE
  1

  0
ENDBLK
  5
10
100
AcDbEntity
 67
     1
  8
0
390
0
100
AcDbBlockEnd
  0
BLOCK
  5
37A
100
AcDbEntity
  8
0
370
     0
390
0
100
AcDbBlockBegin
  2
BLOCK1
 70
     0
 10
0.0
 20
0.0
 30
0.0
  3
BLOCK1
  1

  0
TEXT
  5
37B
100
AcDbEntity
  8
0
370
    13
390
0
 62
     7
 48
0.03937
100
AcDbText
 10
8.235154
 20
0.858248
 30
0.0
 40
0.1
  1
400-BLIND-RF
 72
     5
 11
9.451918
 21
0.858248
 31
0.0
100
AcDbText
  0
TEXT
  5
37C
100
AcDbEntity
  8
0
370
    13
390
0
 62
     7
 48
0.03937
100
AcDbText
 10
9.453442
 20
0.858248
 30
0.0
 40
0.1
  1
-
 72
     5
 11
9.553442
 21
0.858248
 31
0.0
100
AcDbText
  0
TEXT
  5
37D
100
AcDbEntity
  8
0
370
    13
390
0
 62
     7
 48
0.03937
100
AcDbText
 10
9.554966
 20
0.858248
 30
0.0
 40
0.1
  1
FLANGE
 72
     5
 11
10.162585
 21
0.858248
 31
0.0
100
AcDbText
  0
ENDBLK
  5
37E
100
AcDbEntity
  8
0
390
0
100
AcDbBlockEnd
  0
BLOCK
  5
37F
100
AcDbEntity
  8
0
370
     0
390
0
100
AcDbBlockBegin
  2
BLOCK2
 70
     0
 10
0.0
 20
0.0
 30
0.0
  3
BLOCK2
  1

  0
TEXT
  5
380
100
AcDbEntity
  8
0
370
    13
390
0
 62
     7
 48
0.03937
100
AcDbText
 10
8.593215
 20
1.055967
 30
0.0
 40
0.1
  1
6
 72
     5
 11
8.693215
 21
1.055967
 31
0.0
100
AcDbText
  0
TEXT
  5
381
100
AcDbEntity
  8
0
370
    13
390
0
 62
     7
 48
0.03937
100
AcDbText
 10
8.694739
 20
1.055967
 30
0.0
 40
0.1
  1
" NOM. PIPE
 72
     5
 11
9.809979
 21
1.055967
 31
0.0
100
AcDbText
  0
ENDBLK
  5
382
100
AcDbEntity
  8
0
390
0
100
AcDbBlockEnd
  0
BLOCK
  5
383
100
AcDbEntity
  8
0
370
     0
390
0
100
AcDbBlockBegin
  2
BLOCK3
 70
     0
 10
0.0
 20
0.0
 30
0.0
  3
BLOCK3
  1

  0
TEXT
  5
384
100
AcDbEntity
  8
0
370
    13
390
0
 62
     7
 48
0.03937
100
AcDbText
 10
10.093103
 20
0.689966
 30
0.0
 40
0.06
  1
PO Box 2889
 72
     5
 11
10.730818
 21
0.689966
 31
0.0
100
AcDbText
  0
TEXT
  5
385
100
AcDbEntity
  8
0
370
    13
390
0
 62
     7
 48
0.03937
100
AcDbText
 10
9.686702
 20
0.589966
 30
0.0
 40
0.06
  1
Pearland, TX 77588
 72
     5
 11
10.730818
 21
0.589966
 31
0.0
100
AcDbText
  0
TEXT
  5
386
100
AcDbEntity
  8
0
370
    13
390
0
 62
     7
 48
0.03937
100
AcDbText
 10
9.802816
 20
0.489966
 30
0.0
 40
0.06
  1
PH: 800-826-3801
 72
     5
 11
10.730818
 21
0.489966
 31
0.0
100
AcDbText
  0
TEXT
  5
387
100
AcDbEntity
  8
0
370
    13
390
0
 62
     7
 48
0.03937
100
AcDbText
 10
9.744759
 20
0.389966
 30
0.0
 40
0.06
  1
FAX: 281-484-8730
 72
     5
 11
10.730818
 21
0.389966
 31
0.0
100
AcDbText
  0
TEXT
  5
388
100
AcDbEntity
  8
0
370
    13
390
0
 62
     7
 48
0.03937
100
AcDbText
 10
9.628644
 20
0.289966
 30
0.0
 40
0.06
  1
www.texasflange.com
 72
     5
 11
10.730818
 21
0.289966
 31
0.0
100
AcDbText
  0
ENDBLK
  5
389
100
AcDbEntity
  8
0
390
0
100
AcDbBlockEnd
  0
BLOCK
  5
38A
100
AcDbEntity
  8
0
370
     0
390
0
100
AcDbBlockBegin
  2
BLOCK4
 70
     0
 10
0.0
 20
0.0
 30
0.0
  3
BLOCK4
  1

  0
TEXT
  5
38B
100
AcDbEntity
  8
0
370
    13
390
0
 62
     7
 48
0.03937
100
AcDbText
 10
8.289209
 20
0.587871
 30
0.0
 40
0.2
  1
Texas
 72
     5
 11
9.383692
 21
0.587871
 31
0.0
100
AcDbText
  0
TEXT
  5
38C
100
AcDbEntity
  8
0
370
    13
390
0
 62
     7
 48
0.03937
100
AcDbText
 10
8.289209
 20
0.327871
 30
0.0
 40
0.2
  1
Flange
 72
     5
 11
9.608945
 21
0.327871
 31
0.0
100
AcDbText
  0
ENDBLK
  5
38D
100
AcDbEntity
  8
0
390
0
100
AcDbBlockEnd
  0
BLOCK
  5
38E
100
AcDbEntity
  8
0
370
     0
390
0
100
AcDbBlockBegin
  2
BLOCK5
 70
     0
 10
0.0
 20
0.0
 30
0.0
  3
BLOCK5
  1

  0
LINE
  5
38F
100
AcDbEntity
  8
0
370
     5
390
0
 62
     7
 48
0.00324
100
AcDbLine
 10
8.029831
 20
0.605292
 30
0.0
 11
7.900255
 21
0.604209
 31
0.0
210
0.0
220
0.0
230
1.0
  0
LINE
  5
390
100
AcDbEntity
  8
0
370
     5
390
0
 62
     7
 48
0.000103
100
AcDbLine
 10
7.900255
 20
0.604209
 30
0.0
 11
7.902151
 21
0.600546
 31
0.0
210
0.0
220
0.0
230
1.0
  0
LINE
  5
391
100
AcDbEntity
  8
0
370
     5
390
0
 62
     7
 48
0.0001
100
AcDbLine
 10
7.902151
 20
0.600546
 30
0.0
 11
7.903945
 21
0.596951
 31
0.0
210
0.0
220
0.0
230
1.0
  0
LINE
  5
392
100
AcDbEntity
  8
0
370
     5
390
0
 62
     7
 48
0.000098
100
AcDbLine
 10
7.903945
 20
0.596951
 30
0.0
 11
7.905638
 21
0.593424
 31
0.0
210
0.0
220
0.0
230
1.0
  0
LINE
  5
393
100
AcDbEntity
  8
0
370
     5
390
0
 62
     7
 48
0.000095
100
AcDbLine
 10
7.905638
 20
0.593424
 30
0.0
 11
7.907229
 21
0.589967
 31
0.0
210
0.0
220
0.0
230
1.0
  0
LINE
  5
394
100
AcDbEntity
  8
0
370
     5
390
0
 62
     7
 48
0.000093
100
AcDbLine
 10
7.907229
 20
0.589967
 30
0.0
 11
7.908719
 21
0.58658
 31
0.0
210
0.0
220
0.0
230
1.0
  0
LINE
  5
395
100
AcDbEntity
  8
0
370
     5
390
0
 62
     7
 48
0.00009
100
AcDbLine
 10
7.908719
 20
0.58658
 30
0.0
 11
7.910106
 21
0.583262
 31
0.0
210
0.0
220
0.0
230
1.0
  0
LINE
  5
396
100
AcDbEntity
  8
0
370
     5
390
0
 62
     7
 48
0.000087
100
AcDbLine
 10
7.910106
 20
0.583262
 30
0.0
 11
7.911392
 21
0.580013
 31
0.0
210
0.0
220
0.0
230
1.0
  0
LINE
  5
397
100
AcDbEntity
  8
0
370
     5
390
0
 62
     7
 48
0.000085
100
AcDbLine
 10
7.911392
 20
0.580013
 30
0.0
 11
7.912577
 21
0.576833
 31
0.0
210
0.0
220
0.0
230
1.0
  0
LINE
  5
398
100
AcDbEntity
  8
0
370
     5
390
0
 62
     7
 48
0.000082
100
AcDbLine
 10
7.912577
 20
0.576833
 30
0.0
 11
7.913659
 21
0.573722
 31
0.0
210
0.0
220
0.0
230
1.0
  0
LINE
  5
399
100
AcDbEntity
  8
0
370
     5
390
0
 62
     7
 48
0.000095
100
AcDbLine
 10
7.913659
 20
0.573722
 30
0.0
 11
7.915938
 21
0.570681
 31
0.0
210
0.0
220
0.0
230
1.0
  0
LINE
  5
39A
100
AcDbEntity
  8
0
370
     5
390
0
 62
     7
 48
0.000066
100
AcDbLine
 10
7.915938
 20
0.570681
 30
0.0
 11
7.916123
 21
0.573306
 31
0.0
210
0.0
220
0.0
230
1.0
  0
LINE
  5
39B
100
AcDbEntity
  8
0
370
     5
390
0
 62
     7
 48
0.000062
100
AcDbLine
 10
7.916123
 20
0.573306
 30
0.0
 11
7.916418
 21
0.575775
 31
0.0
210
0.0
220
0.0
230
1.0
  0
LINE
  5
39C
100
AcDbEntity
  8
0
370
     5
390
0
 62
     7
 48
0.000059
100
AcDbLine
 10
7.916418
 20
0.575775
 30
0.0
 11
7.916824
 21
0.578087
 31
0.0
210
0.0
220
0.0
230
1.0
  0
LINE
  5
39D
100
AcDbEntity
  8
0
370
     5
390
0
 62
     7
 48
0.000055
100
AcDbLine
 10
7.916824
 20
0.578087
 30
0.0
 11
7.917339
 21
0.580242
 31
0.0
210
0.0
220
0.0
230
1.0
  0
LINE
  5
39E
100
AcDbEntity
  8
0
370
     5
390
0
 62
     7
 48
0.000052
100
AcDbLine
 10
7.917339
 20
0.580242
 30
0.0
 11
7.917966
 21
0.58224
 31
0.0
210
0.0
220
0.0
230
1.0
  0
LINE
  5
39F
100
AcDbEntity
  8
0
370
     5
390
0
 62
     7
 48
0.00005
100
AcDbLine
 10
7.917966
 20
0.58224
 30
0.0
 11
7.918703
 21
0.584081
 31
0.0
210
0.0
220
0.0
230
1.0
  0
LINE
  5
3A0
100
AcDbEntity
  8
0
370
     5
390
0
 62
     7
 48
0.000047
100
AcDbLine
 10
7.918703
 20
0.584081
 30
0.0
 11
7.919549
 21
0.585767
 31
0.0
210
0.0
220
0.0
230
1.0
  0
LINE
  5
3A1
100
AcDbEntity
  8
0
370
     5
390
0
 62
     7
 48
0.000045
100
AcDbLine
 10
7.919549
 20
0.585767
 30
0.0
 11
7.920506
 21
0.587294
 31
0.0
210
0.0
220
0.0
230
1.0
  0
LINE
  5
3A2
100
AcDbEntity
  8
0
370
     5
390
0
 62
     7
 48
0.000043
100
AcDbLine
 10
7.920506
 20
0.587294
 30
0.0
 11
7.921574
 21
0.588665
 31
0.0
210
0.0
220
0.0
230
1.0
  0
LINE
  5
3A3
100
AcDbEntity
  8
0
370
     5
390
0
 62
     7
 48
0.000042
100
AcDbLine
 10
7.921574
 20
0.588665
 30
0.0
 11
7.922751
 21
0.58988
 31
0.0
210
0.0
220
0.0
230
1.0
  0
LINE
  5
3A4
100
AcDbEntity
  8
0
370
     5
390
0
 62
     7
 48
0.000042
100
AcDbLine
 10
7.922751
 20
0.58988
 30
0.0
 11
7.924063
 21
0.590958
 31
0.0
210
0.0
220
0.0
230
1.0
  0
LINE
  5
3A5
100
AcDbEntity
  8
0
370
     5
390
0
 62
     7
 48
0.000044
100
AcDbLine
 10
7.924063
 20
0.590958
 30
0.0
 11
7.92553
 21
0.591923
 31
0.0
210
0.0
220
0.0
230
1.0
  0
LINE
  5
3A6
100
AcDbEntity
  8
0
370
     5
390
0
 62
     7
 48
0.000046
100
AcDbLine
 10
7.92553
 20
0.591923
 30
0.0
 11
7.927152
 21
0.592775
 31
0.0
210
0.0
220
0.0
230
1.0
  0
LINE
  5
3A7
100
AcDbEntity
  8
0
370
     5
390
0
 62
     7
 48
0.000048
100
AcDbLine
 10
7.927152
 20
0.592775
 30
0.0
 11
7.92893
 21
0.593513
 31
0.0
210
0.0
220
0.0
230
1.0
  0
LINE
  5
3A8
100
AcDbEntity
  8
0
370
     5
390
0
 62
     7
 48
0.000051
100
AcDbLine
 10
7.92893
 20
0.593513
 30
0.0
 11
7.930864
 21
0.594138
 31
0.0
210
0.0
220
0.0
230
1.0
  0
LINE
  5
3A9
100
AcDbEntity
  8
0
370
     5
390
0
 62
     7
 48
0.000054
100
AcDbLine
 10
7.930864
 20
0.594138
 30
0.0
 11
7.932953
 21
0.594648
 31
0.0
210
0.0
220
0.0
230
1.0
  0
LINE
  5
3AA
100
AcDbEntity
  8
0
370
     5
390
0
 62
     7
 48
0.000057
100
AcDbLine
 10
7.932953
 20
0.594648
 30
0.0
 11
7.9352
 21
0.595046
 31
0.0
210
0.0
220
0.0
230
1.0
  0
LINE
  5
3AB
100
AcDbEntity
  8
0
370
     5
390
0
 62
     7
 48
0.00006
100
AcDbLine
 10
7.9352
 20
0.595046
 30
0.0
 11
7.9376
 21
0.595331
 31
0.0
210
0.0
220
0.0
230
1.0
  0
LINE
  5
3AC
100
AcDbEntity
  8
0
370
     5
390
0
 62
     7
 48
0.000064
100
AcDbLine
 10
7.9376
 20
0.595331
 30
0.0
 11
7.940158
 21
0.5955
 31
0.0
210
0.0
220
0.0
230
1.0
  0
LINE
  5
3AD
100
AcDbEntity
  8
0
370
     5
390
0
 62
     7
 48
0.000068
100
AcDbLine
 10
7.940158
 20
0.5955
 30
0.0
 11
7.94287
 21
0.595557
 31
0.0
210
0.0
220
0.0
230
1.0
  0
LINE
  5
3AE
100
AcDbEntity
  8
0
370
     5
390
0
 62
     7
 48
0.00005
100
AcDbLine
 10
7.94287
 20
0.595557
 30
0.0
 11
7.944881
 21
0.595532
 31
0.0
210
0.0
220
0.0
230
1.0
  0
LINE
  5
3AF
100
AcDbEntity
  8
0
370
     5
390
0
 62
     7
 48
0.000051
100
AcDbLine
 10
7.944881
 20
0.595532
 30
0.0
 11
7.946936
 21
0.595454
 31
0.0
210
0.0
220
0.0
230
1.0
  0
LINE
  5
3B0
100
AcDbEntity
  8
0
370
     5
390
0
 62
     7
 48
0.000053
100
AcDbLine
 10
7.946936
 20
0.595454
 30
0.0
 11
7.949034
 21
0.595323
 31
0.0
210
0.0
220
0.0
230
1.0
  0
LINE
  5
3B1
100
AcDbEntity
  8
0
370
     5
390
0
 62
     7
 48
0.000054
100
AcDbLine
 10
7.949034
 20
0.595323
 30
0.0
 11
7.951177
 21
0.595142
 31
0.0
210
0.0
220
0.0
230
1.0
  0
LINE
  5
3B2
100
AcDbEntity
  8
0
370
     5
390
0
 62
     7
 48
0.000055
100
AcDbLine
 10
7.951177
 20
0.595142
 30
0.0
 11
7.953361
 21
0.594908
 31
0.0
210
0.0
220
0.0
230
1.0
  0
LINE
  5
3B3
100
AcDbEntity
  8
0
370
     5
390
0
 62
     7
 48
0.000136
100
AcDbLine
 10
7.953361
 20
0.594908
 30
0.0
 11
7.952171
 21
0.589608
 31
0.0
210
0.0
220
0.0
230
1.0
  0
LINE
  5
3B4
100
AcDbEntity
  8
0
370
     5
390
0
 62
     7
 48
0.000162
100
AcDbLine
 10
7.952171
 20
0.589608
 30
0.0
 11
7.945682
 21
0.589716
 31
0.0
210
0.0
220
0.0
230
1.0
  0
LINE
  5
3B5
100
AcDbEntity
  8
0
370
     5
390
0
 62
     7
 48
0.00006
100
AcDbLine
 10
7.945682
 20
0.589716
 30
0.0
 11
7.943286
 21
0.589667
 31
0.0
210
0.0
220
0.0
230
1.0
  0
LINE
  5
3B6
100
AcDbEntity
  8
0
370
     5
390
0
 62
     7
 48
0.000057
100
AcDbLine
 10
7.943286
 20
0.589667
 30
0.0
 11
7.941029
 21
0.589518
 31
0.0
210
0.0
220
0.0
230
1.0
  0
LINE
  5
3B7
100
AcDbEntity
  8
0
370
     5
390
0
 62
     7
 48
0.000053
100
AcDbLine
 10
7.941029
 20
0.589518
 30
0.0
 11
7.938912
 21
0.589269
 31
0.0
210
0.0
220
0.0
230
1.0
  0
LINE
  5
3B8
100
AcDbEntity
  8
0
370
     5
390
0
 62
     7
 48
0.00005
100
AcDbLine
 10
7.938912
 20
0.589269
 30
0.0
 11
7.936934
 21
0.588921
 31
0.0
210
0.0
220
0.0
230
1.0
  0
LINE
  5
3B9
100
AcDbEntity
  8
0
370
     5
390
0
 62
     7
 48
0.000047
100
AcDbLine
 10
7.936934
 20
0.588921
 30
0.0
 11
7.935095
 21
0.588473
 31
0.0
210
0.0
220
0.0
230
1.0
  0
LINE
  5
3BA
100
AcDbEntity
  8
0
370
     5
390
0
 62
     7
 48
0.000045
100
AcDbLine
 10
7.935095
 20
0.588473
 30
0.0
 11
7.933397
 21
0.587925
 31
0.0
210
0.0
220
0.0
230
1.0
  0
LINE
  5
3BB
100
AcDbEntity
  8
0
370
     5
390
0
 62
     7
 48
0.000042
100
AcDbLine
 10
7.933397
 20
0.587925
 30
0.0
 11
7.931839
 21
0.587279
 31
0.0
210
0.0
220
0.0
230
1.0
  0
LINE
  5
3BC
100
AcDbEntity
  8
0
370
     5
390
0
 62
     7
 48
0.00004
100
AcDbLine
 10
7.931839
 20
0.587279
 30
0.0
 11
7.930418
 21
0.586532
 31
0.0
210
0.0
220
0.0
230
1.0
  0
LINE
  5
3BD
100
AcDbEntity
  8
0
370
     5
390
0
 62
     7
 48
0.000038
100
AcDbLine
 10
7.930418
 20
0.586532
 30
0.0
 11
7.929138
 21
0.585687
 31
0.0
210
0.0
220
0.0
230
1.0
  0
LINE
  5
3BE
100
AcDbEntity
  8
0
370
     5
390
0
 62
     7
 48
0.000074
100
AcDbLine
 10
7.929138
 20
0.585687
 30
0.0
 11
7.926968
 21
0.58367
 31
0.0
210
0.0
220
0.0
230
1.0
  0
LINE
  5
3BF
100
AcDbEntity
  8
0
370
     5
390
0
 62
     7
 48
0.000039
100
AcDbLine
 10
7.926968
 20
0.58367
 30
0.0
 11
7.926023
 21
0.582444
 31
0.0
210
0.0
220
0.0
230
1.0
  0
LINE
  5
3C0
100
AcDbEntity
  8
0
370
     5
390
0
 62
     7
 48
0.000041
100
AcDbLine
 10
7.926023
 20
0.582444
 30
0.0
 11
7.92516
 21
0.581064
 31
0.0
210
0.0
220
0.0
230
1.0
  0
LINE
  5
3C1
100
AcDbEntity
  8
0
370
     5
390
0
 62
     7
 48
0.000043
100
AcDbLine
 10
7.92516
 20
0.581064
 30
0.0
 11
7.924381
 21
0.579533
 31
0.0
210
0.0
220
0.0
230
1.0
  0
LINE
  5
3C2
100
AcDbEntity
  8
0
370
     5
390
0
 62
     7
 48
0.000046
100
AcDbLine
 10
7.924381
 20
0.579533
 30
0.0
 11
7.923684
 21
0.577847
 31
0.0
210
0.0
220
0.0
230
1.0
  0
LINE
  5
3C3
100
AcDbEntity
  8
0
370
     5
390
0
 62
     7
 48
0.000048
100
AcDbLine
 10
7.923684
 20
0.577847
 30
0.0
 11
7.923073
 21
0.576006
 31
0.0
210
0.0
220
0.0
230
1.0
  0
LINE
  5
3C4
100
AcDbEntity
  8
0
370
     5
390
0
 62
     7
 48
0.000052
100
AcDbLine
 10
7.923073
 20
0.576006
 30
0.0
 11
7.922543
 21
0.574013
 31
0.0
210
0.0
220
0.0
230
1.0
  0
LINE
  5
3C5
100
AcDbEntity
  8
0
370
     5
390
0
 62
     7
 48
0.000055
100
AcDbLine
 10
7.922543
 20
0.574013
 30
0.0
 11
7.922096
 21
0.571866
 31
0.0
210
0.0
220
0.0
230
1.0
  0
LINE
  5
3C6
100
AcDbEntity
  8
0
370
     5
390
0
 62
     7
 48
0.000058
100
AcDbLine
 10
7.922096
 20
0.571866
 30
0.0
 11
7.921734
 21
0.569565
 31
0.0
210
0.0
220
0.0
230
1.0
  0
LINE
  5
3C7
100
AcDbEntity
  8
0
370
     5
390
0
 62
     7
 48
0.000062
100
AcDbLine
 10
7.921734
 20
0.569565
 30
0.0
 11
7.921454
 21
0.567111
 31
0.0
210
0.0
220
0.0
230
1.0
  0
LINE
  5
3C8
100
AcDbEntity
  8
0
370
     5
390
0
 62
     7
 48
0.00007
100
AcDbLine
 10
7.921454
 20
0.567111
 30
0.0
 11
7.924266
 21
0.567111
 31
0.0
210
0.0
220
0.0
230
1.0
  0
LINE
  5
3C9
100
AcDbEntity
  8
0
370
     5
390
0
 62
     7
 48
0.000054
100
AcDbLine
 10
7.924266
 20
0.567111
 30
0.0
 11
7.924478
 21
0.569252
 31
0.0
210
0.0
220
0.0
230
1.0
  0
LINE
  5
3CA
100
AcDbEntity
  8
0
370
     5
390
0
 62
     7
 48
0.000051
100
AcDbLine
 10
7.924478
 20
0.569252
 30
0.0
 11
7.924766
 21
0.571259
 31
0.0
210
0.0
220
0.0
230
1.0
  0
LINE
  5
3CB
100
AcDbEntity
  8
0
370
     5
390
0
 62
     7
 48
0.000048
100
AcDbLine
 10
7.924766
 20
0.571259
 30
0.0
 11
7.92513
 21
0.573132
 31
0.0
210
0.0
220
0.0
230
1.0
  0
LINE
  5
3CC
100
AcDbEntity
  8
0
370
     5
390
0
 62
     7
 48
0.000045
100
AcDbLine
 10
7.92513
 20
0.573132
 30
0.0
 11
7.925573
 21
0.574872
 31
0.0
210
0.0
220
0.0
230
1.0
  0
LINE
  5
3CD
100
AcDbEntity
  8
0
370
     5
390
0
 62
     7
 48
0.000042
100
AcDbLine
 10
7.925573
 20
0.574872
 30
0.0
 11
7.926092
 21
0.57648
 31
0.0
210
0.0
220
0.0
230
1.0
  0
LINE
  5
3CE
100
AcDbEntity
  8
0
370
     5
390
0
 62
     7
 48
0.000077
100
AcDbLine
 10
7.926092
 20
0.57648
 30
0.0
 11
7.92736
 21
0.579297
 31
0.0
210
0.0
220
0.0
230
1.0
  0
LINE
  5
3CF
100
AcDbEntity
  8
0
370
     5
390
0
 62
     7
 48
0.000069
100
AcDbLine
 10
7.92736
 20
0.579297
 30
0.0
 11
7.928935
 21
0.581582
 31
0.0
210
0.0
220
0.0
230
1.0
  0
LINE
  5
3D0
100
AcDbEntity
  8
0
370
     5
390
0
 62
     7
 48
0.000065
100
AcDbLine
 10
7.928935
 20
0.581582
 30
0.0
 11
7.930843
 21
0.583356
 31
0.0
210
0.0
220
0.0
230
1.0
  0
LINE
  5
3D1
100
AcDbEntity
  8
0
370
     5
390
0
 62
     7
 48
0.000069
100
AcDbLine
 10
7.930843
 20
0.583356
 30
0.0
 11
7.93324
 21
0.584759
 31
0.0
210
0.0
220
0.0
230
1.0
  0
LINE
  5
3D2
100
AcDbEntity
  8
0
370
     5
390
0
 62
     7
 48
0.000038
100
AcDbLine
 10
7.93324
 20
0.584759
 30
0.0
 11
7.93463
 21
0.585327
 31
0.0
210
0.0
220
0.0
230
1.0
  0
LINE
  5
3D3
100
AcDbEntity
  8
0
370
     5
390
0
 62
     7
 48
0.00004
100
AcDbLine
 10
7.93463
 20
0.585327
 30
0.0
 11
7.936151
 21
0.585809
 31
0.0
210
0.0
220
0.0
230
1.0
  0
LINE
  5
3D4
100
AcDbEntity
  8
0
370
     5
390
0
 62
     7
 48
0.000042
100
AcDbLine
 10
7.936151
 20
0.585809
 30
0.0
 11
7.937799
 21
0.586203
 31
0.0
210
0.0
220
0.0
230
1.0
  0
LINE
  5
3D5
100
AcDbEntity
  8
0
370
     5
390
0
 62
     7
 48
0.000045
100
AcDbLine
 10
7.937799
 20
0.586203
 30
0.0
 11
7.939577
 21
0.586511
 31
0.0
210
0.0
220
0.0
230
1.0
  0
LINE
  5
3D6
100
AcDbEntity
  8
0
370
     5
390
0
 62
     7
 48
0.000048
100
AcDbLine
 10
7.939577
 20
0.586511
 30
0.0
 11
7.941484
 21
0.58673
 31
0.0
210
0.0
220
0.0
230
1.0
  0
LINE
  5
3D7
100
AcDbEntity
  8
0
370
     5
390
0
 62
     7
 48
0.000051
100
AcDbLine
 10
7.941484
 20
0.58673
 30
0.0
 11
7.943519
 21
0.58686
 31
0.0
210
0.0
220
0.0
230
1.0
  0
LINE
  5
3D8
100
AcDbEntity
  8
0
370
     5
390
0
 62
     7
 48
0.000054
100
AcDbLine
 10
7.943519
 20
0.58686
 30
0.0
 11
7.945682
 21
0.586905
 31
0.0
210
0.0
220
0.0
230
1.0
  0
LINE
  5
3D9
100
AcDbEntity
  8
0
370
     5
390
0
 62
     7
 48
0.000192
100
AcDbLine
 10
7.945682
 20
0.586905
 30
0.0
 11
7.953361
 21
0.586796
 31
0.0
210
0.0
220
0.0
230
1.0
  0
LINE
  5
3DA
100
AcDbEntity
  8
0
370
     5
390
0
 62
     7
 48
0.00269
100
AcDbLine
 10
7.953361
 20
0.586796
 30
0.0
 11
7.953361
 21
0.479178
 31
0.0
210
0.0
220
0.0
230
1.0
  0
LINE
  5
3DB
100
AcDbEntity
  8
0
370
     5
390
0
 62
     7
 48
0.000493
100
AcDbLine
 10
7.953361
 20
0.479178
 30
0.0
 11
7.93822
 21
0.466523
 31
0.0
210
0.0
220
0.0
230
1.0
  0
LINE
  5
3DC
100
AcDbEntity
  8
0
370
     5
390
0
 62
     7
 48
0.001236
100
AcDbLine
 10
7.93822
 20
0.466523
 30
0.0
 11
7.987647
 21
0.466523
 31
0.0
210
0.0
220
0.0
230
1.0
  0
LINE
  5
3DD
100
AcDbEntity
  8
0
370
     5
390
0
 62
     7
 48
0.000434
100
AcDbLine
 10
7.987647
 20
0.466523
 30
0.0
 11
7.974885
 21
0.478313
 31
0.0
210
0.0
220
0.0
230
1.0
  0
LINE
  5
3DE
100
AcDbEntity
  8
0
370
     5
390
0
 62
     7
 48
0.002931
100
AcDbLine
 10
7.974885
 20
0.478313
 30
0.0
 11
7.976183
 21
0.595557
 31
0.0
210
0.0
220
0.0
230
1.0
  0
LINE
  5
3DF
100
AcDbEntity
  8
0
370
     5
390
0
 62
     7
 48
0.000049
100
AcDbLine
 10
7.976183
 20
0.595557
 30
0.0
 11
7.97813
 21
0.595713
 31
0.0
210
0.0
220
0.0
230
1.0
  0
LINE
  5
3E0
100
AcDbEntity
  8
0
370
     5
390
0
 62
     7
 48
0.000049
100
AcDbLine
 10
7.97813
 20
0.595713
 30
0.0
 11
7.980077
 21
0.595835
 31
0.0
210
0.0
220
0.0
230
1.0
  0
LINE
  5
3E1
100
AcDbEntity
  8
0
370
     5
390
0
 62
     7
 48
0.000049
100
AcDbLine
 10
7.980077
 20
0.595835
 30
0.0
 11
7.982024
 21
0.59592
 31
0.0
210
0.0
220
0.0
230
1.0
  0
LINE
  5
3E2
100
AcDbEntity
  8
0
370
     5
390
0
 62
     7
 48
0.000049
100
AcDbLine
 10
7.982024
 20
0.59592
 30
0.0
 11
7.983971
 21
0.595973
 31
0.0
210
0.0
220
0.0
230
1.0
  0
LINE
  5
3E3
100
AcDbEntity
  8
0
370
     5
390
0
 62
     7
 48
0.000049
100
AcDbLine
 10
7.983971
 20
0.595973
 30
0.0
 11
7.985918
 21
0.595991
 31
0.0
210
0.0
220
0.0
230
1.0
  0
LINE
  5
3E4
100
AcDbEntity
  8
0
370
     5
390
0
 62
     7
 48
0.000058
100
AcDbLine
 10
7.985918
 20
0.595991
 30
0.0
 11
7.988236
 21
0.595943
 31
0.0
210
0.0
220
0.0
230
1.0
  0
LINE
  5
3E5
100
AcDbEntity
  8
0
370
     5
390
0
 62
     7
 48
0.000055
100
AcDbLine
 10
7.988236
 20
0.595943
 30
0.0
 11
7.990431
 21
0.595799
 31
0.0
210
0.0
220
0.0
230
1.0
  0
LINE
  5
3E6
100
AcDbEntity
  8
0
370
     5
390
0
 62
     7
 48
0.000052
100
AcDbLine
 10
7.990431
 20
0.595799
 30
0.0
 11
7.992506
 21
0.595562
 31
0.0
210
0.0
220
0.0
230
1.0
  0
LINE
  5
3E7
100
AcDbEntity
  8
0
370
     5
390
0
 62
     7
 48
0.000049
100
AcDbLine
 10
7.992506
 20
0.595562
 30
0.0
 11
7.994457
 21
0.595229
 31
0.0
210
0.0
220
0.0
230
1.0
  0
LINE
  5
3E8
100
AcDbEntity
  8
0
370
     5
390
0
 62
     7
 48
0.000047
100
AcDbLine
 10
7.994457
 20
0.595229
 30
0.0
 11
7.996287
 21
0.5948
 31
0.0
210
0.0
220
0.0
230
1.0
  0
LINE
  5
3E9
100
AcDbEntity
  8
0
370
     5
390
0
 62
     7
 48
0.000045
100
AcDbLine
 10
7.996287
 20
0.5948
 30
0.0
 11
7.997995
 21
0.594276
 31
0.0
210
0.0
220
0.0
230
1.0
  0
LINE
  5
3EA
100
AcDbEntity
  8
0
370
     5
390
0
 62
     7
 48
0.000043
100
AcDbLine
 10
7.997995
 20
0.594276
 30
0.0
 11
7.99958
 21
0.593658
 31
0.0
210
0.0
220
0.0
230
1.0
  0
LINE
  5
3EB
100
AcDbEntity
  8
0
370
     5
390
0
 62
     7
 48
0.000041
100
AcDbLine
 10
7.99958
 20
0.593658
 30
0.0
 11
8.001043
 21
0.592944
 31
0.0
210
0.0
220
0.0
230
1.0
  0
LINE
  5
3EC
100
AcDbEntity
  8
0
370
     5
390
0
 62
     7
 48
0.000039
100
AcDbLine
 10
8.001043
 20
0.592944
 30
0.0
 11
8.002384
 21
0.592136
 31
0.0
210
0.0
220
0.0
230
1.0
  0
LINE
  5
3ED
100
AcDbEntity
  8
0
370
     5
390
0
 62
     7
 48
0.000038
100
AcDbLine
 10
8.002384
 20
0.592136
 30
0.0
 11
8.003601
 21
0.591231
 31
0.0
210
0.0
220
0.0
230
1.0
  0
LINE
  5
3EE
100
AcDbEntity
  8
0
370
     5
390
0
 62
     7
 48
0.000038
100
AcDbLine
 10
8.003601
 20
0.591231
 30
0.0
 11
8.004733
 21
0.590204
 31
0.0
210
0.0
220
0.0
230
1.0
  0
LINE
  5
3EF
100
AcDbEntity
  8
0
370
     5
390
0
 62
     7
 48
0.00004
100
AcDbLine
 10
8.004733
 20
0.590204
 30
0.0
 11
8.00581
 21
0.589025
 31
0.0
210
0.0
220
0.0
230
1.0
  0
LINE
  5
3F0
100
AcDbEntity
  8
0
370
     5
390
0
 62
     7
 48
0.000042
100
AcDbLine
 10
8.00581
 20
0.589025
 30
0.0
 11
8.006836
 21
0.587694
 31
0.0
210
0.0
220
0.0
230
1.0
  0
LINE
  5
3F1
100
AcDbEntity
  8
0
370
     5
390
0
 62
     7
 48
0.000044
100
AcDbLine
 10
8.006836
 20
0.587694
 30
0.0
 11
8.007806
 21
0.586212
 31
0.0
210
0.0
220
0.0
230
1.0
  0
LINE
  5
3F2
100
AcDbEntity
  8
0
370
     5
390
0
 62
     7
 48
0.000047
100
AcDbLine
 10
8.007806
 20
0.586212
 30
0.0
 11
8.008726
 21
0.584579
 31
0.0
210
0.0
220
0.0
230
1.0
  0
LINE
  5
3F3
100
AcDbEntity
  8
0
370
     5
390
0
 62
     7
 48
0.00005
100
AcDbLine
 10
8.008726
 20
0.584579
 30
0.0
 11
8.009591
 21
0.582795
 31
0.0
210
0.0
220
0.0
230
1.0
  0
LINE
  5
3F4
100
AcDbEntity
  8
0
370
     5
390
0
 62
     7
 48
0.000053
100
AcDbLine
 10
8.009591
 20
0.582795
 30
0.0
 11
8.010404
 21
0.580859
 31
0.0
210
0.0
220
0.0
230
1.0
  0
LINE
  5
3F5
100
AcDbEntity
  8
0
370
     5
390
0
 62
     7
 48
0.000056
100
AcDbLine
 10
8.010404
 20
0.580859
 30
0.0
 11
8.011163
 21
0.578771
 31
0.0
210
0.0
220
0.0
230
1.0
  0
LINE
  5
3F6
100
AcDbEntity
  8
0
370
     5
390
0
 62
     7
 48
0.000059
100
AcDbLine
 10
8.011163
 20
0.578771
 30
0.0
 11
8.011871
 21
0.576531
 31
0.0
210
0.0
220
0.0
230
1.0
  0
LINE
  5
3F7
100
AcDbEntity
  8
0
370
     5
390
0
 62
     7
 48
0.000062
100
AcDbLine
 10
8.011871
 20
0.576531
 30
0.0
 11
8.012525
 21
0.574142
 31
0.0
210
0.0
220
0.0
230
1.0
  0
LINE
  5
3F8
100
AcDbEntity
  8
0
370
     5
390
0
 62
     7
 48
0.000057
100
AcDbLine
 10
8.012525
 20
0.574142
 30
0.0
 11
8.014147
 21
0.572519
 31
0.0
210
0.0
220
0.0
230
1.0
  0
LINE
  5
3F9
100
AcDbEntity
  8
0
370
     5
390
0
 62
     7
 48
0.000054
100
AcDbLine
 10
8.014147
 20
0.572519
 30
0.0
 11
8.014802
 21
0.574562
 31
0.0
210
0.0
220
0.0
230
1.0
  0
LINE
  5
3FA
100
AcDbEntity
  8
0
370
     5
390
0
 62
     7
 48
0.000052
100
AcDbLine
 10
8.014802
 20
0.574562
 30
0.0
 11
8.015467
 21
0.576534
 31
0.0
210
0.0
220
0.0
230
1.0
  0
LINE
  5
3FB
100
AcDbEntity
  8
0
370
     5
390
0
 62
     7
 48
0.000051
100
AcDbLine
 10
8.015467
 20
0.576534
 30
0.0
 11
8.016143
 21
0.578438
 31
0.0
210
0.0
220
0.0
230
1.0
  0
LINE
  5
3FC
100
AcDbEntity
  8
0
370
     5
390
0
 62
     7
 48
0.000049
100
AcDbLine
 10
8.016143
 20
0.578438
 30
0.0
 11
8.01683
 21
0.580272
 31
0.0
210
0.0
220
0.0
230
1.0
  0
LINE
  5
3FD
100
AcDbEntity
  8
0
370
     5
390
0
 62
     7
 48
0.000047
100
AcDbLine
 10
8.01683
 20
0.580272
 30
0.0
 11
8.017528
 21
0.582038
 31
0.0
210
0.0
220
0.0
230
1.0
  0
LINE
  5
3FE
100
AcDbEntity
  8
0
370
     5
390
0
 62
     7
 48
0.000046
100
AcDbLine
 10
8.017528
 20
0.582038
 30
0.0
 11
8.018235
 21
0.583734
 31
0.0
210
0.0
220
0.0
230
1.0
  0
LINE
  5
3FF
100
AcDbEntity
  8
0
370
     5
390
0
 62
     7
 48
0.000044
100
AcDbLine
 10
8.018235
 20
0.583734
 30
0.0
 11
8.018954
 21
0.58536
 31
0.0
210
0.0
220
0.0
230
1.0
  0
LINE
  5
400
100
AcDbEntity
  8
0
370
     5
390
0
 62
     7
 48
0.000043
100
AcDbLine
 10
8.018954
 20
0.58536
 30
0.0
 11
8.019684
 21
0.586917
 31
0.0
210
0.0
220
0.0
230
1.0
  0
LINE
  5
401
100
AcDbEntity
  8
0
370
     5
390
0
 62
     7
 48
0.000042
100
AcDbLine
 10
8.019684
 20
0.586917
 30
0.0
 11
8.020426
 21
0.588405
 31
0.0
210
0.0
220
0.0
230
1.0
  0
LINE
  5
402
100
AcDbEntity
  8
0
370
     5
390
0
 62
     7
 48
0.00004
100
AcDbLine
 10
8.020426
 20
0.588405
 30
0.0
 11
8.021177
 21
0.589826
 31
0.0
210
0.0
220
0.0
230
1.0
  0
LINE
  5
403
100
AcDbEntity
  8
0
370
     5
390
0
 62
     7
 48
0.0004
100
AcDbLine
 10
8.021177
 20
0.589826
 30
0.0
 11
8.029019
 21
0.60375
 31
0.0
210
0.0
220
0.0
230
1.0
  0
LINE
  5
404
100
AcDbEntity
  8
0
370
     5
390
0
 62
     7
 48
0.000044
100
AcDbLine
 10
8.029019
 20
0.60375
 30
0.0
 11
8.029831
 21
0.605292
 31
0.0
210
0.0
220
0.0
230
1.0
  0
ENDBLK
  5
405
100
AcDbEntity
  8
0
390
0
100
AcDbBlockEnd
  0
BLOCK
  5
406
100
AcDbEntity
  8
0
370
     0
390
0
100
AcDbBlockBegin
  2
BLOCK6
 70
     0
 10
0.0
 20
0.0
 30
0.0
  3
BLOCK6
  1

  0
LINE
  5
407
100
AcDbEntity
  8
0
370
     5
390
0
 62
     7
 48
0.000505
100
AcDbLine
 10
8.03978
 20
0.605292
 30
0.0
 11
8.054382
 21
0.591339
 31
0.0
210
0.0
220
0.0
230
1.0
  0
LINE
  5
408
100
AcDbEntity
  8
0
370
     5
390
0
 62
     7
 48
0.001141
100
AcDbLine
 10
8.054382
 20
0.591339
 30
0.0
 11
8.054382
 21
0.545696
 31
0.0
210
0.0
220
0.0
230
1.0
  0
LINE
  5
409
100
AcDbEntity
  8
0
370
     5
390
0
 62
     7
 48
0.00008
100
AcDbLine
 10
8.054382
 20
0.545696
 30
0.0
 11
8.051189
 21
0.545309
 31
0.0
210
0.0
220
0.0
230
1.0
  0
LINE
  5
40A
100
AcDbEntity
  8
0
370
     5
390
0
 62
     7
 48
0.000076
100
AcDbLine
 10
8.051189
 20
0.545309
 30
0.0
 11
8.048231
 21
0.544665
 31
0.0
210
0.0
220
0.0
230
1.0
  0
LINE
  5
40B
100
AcDbEntity
  8
0
370
     5
390
0
 62
     7
 48
0.000072
100
AcDbLine
 10
8.048231
 20
0.544665
 30
0.0
 11
8.045504
 21
0.543768
 31
0.0
210
0.0
220
0.0
230
1.0
  0
LINE
  5
40C
100
AcDbEntity
  8
0
370
     5
390
0
 62
     7
 48
0.000069
100
AcDbLine
 10
8.045504
 20
0.543768
 30
0.0
 11
8.043013
 21
0.542615
 31
0.0
210
0.0
220
0.0
230
1.0
  0
LINE
  5
40D
100
AcDbEntity
  8
0
370
     5
390
0
 62
     7
 48
0.000067
100
AcDbLine
 10
8.043013
 20
0.542615
 30
0.0
 11
8.040755
 21
0.541208
 31
0.0
210
0.0
220
0.0
230
1.0
  0
LINE
  5
40E
100
AcDbEntity
  8
0
370
     5
390
0
 62
     7
 48
0.000066
100
AcDbLine
 10
8.040755
 20
0.541208
 30
0.0
 11
8.03873
 21
0.539544
 31
0.0
210
0.0
220
0.0
230
1.0
  0
LINE
  5
40F
100
AcDbEntity
  8
0
370
     5
390
0
 62
     7
 48
0.000066
100
AcDbLine
 10
8.03873
 20
0.539544
 30
0.0
 11
8.036938
 21
0.537626
 31
0.0
210
0.0
220
0.0
230
1.0
  0
LINE
  5
410
100
AcDbEntity
  8
0
370
     5
390
0
 62
     7
 48
0.000067
100
AcDbLine
 10
8.036938
 20
0.537626
 30
0.0
 11
8.03538
 21
0.535451
 31
0.0
210
0.0
220
0.0
230
1.0
  0
LINE
  5
411
100
AcDbEntity
  8
0
370
     5
390
0
 62
     7
 48
0.000069
100
AcDbLine
 10
8.03538
 20
0.535451
 30
0.0
 11
8.034058
 21
0.533022
 31
0.0
210
0.0
220
0.0
230
1.0
  0
LINE
  5
412
100
AcDbEntity
  8
0
370
     5
390
0
 62
     7
 48
0.000072
100
AcDbLine
 10
8.034058
 20
0.533022
 30
0.0
 11
8.032967
 21
0.530337
 31
0.0
210
0.0
220
0.0
230
1.0
  0
LINE
  5
413
100
AcDbEntity
  8
0
370
     5
390
0
 62
     7
 48
0.000047
100
AcDbLine
 10
8.032967
 20
0.530337
 30
0.0
 11
8.033725
 21
0.528606
 31
0.0
210
0.0
220
0.0
230
1.0
  0
LINE
  5
414
100
AcDbEntity
  8
0
370
     5
390
0
 62
     7
 48
0.000054
100
AcDbLine
 10
8.033725
 20
0.528606
 30
0.0
 11
8.035222
 21
0.530168
 31
0.0
210
0.0
220
0.0
230
1.0
  0
LINE
  5
415
100
AcDbEntity
  8
0
370
     5
390
0
 62
     7
 48
0.000052
100
AcDbLine
 10
8.035222
 20
0.530168
 30
0.0
 11
8.036774
 21
0.531566
 31
0.0
210
0.0
220
0.0
230
1.0
  0
LINE
  5
416
100
AcDbEntity
  8
0
370
     5
390
0
 62
     7
 48
0.000051
100
AcDbLine
 10
8.036774
 20
0.531566
 30
0.0
 11
8.038381
 21
0.532799
 31
0.0
210
0.0
220
0.0
230
1.0
  0
LINE
  5
417
100
AcDbEntity
  8
0
370
     5
390
0
 62
     7
 48
0.000049
100
AcDbLine
 10
8.038381
 20
0.532799
 30
0.0
 11
8.04004
 21
0.533868
 31
0.0
210
0.0
220
0.0
230
1.0
  0
LINE
  5
418
100
AcDbEntity
  8
0
370
     5
390
0
 62
     7
 48
0.000048
100
AcDbLine
 10
8.04004
 20
0.533868
 30
0.0
 11
8.041754
 21
0.534771
 31
0.0
210
0.0
220
0.0
230
1.0
  0
LINE
  5
419
100
AcDbEntity
  8
0
370
     5
390
0
 62
     7
 48
0.000048
100
AcDbLine
 10
8.041754
 20
0.534771
 30
0.0
 11
8.043522
 21
0.535512
 31
0.0
210
0.0
220
0.0
230
1.0
  0
LINE
  5
41A
100
AcDbEntity
  8
0
370
     5
390
0
 62
     7
 48
0.000048
100
AcDbLine
 10
8.043522
 20
0.535512
 30
0.0
 11
8.045345
 21
0.536087
 31
0.0
210
0.0
220
0.0
230
1.0
  0
LINE
  5
41B
100
AcDbEntity
  8
0
370
     5
390
0
 62
     7
 48
0.000048
100
AcDbLine
 10
8.045345
 20
0.536087
 30
0.0
 11
8.047222
 21
0.536498
 31
0.0
210
0.0
220
0.0
230
1.0
  0
LINE
  5
41C
100
AcDbEntity
  8
0
370
     5
390
0
 62
     7
 48
0.000049
100
AcDbLine
 10
8.047222
 20
0.536498
 30
0.0
 11
8.049152
 21
0.536744
 31
0.0
210
0.0
220
0.0
230
1.0
  0
LINE
  5
41D
100
AcDbEntity
  8
0
370
     5
390
0
 62
     7
 48
0.00005
100
AcDbLine
 10
8.049152
 20
0.536744
 30
0.0
 11
8.051138
 21
0.536826
 31
0.0
210
0.0
220
0.0
230
1.0
  0
LINE
  5
41E
100
AcDbEntity
  8
0
370
     5
390
0
 62
     7
 48
0.000041
100
AcDbLine
 10
8.051138
 20
0.536826
 30
0.0
 11
8.052773
 21
0.536748
 31
0.0
210
0.0
220
0.0
230
1.0
  0
LINE
  5
41F
100
AcDbEntity
  8
0
370
     5
390
0
 62
     7
 48
0.00004
100
AcDbLine
 10
8.052773
 20
0.536748
 30
0.0
 11
8.054382
 21
0.53661
 31
0.0
210
0.0
220
0.0
230
1.0
  0
LINE
  5
420
100
AcDbEntity
  8
0
370
     5
390
0
 62
     7
 48
0.000127
100
AcDbLine
 10
8.054382
 20
0.53661
 30
0.0
 11
8.054382
 21
0.531527
 31
0.0
210
0.0
220
0.0
230
1.0
  0
LINE
  5
421
100
AcDbEntity
  8
0
370
     5
390
0
 62
     7
 48
0.000051
100
AcDbLine
 10
8.054382
 20
0.531527
 30
0.0
 11
8.052347
 21
0.531458
 31
0.0
210
0.0
220
0.0
230
1.0
  0
LINE
  5
422
100
AcDbEntity
  8
0
370
     5
390
0
 62
     7
 48
0.000049
100
AcDbLine
 10
8.052347
 20
0.531458
 30
0.0
 11
8.050394
 21
0.531249
 31
0.0
210
0.0
220
0.0
230
1.0
  0
LINE
  5
423
100
AcDbEntity
  8
0
370
     5
390
0
 62
     7
 48
0.000048
100
AcDbLine
 10
8.050394
 20
0.531249
 30
0.0
 11
8.048522
 21
0.530904
 31
0.0
210
0.0
220
0.0
230
1.0
  0
LINE
  5
424
100
AcDbEntity
  8
0
370
     5
390
0
 62
     7
 48
0.000046
100
AcDbLine
 10
8.048522
 20
0.530904
 30
0.0
 11
8.046733
 21
0.53042
 31
0.0
210
0.0
220
0.0
230
1.0
  0
LINE
  5
425
100
AcDbEntity
  8
0
370
     5
390
0
 62
     7
 48
0.000045
100
AcDbLine
 10
8.046733
 20
0.53042
 30
0.0
 11
8.045027
 21
0.529796
 31
0.0
210
0.0
220
0.0
230
1.0
  0
LINE
  5
426
100
AcDbEntity
  8
0
370
     5
390
0
 62
     7
 48
0.000045
100
AcDbLine
 10
8.045027
 20
0.529796
 30
0.0
 11
8.043403
 21
0.529035
 31
0.0
210
0.0
220
0.0
230
1.0
  0
LINE
  5
427
100
AcDbEntity
  8
0
370
     5
390
0
 62
     7
 48
0.000045
100
AcDbLine
 10
8.043403
 20
0.529035
 30
0.0
 11
8.041859
 21
0.528135
 31
0.0
210
0.0
220
0.0
230
1.0
  0
LINE
  5
428
100
AcDbEntity
  8
0
370
     5
390
0
 62
     7
 48
0.000045
100
AcDbLine
 10
8.041859
 20
0.528135
 30
0.0
 11
8.0404
 21
0.527097
 31
0.0
210
0.0
220
0.0
230
1.0
  0
LINE
  5
429
100
AcDbEntity
  8
0
370
     5
390
0
 62
     7
 48
0.000045
100
AcDbLine
 10
8.0404
 20
0.527097
 30
0.0
 11
8.039021
 21
0.52592
 31
0.0
210
0.0
220
0.0
230
1.0
  0
LINE
  5
42A
100
AcDbEntity
  8
0
370
     5
390
0
 62
     7
 48
0.000046
100
AcDbLine
 10
8.039021
 20
0.52592
 30
0.0
 11
8.037725
 21
0.524604
 31
0.0
210
0.0
220
0.0
230
1.0
  0
LINE
  5
42B
100
AcDbEntity
  8
0
370
     5
390
0
 62
     7
 48
0.000077
100
AcDbLine
 10
8.037725
 20
0.524604
 30
0.0
 11
8.03978
 21
0.522333
 31
0.0
210
0.0
220
0.0
230
1.0
  0
LINE
  5
42C
100
AcDbEntity
  8
0
370
     5
390
0
 62
     7
 48
0.000044
100
AcDbLine
 10
8.03978
 20
0.522333
 30
0.0
 11
8.041057
 21
0.523526
 31
0.0
210
0.0
220
0.0
230
1.0
  0
LINE
  5
42D
100
AcDbEntity
  8
0
370
     5
390
0
 62
     7
 48
0.000042
100
AcDbLine
 10
8.041057
 20
0.523526
 30
0.0
 11
8.042372
 21
0.524592
 31
0.0
210
0.0
220
0.0
230
1.0
  0
LINE
  5
42E
100
AcDbEntity
  8
0
370
     5
390
0
 62
     7
 48
0.000041
100
AcDbLine
 10
8.042372
 20
0.524592
 30
0.0
 11
8.04373
 21
0.525533
 31
0.0
210
0.0
220
0.0
230
1.0
  0
LINE
  5
42F
100
AcDbEntity
  8
0
370
     5
390
0
 62
     7
 48
0.000041
100
AcDbLine
 10
8.04373
 20
0.525533
 30
0.0
 11
8.045129
 21
0.526349
 31
0.0
210
0.0
220
0.0
230
1.0
  0
LINE
  5
430
100
AcDbEntity
  8
0
370
     5
390
0
 62
     7
 48
0.00004
100
AcDbLine
 10
8.045129
 20
0.526349
 30
0.0
 11
8.046567
 21
0.527039
 31
0.0
210
0.0
220
0.0
230
1.0
  0
LINE
  5
431
100
AcDbEntity
  8
0
370
     5
390
0
 62
     7
 48
0.00004
100
AcDbLine
 10
8.046567
 20
0.527039
 30
0.0
 11
8.048048
 21
0.527603
 31
0.0
210
0.0
220
0.0
230
1.0
  0
LINE
  5
432
100
AcDbEntity
  8
0
370
     5
390
0
 62
     7
 48
0.00004
100
AcDbLine
 10
8.048048
 20
0.527603
 30
0.0
 11
8.049571
 21
0.528042
 31
0.0
210
0.0
220
0.0
230
1.0
  0
LINE
  5
433
100
AcDbEntity
  8
0
370
     5
390
0
 62
     7
 48
0.00004
100
AcDbLine
 10
8.049571
 20
0.528042
 30
0.0
 11
8.051134
 21
0.528356
 31
0.0
210
0.0
220
0.0
230
1.0
  0
LINE
  5
434
100
AcDbEntity
  8
0
370
     5
390
0
 62
     7
 48
0.00004
100
AcDbLine
 10
8.051134
 20
0.528356
 30
0.0
 11
8.052737
 21
0.528543
 31
0.0
210
0.0
220
0.0
230
1.0
  0
LINE
  5
435
100
AcDbEntity
  8
0
370
     5
390
0
 62
     7
 48
0.000041
100
AcDbLine
 10
8.052737
 20
0.528543
 30
0.0
 11
8.054382
 21
0.528606
 31
0.0
210
0.0
220
0.0
230
1.0
  0
LINE
  5
436
100
AcDbEntity
  8
0
370
     5
390
0
 62
     7
 48
0.001163
100
AcDbLine
 10
8.054382
 20
0.528606
 30
0.0
 11
8.054382
 21
0.482097
 31
0.0
210
0.0
220
0.0
230
1.0
  0
LINE
  5
437
100
AcDbEntity
  8
0
370
     5
390
0
 62
     7
 48
0.000564
100
AcDbLine
 10
8.054382
 20
0.482097
 30
0.0
 11
8.036753
 21
0.468038
 31
0.0
210
0.0
220
0.0
230
1.0
  0
LINE
  5
438
100
AcDbEntity
  8
0
370
     5
390
0
 62
     7
 48
0.001328
100
AcDbLine
 10
8.036753
 20
0.468038
 30
0.0
 11
8.089859
 21
0.468038
 31
0.0
210
0.0
220
0.0
230
1.0
  0
LINE
  5
439
100
AcDbEntity
  8
0
370
     5
390
0
 62
     7
 48
0.000493
100
AcDbLine
 10
8.089859
 20
0.468038
 30
0.0
 11
8.076014
 21
0.482097
 31
0.0
210
0.0
220
0.0
230
1.0
  0
LINE
  5
43A
100
AcDbEntity
  8
0
370
     5
390
0
 62
     7
 48
0.001363
100
AcDbLine
 10
8.076014
 20
0.482097
 30
0.0
 11
8.076014
 21
0.53661
 31
0.0
210
0.0
220
0.0
230
1.0
  0
LINE
  5
43B
100
AcDbEntity
  8
0
370
     5
390
0
 62
     7
 48
0.000619
100
AcDbLine
 10
8.076014
 20
0.53661
 30
0.0
 11
8.100782
 21
0.53661
 31
0.0
210
0.0
220
0.0
230
1.0
  0
LINE
  5
43C
100
AcDbEntity
  8
0
370
     5
390
0
 62
     7
 48
0.000639
100
AcDbLine
 10
8.100782
 20
0.53661
 30
0.0
 11
8.118953
 21
0.518655
 31
0.0
210
0.0
220
0.0
230
1.0
  0
LINE
  5
43D
100
AcDbEntity
  8
0
370
     5
390
0
 62
     7
 48
0.001133
100
AcDbLine
 10
8.118953
 20
0.518655
 30
0.0
 11
8.118953
 21
0.563975
 31
0.0
210
0.0
220
0.0
230
1.0
  0
LINE
  5
43E
100
AcDbEntity
  8
0
370
     5
390
0
 62
     7
 48
0.000629
100
AcDbLine
 10
8.118953
 20
0.563975
 30
0.0
 11
8.101647
 21
0.545696
 31
0.0
210
0.0
220
0.0
230
1.0
  0
LINE
  5
43F
100
AcDbEntity
  8
0
370
     5
390
0
 62
     7
 48
0.000408
100
AcDbLine
 10
8.101647
 20
0.545696
 30
0.0
 11
8.085316
 21
0.545696
 31
0.0
210
0.0
220
0.0
230
1.0
  0
LINE
  5
440
100
AcDbEntity
  8
0
370
     5
390
0
 62
     7
 48
0.001044
100
AcDbLine
 10
8.085316
 20
0.545696
 30
0.0
 11
8.085316
 21
0.587445
 31
0.0
210
0.0
220
0.0
230
1.0
  0
LINE
  5
441
100
AcDbEntity
  8
0
370
     5
390
0
 62
     7
 48
0.000067
100
AcDbLine
 10
8.085316
 20
0.587445
 30
0.0
 11
8.087994
 21
0.58764
 31
0.0
210
0.0
220
0.0
230
1.0
  0
LINE
  5
442
100
AcDbEntity
  8
0
370
     5
390
0
 62
     7
 48
0.000063
100
AcDbLine
 10
8.087994
 20
0.58764
 30
0.0
 11
8.090491
 21
0.587792
 31
0.0
210
0.0
220
0.0
230
1.0
  0
LINE
  5
443
100
AcDbEntity
  8
0
370
     5
390
0
 62
     7
 48
0.000058
100
AcDbLine
 10
8.090491
 20
0.587792
 30
0.0
 11
8.092805
 21
0.5879
 31
0.0
210
0.0
220
0.0
230
1.0
  0
LINE
  5
444
100
AcDbEntity
  8
0
370
     5
390
0
 62
     7
 48
0.000053
100
AcDbLine
 10
8.092805
 20
0.5879
 30
0.0
 11
8.094938
 21
0.587964
 31
0.0
210
0.0
220
0.0
230
1.0
  0
LINE
  5
445
100
AcDbEntity
  8
0
370
     5
390
0
 62
     7
 48
0.000049
100
AcDbLine
 10
8.094938
 20
0.587964
 30
0.0
 11
8.09689
 21
0.587987
 31
0.0
210
0.0
220
0.0
230
1.0
  0
LINE
  5
446
100
AcDbEntity
  8
0
370
     5
390
0
 62
     7
 48
0.000063
100
AcDbLine
 10
8.09689
 20
0.587987
 30
0.0
 11
8.099417
 21
0.587969
 31
0.0
210
0.0
220
0.0
230
1.0
  0
LINE
  5
447
100
AcDbEntity
  8
0
370
     5
390
0
 62
     7
 48
0.00006
100
AcDbLine
 10
8.099417
 20
0.587969
 30
0.0
 11
8.101811
 21
0.587915
 31
0.0
210
0.0
220
0.0
230
1.0
  0
LINE
  5
448
100
AcDbEntity
  8
0
370
     5
390
0
 62
     7
 48
0.000056
100
AcDbLine
 10
8.101811
 20
0.587915
 30
0.0
 11
8.104068
 21
0.587826
 31
0.0
210
0.0
220
0.0
230
1.0
  0
LINE
  5
449
100
AcDbEntity
  8
0
370
     5
390
0
 62
     7
 48
0.000053
100
AcDbLine
 10
8.104068
 20
0.587826
 30
0.0
 11
8.106191
 21
0.5877
 31
0.0
210
0.0
220
0.0
230
1.0
  0
LINE
  5
44A
100
AcDbEntity
  8
0
370
     5
390
0
 62
     7
 48
0.00005
100
AcDbLine
 10
8.106191
 20
0.5877
 30
0.0
 11
8.108179
 21
0.58754
 31
0.0
210
0.0
220
0.0
230
1.0
  0
LINE
  5
44B
100
AcDbEntity
  8
0
370
     5
390
0
 62
     7
 48
0.000047
100
AcDbLine
 10
8.108179
 20
0.58754
 30
0.0
 11
8.110031
 21
0.587343
 31
0.0
210
0.0
220
0.0
230
1.0
  0
LINE
  5
44C
100
AcDbEntity
  8
0
370
     5
390
0
 62
     7
 48
0.000043
100
AcDbLine
 10
8.110031
 20
0.587343
 30
0.0
 11
8.111747
 21
0.587112
 31
0.0
210
0.0
220
0.0
230
1.0
  0
LINE
  5
44D
100
AcDbEntity
  8
0
370
     5
390
0
 62
     7
 48
0.00004
100
AcDbLine
 10
8.111747
 20
0.587112
 30
0.0
 11
8.113329
 21
0.586844
 31
0.0
210
0.0
220
0.0
230
1.0
  0
LINE
  5
44E
100
AcDbEntity
  8
0
370
     5
390
0
 62
     7
 48
0.000071
100
AcDbLine
 10
8.113329
 20
0.586844
 30
0.0
 11
8.116087
 21
0.586202
 31
0.0
210
0.0
220
0.0
230
1.0
  0
LINE
  5
44F
100
AcDbEntity
  8
0
370
     5
390
0
 62
     7
 48
0.000065
100
AcDbLine
 10
8.116087
 20
0.586202
 30
0.0
 11
8.118538
 21
0.585356
 31
0.0
210
0.0
220
0.0
230
1.0
  0
LINE
  5
450
100
AcDbEntity
  8
0
370
     5
390
0
 62
     7
 48
0.000066
100
AcDbLine
 10
8.118538
 20
0.585356
 30
0.0
 11
8.120915
 21
0.584246
 31
0.0
210
0.0
220
0.0
230
1.0
  0
LINE
  5
451
100
AcDbEntity
  8
0
370
     5
390
0
 62
     7
 48
0.000067
100
AcDbLine
 10
8.120915
 20
0.584246
 30
0.0
 11
8.123219
 21
0.582873
 31
0.0
210
0.0
220
0.0
230
1.0
  0
LINE
  5
452
100
AcDbEntity
  8
0
370
     5
390
0
 62
     7
 48
0.000069
100
AcDbLine
 10
8.123219
 20
0.582873
 30
0.0
 11
8.125449
 21
0.581235
 31
0.0
210
0.0
220
0.0
230
1.0
  0
LINE
  5
453
100
AcDbEntity
  8
0
370
     5
390
0
 62
     7
 48
0.000072
100
AcDbLine
 10
8.125449
 20
0.581235
 30
0.0
 11
8.127607
 21
0.579333
 31
0.0
210
0.0
220
0.0
230
1.0
  0
LINE
  5
454
100
AcDbEntity
  8
0
370
     5
390
0
 62
     7
 48
0.000063
100
AcDbLine
 10
8.127607
 20
0.579333
 30
0.0
 11
8.126338
 21
0.581511
 31
0.0
210
0.0
220
0.0
230
1.0
  0
LINE
  5
455
100
AcDbEntity
  8
0
370
     5
390
0
 62
     7
 48
0.000063
100
AcDbLine
 10
8.126338
 20
0.581511
 30
0.0
 11
8.124737
 21
0.583461
 31
0.0
210
0.0
220
0.0
230
1.0
  0
LINE
  5
456
100
AcDbEntity
  8
0
370
     5
390
0
 62
     7
 48
0.000065
100
AcDbLine
 10
8.124737
 20
0.583461
 30
0.0
 11
8.122807
 21
0.58518
 31
0.0
210
0.0
220
0.0
230
1.0
  0
LINE
  5
457
100
AcDbEntity
  8
0
370
     5
390
0
 62
     7
 48
0.000068
100
AcDbLine
 10
8.122807
 20
0.58518
 30
0.0
 11
8.120546
 21
0.586671
 31
0.0
210
0.0
220
0.0
230
1.0
  0
LINE
  5
458
100
AcDbEntity
  8
0
370
     5
390
0
 62
     7
 48
0.000072
100
AcDbLine
 10
8.120546
 20
0.586671
 30
0.0
 11
8.117954
 21
0.587933
 31
0.0
210
0.0
220
0.0
230
1.0
  0
LINE
  5
459
100
AcDbEntity
  8
0
370
     5
390
0
 62
     7
 48
0.000078
100
AcDbLine
 10
8.117954
 20
0.587933
 30
0.0
 11
8.115029
 21
0.588965
 31
0.0
210
0.0
220
0.0
230
1.0
  0
LINE
  5
45A
100
AcDbEntity
  8
0
370
     5
390
0
 62
     7
 48
0.000084
100
AcDbLine
 10
8.115029
 20
0.588965
 30
0.0
 11
8.111775
 21
0.589767
 31
0.0
210
0.0
220
0.0
230
1.0
  0
LINE
  5
45B
100
AcDbEntity
  8
0
370
     5
390
0
 62
     7
 48
0.000091
100
AcDbLine
 10
8.111775
 20
0.589767
 30
0.0
 11
8.108189
 21
0.59034
 31
0.0
210
0.0
220
0.0
230
1.0
  0
LINE
  5
45C
100
AcDbEntity
  8
0
370
     5
390
0
 62
     7
 48
0.000098
100
AcDbLine
 10
8.108189
 20
0.59034
 30
0.0
 11
8.104273
 21
0.590684
 31
0.0
210
0.0
220
0.0
230
1.0
  0
LINE
  5
45D
100
AcDbEntity
  8
0
370
     5
390
0
 62
     7
 48
0.000106
100
AcDbLine
 10
8.104273
 20
0.590684
 30
0.0
 11
8.100026
 21
0.590798
 31
0.0
210
0.0
220
0.0
230
1.0
  0
LINE
  5
45E
100
AcDbEntity
  8
0
370
     5
390
0
 62
     7
 48
0.000075
100
AcDbLine
 10
8.100026
 20
0.590798
 30
0.0
 11
8.097032
 21
0.590786
 31
0.0
210
0.0
220
0.0
230
1.0
  0
LINE
  5
45F
100
AcDbEntity
  8
0
370
     5
390
0
 62
     7
 48
0.000073
100
AcDbLine
 10
8.097032
 20
0.590786
 30
0.0
 11
8.094107
 21
0.590747
 31
0.0
210
0.0
220
0.0
230
1.0
  0
LINE
  5
460
100
AcDbEntity
  8
0
370
     5
390
0
 62
     7
 48
0.000071
100
AcDbLine
 10
8.094107
 20
0.590747
 30
0.0
 11
8.091251
 21
0.590682
 31
0.0
210
0.0
220
0.0
230
1.0
  0
LINE
  5
461
100
AcDbEntity
  8
0
370
     5
390
0
 62
     7
 48
0.00007
100
AcDbLine
 10
8.091251
 20
0.590682
 30
0.0
 11
8.088465
 21
0.590591
 31
0.0
210
0.0
220
0.0
230
1.0
  0
LINE
  5
462
100
AcDbEntity
  8
0
370
     5
390
0
 62
     7
 48
0.000068
100
AcDbLine
 10
8.088465
 20
0.590591
 30
0.0
 11
8.085749
 21
0.590474
 31
0.0
210
0.0
220
0.0
230
1.0
  0
LINE
  5
463
100
AcDbEntity
  8
0
370
     5
390
0
 62
     7
 48
0.000078
100
AcDbLine
 10
8.085749
 20
0.590474
 30
0.0
 11
8.082612
 21
0.590366
 31
0.0
210
0.0
220
0.0
230
1.0
  0
LINE
  5
464
100
AcDbEntity
  8
0
370
     5
390
0
 62
     7
 48
0.001117
100
AcDbLine
 10
8.082612
 20
0.590366
 30
0.0
 11
8.082612
 21
0.545696
 31
0.0
210
0.0
220
0.0
230
1.0
  0
LINE
  5
465
100
AcDbEntity
  8
0
370
     5
390
0
 62
     7
 48
0.000165
100
AcDbLine
 10
8.082612
 20
0.545696
 30
0.0
 11
8.076014
 21
0.545696
 31
0.0
210
0.0
220
0.0
230
1.0
  0
LINE
  5
466
100
AcDbEntity
  8
0
370
     5
390
0
 62
     7
 48
0.001265
100
AcDbLine
 10
8.076014
 20
0.545696
 30
0.0
 11
8.076014
 21
0.596315
 31
0.0
210
0.0
220
0.0
230
1.0
  0
LINE
  5
467
100
AcDbEntity
  8
0
370
     5
390
0
 62
     7
 48
0.0001
100
AcDbLine
 10
8.076014
 20
0.596315
 30
0.0
 11
8.080016
 21
0.596207
 31
0.0
210
0.0
220
0.0
230
1.0
  0
LINE
  5
468
100
AcDbEntity
  8
0
370
     5
390
0
 62
     7
 48
0.000262
100
AcDbLine
 10
8.080016
 20
0.596207
 30
0.0
 11
8.090507
 21
0.596099
 31
0.0
210
0.0
220
0.0
230
1.0
  0
LINE
  5
469
100
AcDbEntity
  8
0
370
     5
390
0
 62
     7
 48
0.000154
100
AcDbLine
 10
8.090507
 20
0.596099
 30
0.0
 11
8.096672
 21
0.596207
 31
0.0
210
0.0
220
0.0
230
1.0
  0
LINE
  5
46A
100
AcDbEntity
  8
0
370
     5
390
0
 62
     7
 48
0.00008
100
AcDbLine
 10
8.096672
 20
0.596207
 30
0.0
 11
8.099887
 21
0.596163
 31
0.0
210
0.0
220
0.0
230
1.0
  0
LINE
  5
46B
100
AcDbEntity
  8
0
370
     5
390
0
 62
     7
 48
0.000076
100
AcDbLine
 10
8.099887
 20
0.596163
 30
0.0
 11
8.102909
 21
0.596033
 31
0.0
210
0.0
220
0.0
230
1.0
  0
LINE
  5
46C
100
AcDbEntity
  8
0
370
     5
390
0
 62
     7
 48
0.000071
100
AcDbLine
 10
8.102909
 20
0.596033
 30
0.0
 11
8.10574
 21
0.595817
 31
0.0
210
0.0
220
0.0
230
1.0
  0
LINE
  5
46D
100
AcDbEntity
  8
0
370
     5
390
0
 62
     7
 48
0.000066
100
AcDbLine
 10
8.10574
 20
0.595817
 30
0.0
 11
8.108379
 21
0.595514
 31
0.0
210
0.0
220
0.0
230
1.0
  0
LINE
  5
46E
100
AcDbEntity
  8
0
370
     5
390
0
 62
     7
 48
0.000062
100
AcDbLine
 10
8.108379
 20
0.595514
 30
0.0
 11
8.110827
 21
0.595125
 31
0.0
210
0.0
220
0.0
230
1.0
  0
LINE
  5
46F
100
AcDbEntity
  8
0
370
     5
390
0
 62
     7
 48
0.000058
100
AcDbLine
 10
8.110827
 20
0.595125
 30
0.0
 11
8.113085
 21
0.594648
 31
0.0
210
0.0
220
0.0
230
1.0
  0
LINE
  5
470
100
AcDbEntity
  8
0
370
     5
390
0
 62
     7
 48
0.000054
100
AcDbLine
 10
8.113085
 20
0.594648
 30
0.0
 11
8.11515
 21
0.594086
 31
0.0
210
0.0
220
0.0
230
1.0
  0
LINE
  5
471
100
AcDbEntity
  8
0
370
     5
390
0
 62
     7
 48
0.00005
100
AcDbLine
 10
8.11515
 20
0.594086
 30
0.0
 11
8.117024
 21
0.593438
 31
0.0
210
0.0
220
0.0
230
1.0
  0
LINE
  5
472
100
AcDbEntity
  8
0
370
     5
390
0
 62
     7
 48
0.000046
100
AcDbLine
 10
8.117024
 20
0.593438
 30
0.0
 11
8.118707
 21
0.592701
 31
0.0
210
0.0
220
0.0
230
1.0
  0
LINE
  5
473
100
AcDbEntity
  8
0
370
     5
390
0
 62
     7
 48
0.000043
100
AcDbLine
 10
8.118707
 20
0.592701
 30
0.0
 11
8.120198
 21
0.591881
 31
0.0
210
0.0
220
0.0
230
1.0
  0
LINE
  5
474
100
AcDbEntity
  8
0
370
     5
390
0
 62
     7
 48
0.000043
100
AcDbLine
 10
8.120198
 20
0.591881
 30
0.0
 11
8.121594
 21
0.59091
 31
0.0
210
0.0
220
0.0
230
1.0
  0
LINE
  5
475
100
AcDbEntity
  8
0
370
     5
390
0
 62
     7
 48
0.000046
100
AcDbLine
 10
8.121594
 20
0.59091
 30
0.0
 11
8.122994
 21
0.589734
 31
0.0
210
0.0
220
0.0
230
1.0
  0
LINE
  5
476
100
AcDbEntity
  8
0
370
     5
390
0
 62
     7
 48
0.000049
100
AcDbLine
 10
8.122994
 20
0.589734
 30
0.0
 11
8.124398
 21
0.58835
 31
0.0
210
0.0
220
0.0
230
1.0
  0
LINE
  5
477
100
AcDbEntity
  8
0
370
     5
390
0
 62
     7
 48
0.000053
100
AcDbLine
 10
8.124398
 20
0.58835
 30
0.0
 11
8.125804
 21
0.586758
 31
0.0
210
0.0
220
0.0
230
1.0
  0
LINE
  5
478
100
AcDbEntity
  8
0
370
     5
390
0
 62
     7
 48
0.000057
100
AcDbLine
 10
8.125804
 20
0.586758
 30
0.0
 11
8.127215
 21
0.584958
 31
0.0
210
0.0
220
0.0
230
1.0
  0
LINE
  5
479
100
AcDbEntity
  8
0
370
     5
390
0
 62
     7
 48
0.000061
100
AcDbLine
 10
8.127215
 20
0.584958
 30
0.0
 11
8.128628
 21
0.582951
 31
0.0
210
0.0
220
0.0
230
1.0
  0
LINE
  5
47A
100
AcDbEntity
  8
0
370
     5
390
0
 62
     7
 48
0.000066
100
AcDbLine
 10
8.128628
 20
0.582951
 30
0.0
 11
8.130044
 21
0.580736
 31
0.0
210
0.0
220
0.0
230
1.0
  0
LINE
  5
47B
100
AcDbEntity
  8
0
370
     5
390
0
 62
     7
 48
0.00007
100
AcDbLine
 10
8.130044
 20
0.580736
 30
0.0
 11
8.131463
 21
0.578313
 31
0.0
210
0.0
220
0.0
230
1.0
  0
LINE
  5
47C
100
AcDbEntity
  8
0
370
     5
390
0
 62
     7
 48
0.000075
100
AcDbLine
 10
8.131463
 20
0.578313
 30
0.0
 11
8.132887
 21
0.575682
 31
0.0
210
0.0
220
0.0
230
1.0
  0
LINE
  5
47D
100
AcDbEntity
  8
0
370
     5
390
0
 62
     7
 48
0.000079
100
AcDbLine
 10
8.132887
 20
0.575682
 30
0.0
 11
8.134311
 21
0.572844
 31
0.0
210
0.0
220
0.0
230
1.0
  0
LINE
  5
47E
100
AcDbEntity
  8
0
370
     5
390
0
 62
     7
 48
0.000058
100
AcDbLine
 10
8.134311
 20
0.572844
 30
0.0
 11
8.135177
 21
0.575007
 31
0.0
210
0.0
220
0.0
230
1.0
  0
LINE
  5
47F
100
AcDbEntity
  8
0
370
     5
390
0
 62
     7
 48
0.000059
100
AcDbLine
 10
8.135177
 20
0.575007
 30
0.0
 11
8.136049
 21
0.577196
 31
0.0
210
0.0
220
0.0
230
1.0
  0
LINE
  5
480
100
AcDbEntity
  8
0
370
     5
390
0
 62
     7
 48
0.000056
100
AcDbLine
 10
8.136049
 20
0.577196
 30
0.0
 11
8.136889
 21
0.57926
 31
0.0
210
0.0
220
0.0
230
1.0
  0
LINE
  5
481
100
AcDbEntity
  8
0
370
     5
390
0
 62
     7
 48
0.000053
100
AcDbLine
 10
8.136889
 20
0.57926
 30
0.0
 11
8.137697
 21
0.581201
 31
0.0
210
0.0
220
0.0
230
1.0
  0
LINE
  5
482
100
AcDbEntity
  8
0
370
     5
390
0
 62
     7
 48
0.000049
100
AcDbLine
 10
8.137697
 20
0.581201
 30
0.0
 11
8.138474
 21
0.583019
 31
0.0
210
0.0
220
0.0
230
1.0
  0
LINE
  5
483
100
AcDbEntity
  8
0
370
     5
390
0
 62
     7
 48
0.000046
100
AcDbLine
 10
8.138474
 20
0.583019
 30
0.0
 11
8.13922
 21
0.584714
 31
0.0
210
0.0
220
0.0
230
1.0
  0
LINE
  5
484
100
AcDbEntity
  8
0
370
     5
390
0
 62
     7
 48
0.000043
100
AcDbLine
 10
8.13922
 20
0.584714
 30
0.0
 11
8.139935
 21
0.586286
 31
0.0
210
0.0
220
0.0
230
1.0
  0
LINE
  5
485
100
AcDbEntity
  8
0
370
     5
390
0
 62
     7
 48
0.00004
100
AcDbLine
 10
8.139935
 20
0.586286
 30
0.0
 11
8.140617
 21
0.587735
 31
0.0
210
0.0
220
0.0
230
1.0
  0
LINE
  5
486
100
AcDbEntity
  8
0
370
     5
390
0
 62
     7
 48
0.000071
100
AcDbLine
 10
8.140617
 20
0.587735
 30
0.0
 11
8.14189
 21
0.590261
 31
0.0
210
0.0
220
0.0
230
1.0
  0
LINE
  5
487
100
AcDbEntity
  8
0
370
     5
390
0
 62
     7
 48
0.000061
100
AcDbLine
 10
8.14189
 20
0.590261
 30
0.0
 11
8.143089
 21
0.592394
 31
0.0
210
0.0
220
0.0
230
1.0
  0
LINE
  5
488
100
AcDbEntity
  8
0
370
     5
390
0
 62
     7
 48
0.000069
100
AcDbLine
 10
8.143089
 20
0.592394
 30
0.0
 11
8.144543
 21
0.594729
 31
0.0
210
0.0
220
0.0
230
1.0
  0
LINE
  5
489
100
AcDbEntity
  8
0
370
     5
390
0
 62
     7
 48
0.000038
100
AcDbLine
 10
8.144543
 20
0.594729
 30
0.0
 11
8.145386
 21
0.596012
 31
0.0
210
0.0
220
0.0
230
1.0
  0
LINE
  5
48A
100
AcDbEntity
  8
0
370
     5
390
0
 62
     7
 48
0.000041
100
AcDbLine
 10
8.145386
 20
0.596012
 30
0.0
 11
8.146304
 21
0.597369
 31
0.0
210
0.0
220
0.0
230
1.0
  0
LINE
  5
48B
100
AcDbEntity
  8
0
370
     5
390
0
 62
     7
 48
0.000044
100
AcDbLine
 10
8.146304
 20
0.597369
 30
0.0
 11
8.1473
 21
0.598802
 31
0.0
210
0.0
220
0.0
230
1.0
  0
LINE
  5
48C
100
AcDbEntity
  8
0
370
     5
390
0
 62
     7
 48
0.000046
100
AcDbLine
 10
8.1473
 20
0.598802
 30
0.0
 11
8.148372
 21
0.600311
 31
0.0
210
0.0
220
0.0
230
1.0
  0
LINE
  5
48D
100
AcDbEntity
  8
0
370
     5
390
0
 62
     7
 48
0.000049
100
AcDbLine
 10
8.148372
 20
0.600311
 30
0.0
 11
8.149522
 21
0.601895
 31
0.0
210
0.0
220
0.0
230
1.0
  0
LINE
  5
48E
100
AcDbEntity
  8
0
370
     5
390
0
 62
     7
 48
0.000052
100
AcDbLine
 10
8.149522
 20
0.601895
 30
0.0
 11
8.150747
 21
0.603555
 31
0.0
210
0.0
220
0.0
230
1.0
  0
LINE
  5
48F
100
AcDbEntity
  8
0
370
     5
390
0
 62
     7
 48
0.000054
100
AcDbLine
 10
8.150747
 20
0.603555
 30
0.0
 11
8.152051
 21
0.605292
 31
0.0
210
0.0
220
0.0
230
1.0
  0
LINE
  5
490
100
AcDbEntity
  8
0
370
     5
390
0
 62
     7
 48
0.002807
100
AcDbLine
 10
8.152051
 20
0.605292
 30
0.0
 11
8.03978
 21
0.605292
 31
0.0
210
0.0
220
0.0
230
1.0
  0
ENDBLK
  5
491
100
AcDbEntity
  8
0
390
0
100
AcDbBlockEnd
  0
BLOCK
  5
492
100
AcDbEntity
  8
0
370
     0
390
0
100
AcDbBlockBegin
  2
BLOCK7
 70
     0
 10
0.0
 20
0.0
 30
0.0
  3
BLOCK7
  1

  0
TEXT
  5
493
100
AcDbEntity
  8
0
370
    13
390
0
 62
     7
 48
0.03937
100
AcDbText
 10
-8.481311
 20
1.456106
 30
0.0
 40
0.281215
  1
12
 72
     5
 11
-8.074931
 21
1.456106
 31
0.0
100
AcDbText
  0
TEXT
  5
494
100
AcDbEntity
  8
0
370
    13
390
0
 62
     7
 48
0.03937
100
AcDbText
 10
-8.074931
 20
1.456106
 30
0.0
 40
0.281215
  1
X
 72
     5
 11
-7.762425
 21
1.456106
 31
0.0
100
AcDbText
  0
ENDBLK
  5
495
100
AcDbEntity
  8
0
390
0
100
AcDbBlockEnd
  0
BLOCK
  5
496
100
AcDbEntity
  8
0
370
     0
390
0
100
AcDbBlockBegin
  2
BLOCK8
 70
     0
 10
0.0
 20
0.0
 30
0.0
  3
BLOCK8
  1

  0
SOLID
  5
497
100
AcDbEntity
  8
0
370
    13
390
0
 62
     7
 48
0.03937
100
AcDbTrace
 10
-4.095579
 20
-5.455922
 30
0.0
 11
-3.821545
 21
-4.945533
 31
0.0
 12
-4.095579
 22
-5.455922
 32
0.0
 13
-4.246298
 23
-5.339458
 33
0.0
  0
SOLID
  5
498
100
AcDbEntity
  8
0
370
    13
390
0
 62
     7
 48
0.03937
100
AcDbTrace
 10
4.095579
 20
5.455922
 30
0.0
 11
3.821545
 21
4.945533
 31
0.0
 12
4.095579
 22
5.455922
 32
0.0
 13
4.246298
 23
5.339458
 33
0.0
  0
TEXT
  5
499
100
AcDbEntity
  8
0
370
    13
390
0
 62
     7
 48
0.03937
100
AcDbText
 10
5.738503
 20
5.627652
 30
0.0
 40
0.281215
  1
12.5
 72
     5
 11
6.449668
 21
5.627652
 31
0.0
100
AcDbText
  0
TEXT
  5
49A
100
AcDbEntity
  8
0
370
    13
390
0
 62
     7
 48
0.03937
100
AcDbText
 10
6.449667
 20
5.627652
 30
0.0
 40
0.281215
  1
"
 72
     5
 11
6.655892
 21
5.627652
 31
0.0
100
AcDbText
  0
TEXT
  5
49B
100
AcDbEntity
  8
0
370
    13
390
0
 62
     7
 48
0.03937
100
AcDbText
 10
5.171574
 20
5.627652
 30
0.0
 40
0.281215
  1
%%c
 72
     5
 11
5.452788
 21
5.627652
 31
0.0
100
AcDbText
  0
LINE
  5
49C
100
AcDbEntity
  8
0
370
    13
390
0
 62
     7
 48
0.012143
100
AcDbLine
 10
4.457288
 20
5.76826
 30
0.0
 11
4.943002
 21
5.76826
 31
0.0
210
0.0
220
0.0
230
1.0
  0
LINE
  5
49D
100
AcDbEntity
  8
0
370
    13
390
0
 62
     7
 48
0.008212
100
AcDbLine
 10
-4.371779
 20
-5.6576
 30
0.0
 11
-4.170939
 21
-5.39769
 31
0.0
210
0.0
220
0.0
230
1.0
  0
LINE
  5
49E
100
AcDbEntity
  8
0
370
    13
390
0
 62
     7
 48
0.011708
100
AcDbLine
 10
4.170939
 20
5.39769
 30
0.0
 11
4.457288
 21
5.76826
 31
0.0
210
0.0
220
0.0
230
1.0
  0
POLYLINE
  5
49F
100
AcDbEntity
  8
0
370
    13
390
0
 62
     7
 48
0.03937
100
AcDb2dPolyline
 66
     1
 10
0.0
 20
0.0
 30
0.0
 70
     1
 71
     3
  0
VERTEX
  5
4A0
100
AcDbEntity
  8
0
370
     0
390
0
100
AcDbVertex
100
AcDb2dVertex
 10
-4.095579
 20
-5.455922
 30
0.0
  0
VERTEX
  5
4A1
100
AcDbEntity
  8
0
370
     0
390
0
100
AcDbVertex
100
AcDb2dVertex
 10
-3.821545
 20
-4.945533
 30
0.0
  0
VERTEX
  5
4A2
100
AcDbEntity
  8
0
370
     0
390
0
100
AcDbVertex
100
AcDb2dVertex
 10
-4.246298
 20
-5.339458
 30
0.0
  0
SEQEND
  5
4A3
100
AcDbEntity
  8
0
370
     0
390
0
  0
POLYLINE
  5
4A4
100
AcDbEntity
  8
0
370
    13
390
0
 62
     7
 48
0.03937
100
AcDb2dPolyline
 66
     1
 10
0.0
 20
0.0
 30
0.0
 70
     1
 71
     3
  0
VERTEX
  5
4A5
100
AcDbEntity
  8
0
370
     0
390
0
100
AcDbVertex
100
AcDb2dVertex
 10
4.095579
 20
5.455922
 30
0.0
  0
VERTEX
  5
4A6
100
AcDbEntity
  8
0
370
     0
390
0
100
AcDbVertex
100
AcDb2dVertex
 10
3.821545
 20
4.945533
 30
0.0
  0
VERTEX
  5
4A7
100
AcDbEntity
  8
0
370
     0
390
0
100
AcDbVertex
100
AcDb2dVertex
 10
4.246298
 20
5.339458
 30
0.0
  0
SEQEND
  5
4A8
100
AcDbEntity
  8
0
370
     0
390
0
  0
ENDBLK
  5
4A9
100
AcDbEntity
  8
0
390
0
100
AcDbBlockEnd
  0
BLOCK
  5
4AA
100
AcDbEntity
  8
0
370
     0
390
0
100
AcDbBlockBegin
  2
BLOCK9
 70
     0
 10
0.0
 20
0.0
 30
0.0
  3
BLOCK9
  1

  0
SOLID
  5
4AB
100
AcDbEntity
  8
0
370
    13
390
0
 62
     7
 48
0.03937
100
AcDbTrace
 10
-6.208076
 20
0.592007
 30
0.0
 11
-5.701455
 21
0.311068
 31
0.0
 12
-6.208076
 22
0.592007
 32
0.0
 13
-6.089575
 23
0.74113
 33
0.0
  0
TEXT
  5
4AC
100
AcDbEntity
  8
0
370
    13
390
0
 62
     7
 48
0.03937
100
AcDbText
 10
-7.936995
 20
1.008242
 30
0.0
 40
0.281215
  1
1
 72
     5
 11
-7.733806
 21
1.008242
 31
0.0
100
AcDbText
  0
TEXT
  5
4AD
100
AcDbEntity
  8
0
370
    13
390
0
 62
     7
 48
0.03937
100
AcDbText
 10
-7.733806
 20
1.008242
 30
0.0
 40
0.281215
  1
"
 72
     5
 11
-7.527582
 21
1.008242
 31
0.0
100
AcDbText
  0
TEXT
  5
4AE
100
AcDbEntity
  8
0
370
    13
390
0
 62
     7
 48
0.03937
100
AcDbText
 10
-8.503925
 20
1.008242
 30
0.0
 40
0.281215
  1
%%c
 72
     5
 11
-8.22271
 21
1.008242
 31
0.0
100
AcDbText
  0
LINE
  5
4AF
100
AcDbEntity
  8
0
370
    13
390
0
 62
     7
 48
0.013582
100
AcDbLine
 10
-6.755738
 20
1.148849
 30
0.0
 11
-7.299011
 21
1.148849
 31
0.0
210
0.0
220
0.0
230
1.0
  0
LINE
  5
4B0
100
AcDbEntity
  8
0
370
    13
390
0
 62
     7
 48
0.01938
100
AcDbLine
 10
-6.148826
 20
0.666569
 30
0.0
 11
-6.755738
 21
1.148849
 31
0.0
210
0.0
220
0.0
230
1.0
  0
POLYLINE
  5
4B1
100
AcDbEntity
  8
0
370
    13
390
0
 62
     7
 48
0.03937
100
AcDb2dPolyline
 66
     1
 10
0.0
 20
0.0
 30
0.0
 70
     1
 71
     3
  0
VERTEX
  5
4B2
100
AcDbEntity
  8
0
370
     0
390
0
100
AcDbVertex
100
AcDb2dVertex
 10
-6.208076
 20
0.592007
 30
0.0
  0
VERTEX
  5
4B3
100
AcDbEntity
  8
0
370
     0
390
0
100
AcDbVertex
100
AcDb2dVertex
 10
-5.701455
 20
0.311068
 30
0.0
  0
VERTEX
  5
4B4
100
AcDbEntity
  8
0
370
     0
390
0
100
AcDbVertex
100
AcDb2dVertex
 10
-6.089575
 20
0.74113
 30
0.0
  0
SEQEND
  5
4B5
100
AcDbEntity
  8
0
370
     0
390
0
  0
ENDBLK
  5
4B6
100
AcDbEntity
  8
0
390
0
100
AcDbBlockEnd
  0
BLOCK
  5
4B7
100
AcDbEntity
  8
0
370
     0
390
0
100
AcDbBlockBegin
  2
BLOCK10
 70
     0
 10
0.0
 20
0.0
 30
0.0
  3
BLOCK10
  1

  0
SOLID
  5
4B8
100
AcDbEntity
  8
0
370
    13
390
0
 62
     7
 48
0.03937
100
AcDbTrace
 10
-3.322995
 20
3.379483
 30
0.0
 11
-3.79829
 21
3.710673
 31
0.0
 12
-3.322995
 22
3.379483
 32
0.0
 13
-3.4561
 23
3.243236
 33
0.0
  0
SOLID
  5
4B9
100
AcDbEntity
  8
0
370
    13
390
0
 62
     7
 48
0.03937
100
AcDbTrace
 10
3.322995
 20
-3.379483
 30
0.0
 11
3.79829
 21
-3.710673
 31
0.0
 12
3.322995
 22
-3.379483
 32
0.0
 13
3.4561
 23
-3.243236
 33
0.0
  0
TEXT
  5
4BA
100
AcDbEntity
  8
0
370
    13
390
0
 62
     7
 48
0.03937
100
AcDbText
 10
6.508529
 20
-5.247341
 30
0.0
 40
0.281215
  1
10.62
 72
     5
 11
7.422884
 21
-5.247341
 31
0.0
100
AcDbText
  0
TEXT
  5
4BB
100
AcDbEntity
  8
0
370
    13
390
0
 62
     7
 48
0.03937
100
AcDbText
 10
7.422884
 20
-5.247341
 30
0.0
 40
0.281215
  1
"
 72
     5
 11
7.629108
 21
-5.247341
 31
0.0
100
AcDbText
  0
TEXT
  5
4BC
100
AcDbEntity
  8
0
370
    13
390
0
 62
     7
 48
0.03937
100
AcDbText
 10
5.9416
 20
-5.247341
 30
0.0
 40
0.281215
  1
%%c
 72
     5
 11
6.222815
 21
-5.247341
 31
0.0
100
AcDbText
  0
TEXT
  5
4BD
100
AcDbEntity
  8
0
370
    13
390
0
 62
     7
 48
0.03937
100
AcDbText
 10
5.9416
 20
-5.697285
 30
0.0
 40
0.281215
  1
BOLT CIRCLE
 72
     5
 11
8.765127
 21
-5.697285
 31
0.0
100
AcDbText
  0
LINE
  5
4BE
100
AcDbEntity
  8
0
370
    13
390
0
 62
     7
 48
0.012143
100
AcDbLine
 10
5.227315
 20
-5.106733
 30
0.0
 11
5.713029
 21
-5.106733
 31
0.0
210
0.0
220
0.0
230
1.0
  0
ARC
  5
4BF
100
AcDbEntity
  8
0
370
    13
390
0
 62
     7
 48
0.03937
100
AcDbCircle
 10
0.0
 20
0.0
 30
0.0
 40
5.31
210
0.0
220
0.0
230
1.0
100
AcDbArc
 50
133.241035
 51
160.66139
  0
ARC
  5
4C0
100
AcDbEntity
  8
0
370
    13
390
0
 62
     7
 48
0.03937
100
AcDbCircle
 10
0.0
 20
0.0
 30
0.0
 40
5.31
210
0.0
220
0.0
230
1.0
100
AcDbArc
 50
199.338624
 51
318.096007
  0
LINE
  5
4C1
100
AcDbEntity
  8
0
370
    13
390
0
 62
     7
 48
0.03937
100
AcDbLine
 10
-3.389547
 20
3.311359
 30
0.0
 11
3.389548
 21
-3.311359
 31
0.0
210
0.0
220
0.0
230
1.0
  0
LINE
  5
4C2
100
AcDbEntity
  8
0
370
    13
390
0
 62
     7
 48
0.03937
100
AcDbLine
 10
3.79829
 20
-3.710673
 30
0.0
 11
5.227315
 21
-5.106733
 31
0.0
210
0.0
220
0.0
230
1.0
  0
POLYLINE
  5
4C3
100
AcDbEntity
  8
0
370
    13
390
0
 62
     7
 48
0.03937
100
AcDb2dPolyline
 66
     1
 10
0.0
 20
0.0
 30
0.0
 70
     1
 71
     3
  0
VERTEX
  5
4C4
100
AcDbEntity
  8
0
370
     0
390
0
100
AcDbVertex
100
AcDb2dVertex
 10
-3.322995
 20
3.379483
 30
0.0
  0
VERTEX
  5
4C5
100
AcDbEntity
  8
0
370
     0
390
0
100
AcDbVertex
100
AcDb2dVertex
 10
-3.79829
 20
3.710673
 30
0.0
  0
VERTEX
  5
4C6
100
AcDbEntity
  8
0
370
     0
390
0
100
AcDbVertex
100
AcDb2dVertex
 10
-3.4561
 20
3.243236
 30
0.0
  0
SEQEND
  5
4C7
100
AcDbEntity
  8
0
370
     0
390
0
  0
POLYLINE
  5
4C8
100
AcDbEntity
  8
0
370
    13
390
0
 62
     7
 48
0.03937
100
AcDb2dPolyline
 66
     1
 10
0.0
 20
0.0
 30
0.0
 70
     1
 71
     3
  0
VERTEX
  5
4C9
100
AcDbEntity
  8
0
370
     0
390
0
100
AcDbVertex
100
AcDb2dVertex
 10
3.322995
 20
-3.379483
 30
0.0
  0
VERTEX
  5
4CA
100
AcDbEntity
  8
0
370
     0
390
0
100
AcDbVertex
100
AcDb2dVertex
 10
3.79829
 20
-3.710673
 30
0.0
  0
VERTEX
  5
4CB
100
AcDbEntity
  8
0
370
     0
390
0
100
AcDbVertex
100
AcDb2dVertex
 10
3.4561
 20
-3.243236
 30
0.0
  0
SEQEND
  5
4CC
100
AcDbEntity
  8
0
370
     0
390
0
  0
ENDBLK
  5
4CD
100
AcDbEntity
  8
0
390
0
100
AcDbBlockEnd
  0
BLOCK
  5
4CE
100
AcDbEntity
  8
0
370
     0
390
0
100
AcDbBlockBegin
  2
BLOCK11
 70
     0
 10
0.0
 20
0.0
 30
0.0
  3
BLOCK11
  1

  0
LINE
  5
4CF
100
AcDbEntity
  8
0
370
    13
390
0
  6
DASHDOT
 62
     7
 48
0.03937
100
AcDbLine
 10
-6.877271
 20
0.0
 30
0.0
 11
-3.742729
 21
0.0
 31
0.0
210
0.0
220
0.0
230
1.0
  0
ARC
  5
4D0
100
AcDbEntity
  8
0
370
    13
390
0
  6
DASHDOT
 62
     7
 48
0.03937
100
AcDbCircle
 10
0.0
 20
0.0
 30
0.0
 40
5.31
210
0.0
220
0.0
230
1.0
100
AcDbArc
 50
163.08888
 51
196.91112
  0
ENDBLK
  5
4D1
100
AcDbEntity
  8
0
390
0
100
AcDbBlockEnd
  0
BLOCK
  5
4D2
100
AcDbEntity
  8
0
370
     0
390
0
100
AcDbBlockBegin
  2
BLOCK12
 70
     0
 10
0.0
 20
0.0
 30
0.0
  3
BLOCK12
  1

  0
LINE
  5
4D3
100
AcDbEntity
  8
0
370
    13
390
0
  6
DASHDOT
 62
     7
 48
0.03937
100
AcDbLine
 10
-5.66841
 20
3.272658
 30
0.0
 11
-3.52878
 21
2.037342
 31
0.0
210
0.0
220
0.0
230
1.0
  0
ARC
  5
4D4
100
AcDbEntity
  8
0
370
    13
390
0
  6
DASHDOT
 62
     7
 48
0.03937
100
AcDbCircle
 10
0.0
 20
0.0
 30
0.0
 40
5.31
210
0.0
220
0.0
230
1.0
100
AcDbArc
 50
136.670733
 51
163.329262
  0
ENDBLK
  5
4D5
100
AcDbEntity
  8
0
390
0
100
AcDbBlockEnd
  0
BLOCK
  5
4D6
100
AcDbEntity
  8
0
370
     0
390
0
100
AcDbBlockBegin
  2
BLOCK13
 70
     0
 10
0.0
 20
0.0
 30
0.0
  3
BLOCK13
  1

  0
LINE
  5
4D7
100
AcDbEntity
  8
0
370
    13
390
0
  6
DASHDOT
 62
     7
 48
0.03937
100
AcDbLine
 10
-3.465157
 20
6.001828
 30
0.0
 11
-1.844843
 21
3.195361
 31
0.0
210
0.0
220
0.0
230
1.0
  0
ARC
  5
4D8
100
AcDbEntity
  8
0
370
    13
390
0
  6
DASHDOT
 62
     7
 48
0.03937
100
AcDbCircle
 10
0.0
 20
0.0
 30
0.0
 40
5.31
210
0.0
220
0.0
230
1.0
100
AcDbArc
 50
102.516536
 51
137.483457
  0
ENDBLK
  5
4D9
100
AcDbEntity
  8
0
390
0
100
AcDbBlockEnd
  0
BLOCK
  5
4DA
100
AcDbEntity
  8
0
370
     0
390
0
100
AcDbBlockBegin
  2
BLOCK14
 70
     0
 10
0.0
 20
0.0
 30
0.0
  3
BLOCK14
  1

  0
LINE
  5
4DB
100
AcDbEntity
  8
0
370
    13
390
0
  6
DASHDOT
 62
     7
 48
0.03937
100
AcDbLine
 10
0.0
 20
6.704333
 30
0.0
 11
0.0
 21
3.915667
 31
0.0
210
0.0
220
0.0
230
1.0
  0
ARC
  5
4DC
100
AcDbEntity
  8
0
370
    13
390
0
  6
DASHDOT
 62
     7
 48
0.03937
100
AcDbCircle
 10
0.0
 20
0.0
 30
0.0
 40
5.31
210
0.0
220
0.0
230
1.0
100
AcDbArc
 50
74.954913
 51
105.045086
  0
ENDBLK
  5
4DD
100
AcDbEntity
  8
0
390
0
100
AcDbBlockEnd
  0
BLOCK
  5
4DE
100
AcDbEntity
  8
0
370
     0
390
0
100
AcDbBlockBegin
  2
BLOCK15
 70
     0
 10
0.0
 20
0.0
 30
0.0
  3
BLOCK15
  1

  0
SOLID
  5
4DF
100
AcDbEntity
  8
0
370
    13
390
0
 62
     7
 48
0.03937
100
AcDbTrace
 10
-3.678579
 20
-1.297602
 30
0.0
 11
-4.25
 21
-1.392838
 31
0.0
 12
-3.678579
 22
-1.297602
 32
0.0
 13
-3.678579
 23
-1.488075
 33
0.0
  0
SOLID
  5
4E0
100
AcDbEntity
  8
0
370
    13
390
0
 62
     7
 48
0.03937
100
AcDbTrace
 10
3.678579
 20
-1.488075
 30
0.0
 11
4.25
 21
-1.392838
 31
0.0
 12
3.678579
 22
-1.488075
 32
0.0
 13
3.678579
 23
-1.297602
 33
0.0
  0
TEXT
  5
4E1
100
AcDbEntity
  8
0
370
    13
390
0
 62
     7
 48
0.03937
100
AcDbText
 10
-0.073635
 20
-1.533446
 30
0.0
 40
0.281215
  1
8.5
 72
     5
 11
0.43434
 21
-1.533446
 31
0.0
100
AcDbText
  0
TEXT
  5
4E2
100
AcDbEntity
  8
0
370
    13
390
0
 62
     7
 48
0.03937
100
AcDbText
 10
0.43434
 20
-1.533446
 30
0.0
 40
0.281215
  1
"
 72
     5
 11
0.640564
 21
-1.533446
 31
0.0
100
AcDbText
  0
TEXT
  5
4E3
100
AcDbEntity
  8
0
370
    13
390
0
 62
     7
 48
0.03937
100
AcDbText
 10
-0.640564
 20
-1.533446
 30
0.0
 40
0.281215
  1
%%c
 72
     5
 11
-0.359349
 21
-1.533446
 31
0.0
100
AcDbText
  0
LINE
  5
4E4
100
AcDbEntity
  8
0
370
    13
390
0
 62
     7
 48
0.03937
100
AcDbLine
 10
-4.25
 20
-0.474972
 30
0.0
 11
-4.25
 21
-1.61781
 31
0.0
210
0.0
220
0.0
230
1.0
  0
LINE
  5
4E5
100
AcDbEntity
  8
0
370
    13
390
0
 62
     7
 48
0.03937
100
AcDbLine
 10
4.25
 20
-0.474972
 30
0.0
 11
4.25
 21
-1.61781
 31
0.0
210
0.0
220
0.0
230
1.0
  0
LINE
  5
4E6
100
AcDbEntity
  8
0
370
    13
390
0
 62
     7
 48
0.03937
100
AcDbLine
 10
-3.678579
 20
-1.392838
 30
0.0
 11
-0.869136
 21
-1.392838
 31
0.0
210
0.0
220
0.0
230
1.0
  0
LINE
  5
4E7
100
AcDbEntity
  8
0
370
    13
390
0
 62
     7
 48
0.03937
100
AcDbLine
 10
0.869136
 20
-1.392838
 30
0.0
 11
3.678579
 21
-1.392838
 31
0.0
210
0.0
220
0.0
230
1.0
  0
POLYLINE
  5
4E8
100
AcDbEntity
  8
0
370
    13
390
0
 62
     7
 48
0.03937
100
AcDb2dPolyline
 66
     1
 10
0.0
 20
0.0
 30
0.0
 70
     1
 71
     3
  0
VERTEX
  5
4E9
100
AcDbEntity
  8
0
370
     0
390
0
100
AcDbVertex
100
AcDb2dVertex
 10
-3.678579
 20
-1.297602
 30
0.0
  0
VERTEX
  5
4EA
100
AcDbEntity
  8
0
370
     0
390
0
100
AcDbVertex
100
AcDb2dVertex
 10
-4.25
 20
-1.392838
 30
0.0
  0
VERTEX
  5
4EB
100
AcDbEntity
  8
0
370
     0
390
0
100
AcDbVertex
100
AcDb2dVertex
 10
-3.678579
 20
-1.488075
 30
0.0
  0
SEQEND
  5
4EC
100
AcDbEntity
  8
0
370
     0
390
0
  0
POLYLINE
  5
4ED
100
AcDbEntity
  8
0
370
    13
390
0
 62
     7
 48
0.03937
100
AcDb2dPolyline
 66
     1
 10
0.0
 20
0.0
 30
0.0
 70
     1
 71
     3
  0
VERTEX
  5
4EE
100
AcDbEntity
  8
0
370
     0
390
0
100
AcDbVertex
100
AcDb2dVertex
 10
3.678579
 20
-1.488075
 30
0.0
  0
VERTEX
  5
4EF
100
AcDbEntity
  8
0
370
     0
390
0
100
AcDbVertex
100
AcDb2dVertex
 10
4.25
 20
-1.392838
 30
0.0
  0
VERTEX
  5
4F0
100
AcDbEntity
  8
0
370
     0
390
0
100
AcDbVertex
100
AcDb2dVertex
 10
3.678579
 20
-1.297602
 30
0.0
  0
SEQEND
  5
4F1
100
AcDbEntity
  8
0
370
     0
390
0
  0
ENDBLK
  5
4F2
100
AcDbEntity
  8
0
390
0
100
AcDbBlockEnd
  0
BLOCK
  5
4F3
100
AcDbEntity
  8
0
370
     0
390
0
100
AcDbBlockBegin
  2
BLOCK16
 70
     0
 10
0.0
 20
0.0
 30
0.0
  3
BLOCK16
  1

  0
SOLID
  5
4F4
100
AcDbEntity
  8
0
370
    13
390
0
 62
     7
 48
0.03937
100
AcDbTrace
 10
9.110063
 20
-0.571421
 30
0.0
 11
9.014826
 21
0.0
 31
0.0
 12
9.110063
 22
-0.571421
 32
0.0
 13
8.91959
 23
-0.571421
 33
0.0
  0
SOLID
  5
4F5
100
AcDbEntity
  8
0
370
    13
390
0
 62
     7
 48
0.03937
100
AcDbTrace
 10
8.91959
 20
2.191421
 30
0.0
 11
9.014826
 21
1.62
 31
0.0
 12
8.91959
 22
2.191421
 32
0.0
 13
9.110063
 23
2.191421
 33
0.0
  0
TEXT
  5
4F6
100
AcDbEntity
  8
0
370
    13
390
0
 62
     7
 48
0.03937
100
AcDbText
 10
8.556132
 20
0.669393
 30
0.0
 40
0.281215
  1
1.62
 72
     5
 11
9.267297
 21
0.669393
 31
0.0
100
AcDbText
  0
TEXT
  5
4F7
100
AcDbEntity
  8
0
370
    13
390
0
 62
     7
 48
0.03937
100
AcDbText
 10
9.267296
 20
0.669393
 30
0.0
 40
0.281215
  1
"
 72
     5
 11
9.473521
 21
0.669393
 31
0.0
100
AcDbText
  0
LINE
  5
4F8
100
AcDbEntity
  8
0
370
    13
390
0
 62
     7
 48
0.03937
100
AcDbLine
 10
6.474972
 20
0.0
 30
0.0
 11
9.239798
 21
0.0
 31
0.0
210
0.0
220
0.0
230
1.0
  0
LINE
  5
4F9
100
AcDbEntity
  8
0
370
    13
390
0
 62
     7
 48
0.03937
100
AcDbLine
 10
6.474972
 20
1.62
 30
0.0
 11
9.239798
 21
1.62
 31
0.0
210
0.0
220
0.0
230
1.0
  0
LINE
  5
4FA
100
AcDbEntity
  8
0
370
    13
390
0
 62
     7
 48
0.008212
100
AcDbLine
 10
9.014826
 20
-0.899888
 30
0.0
 11
9.014826
 21
-0.571421
 31
0.0
210
0.0
220
0.0
230
1.0
  0
LINE
  5
4FB
100
AcDbEntity
  8
0
370
    13
390
0
 62
     7
 48
0.008212
100
AcDbLine
 10
9.014826
 20
2.191421
 30
0.0
 11
9.014826
 21
2.519887
 31
0.0
210
0.0
220
0.0
230
1.0
  0
POLYLINE
  5
4FC
100
AcDbEntity
  8
0
370
    13
390
0
 62
     7
 48
0.03937
100
AcDb2dPolyline
 66
     1
 10
0.0
 20
0.0
 30
0.0
 70
     1
 71
     3
  0
VERTEX
  5
4FD
100
AcDbEntity
  8
0
370
     0
390
0
100
AcDbVertex
100
AcDb2dVertex
 10
9.110063
 20
-0.571421
 30
0.0
  0
VERTEX
  5
4FE
100
AcDbEntity
  8
0
370
     0
390
0
100
AcDbVertex
100
AcDb2dVertex
 10
9.014826
 20
0.0
 30
0.0
  0
VERTEX
  5
4FF
100
AcDbEntity
  8
0
370
     0
390
0
100
AcDbVertex
100
AcDb2dVertex
 10
8.91959
 20
-0.571421
 30
0.0
  0
SEQEND
  5
500
100
AcDbEntity
  8
0
370
     0
390
0
  0
POLYLINE
  5
501
100
AcDbEntity
  8
0
370
    13
390
0
 62
     7
 48
0.03937
100
AcDb2dPolyline
 66
     1
 10
0.0
 20
0.0
 30
0.0
 70
     1
 71
     3
  0
VERTEX
  5
502
100
AcDbEntity
  8
0
370
     0
390
0
100
AcDbVertex
100
AcDb2dVertex
 10
8.91959
 20
2.191421
 30
0.0
  0
VERTEX
  5
503
100
AcDbEntity
  8
0
370
     0
390
0
100
AcDbVertex
100
AcDb2dVertex
 10
9.014826
 20
1.62
 30
0.0
  0
VERTEX
  5
504
100
AcDbEntity
  8
0
370
     0
390
0
100
AcDbVertex
100
AcDb2dVertex
 10
9.110063
 20
2.191421
 30
0.0
  0
SEQEND
  5
505
100
AcDbEntity
  8
0
370
     0
390
0
  0
ENDBLK
  5
506
100
AcDbEntity
  8
0
390
0
100
AcDbBlockEnd
  0
BLOCK
  5
507
100
AcDbEntity
  8
0
370
     0
390
0
100
AcDbBlockBegin
  2
BLOCK17
 70
     0
 10
0.0
 20
0.0
 30
0.0
  3
BLOCK17
  1

  0
SOLID
  5
508
100
AcDbEntity
  8
0
370
    13
390
0
 62
     7
 48
0.03937
100
AcDbTrace
 10
7.685635
 20
0.571421
 30
0.0
 11
7.780871
 21
0.0
 31
0.0
 12
7.685635
 22
0.571421
 32
0.0
 13
7.876108
 23
0.571421
 33
0.0
  0
SOLID
  5
509
100
AcDbEntity
  8
0
370
    13
390
0
 62
     7
 48
0.03937
100
AcDbTrace
 10
7.876108
 20
-0.821421
 30
0.0
 11
7.780871
 21
-0.25
 31
0.0
 12
7.876108
 22
-0.821421
 32
0.0
 13
7.685635
 23
-0.821421
 33
0.0
  0
TEXT
  5
50A
100
AcDbEntity
  8
0
370
    13
390
0
 62
     7
 48
0.03937
100
AcDbText
 10
7.322176
 20
-1.785343
 30
0.0
 40
0.281215
  1
0.25
 72
     5
 11
8.033342
 21
-1.785343
 31
0.0
100
AcDbText
  0
TEXT
  5
50B
100
AcDbEntity
  8
0
370
    13
390
0
 62
     7
 48
0.03937
100
AcDbText
 10
8.033341
 20
-1.785343
 30
0.0
 40
0.281215
  1
"
 72
     5
 11
8.239565
 21
-1.785343
 31
0.0
100
AcDbText
  0
LINE
  5
50C
100
AcDbEntity
  8
0
370
    13
390
0
 62
     7
 48
0.03937
100
AcDbLine
 10
4.474972
 20
-0.25
 30
0.0
 11
8.005843
 21
-0.25
 31
0.0
210
0.0
220
0.0
230
1.0
  0
LINE
  5
50D
100
AcDbEntity
  8
0
370
    13
390
0
 62
     7
 48
0.03937
100
AcDbLine
 10
6.474972
 20
0.0
 30
0.0
 11
8.005843
 21
0.0
 31
0.0
210
0.0
220
0.0
230
1.0
  0
LINE
  5
50E
100
AcDbEntity
  8
0
370
    13
390
0
 62
     7
 48
0.011353
100
AcDbLine
 10
7.780871
 20
-1.275556
 30
0.0
 11
7.780871
 21
-0.821421
 31
0.0
210
0.0
220
0.0
230
1.0
  0
LINE
  5
50F
100
AcDbEntity
  8
0
370
    13
390
0
 62
     7
 48
0.008212
100
AcDbLine
 10
7.780871
 20
0.571421
 30
0.0
 11
7.780871
 21
0.899888
 31
0.0
210
0.0
220
0.0
230
1.0
  0
POLYLINE
  5
510
100
AcDbEntity
  8
0
370
    13
390
0
 62
     7
 48
0.03937
100
AcDb2dPolyline
 66
     1
 10
0.0
 20
0.0
 30
0.0
 70
     1
 71
     3
  0
VERTEX
  5
511
100
AcDbEntity
  8
0
370
     0
390
0
100
AcDbVertex
100
AcDb2dVertex
 10
7.685635
 20
0.571421
 30
0.0
  0
VERTEX
  5
512
100
AcDbEntity
  8
0
370
     0
390
0
100
AcDbVertex
100
AcDb2dVertex
 10
7.780871
 20
0.0
 30
0.0
  0
VERTEX
  5
513
100
AcDbEntity
  8
0
370
     0
390
0
100
AcDbVertex
100
AcDb2dVertex
 10
7.876108
 20
0.571421
 30
0.0
  0
SEQEND
  5
514
100
AcDbEntity
  8
0
370
     0
390
0
  0
POLYLINE
  5
515
100
AcDbEntity
  8
0
370
    13
390
0
 62
     7
 48
0.03937
100
AcDb2dPolyline
 66
     1
 10
0.0
 20
0.0
 30
0.0
 70
     1
 71
     3
  0
VERTEX
  5
516
100
AcDbEntity
  8
0
370
     0
390
0
100
AcDbVertex
100
AcDb2dVertex
 10
7.876108
 20
-0.821421
 30
0.0
  0
VERTEX
  5
517
100
AcDbEntity
  8
0
370
     0
390
0
100
AcDbVertex
100
AcDb2dVertex
 10
7.780871
 20
-0.25
 30
0.0
  0
VERTEX
  5
518
100
AcDbEntity
  8
0
370
     0
390
0
100
AcDbVertex
100
AcDb2dVertex
 10
7.685635
 20
-0.821421
 30
0.0
  0
SEQEND
  5
519
100
AcDbEntity
  8
0
370
     0
390
0
  0
ENDBLK
  5
51A
100
AcDbEntity
  8
0
390
0
100
AcDbBlockEnd
  0
BLOCK
  5
51B
100
AcDbEntity
  8
0
370
     0
390
0
100
AcDbBlockBegin
  2
BLOCK18
 70
     0
 10
0.0
 20
0.0
 30
0.0
  3
BLOCK18
  1

  0
LINE
  5
51C
100
AcDbEntity
  8
0
370
     5
390
0
 62
     7
 48
0.03937
100
AcDbLine
 10
-6.25
 20
0.0
 30
0.0
 11
-6.25
 21
1.62
 31
0.0
210
0.0
220
0.0
230
1.0
  0
LINE
  5
51D
100
AcDbEntity
  8
0
370
     5
390
0
 62
     7
 48
0.011
100
AcDbLine
 10
-6.25
 20
1.62
 30
0.0
 11
-5.81
 21
1.62
 31
0.0
210
0.0
220
0.0
230
1.0
  0
LINE
  5
51E
100
AcDbEntity
  8
0
370
     5
390
0
 62
     7
 48
0.03937
100
AcDbLine
 10
-5.81
 20
1.62
 30
0.0
 11
-5.81
 21
0.0
 31
0.0
210
0.0
220
0.0
230
1.0
  0
LINE
  5
51F
100
AcDbEntity
  8
0
370
     5
390
0
 62
     7
 48
0.011
100
AcDbLine
 10
-5.81
 20
0.0
 30
0.0
 11
-6.25
 21
0.0
 31
0.0
210
0.0
220
0.0
230
1.0
  0
ENDBLK
  5
520
100
AcDbEntity
  8
0
390
0
100
AcDbBlockEnd
  0
BLOCK
  5
521
100
AcDbEntity
  8
0
370
     0
390
0
100
AcDbBlockBegin
  2
BLOCK19
 70
     0
 10
0.0
 20
0.0
 30
0.0
  3
BLOCK19
  1

  0
LINE
  5
522
100
AcDbEntity
  8
0
370
     5
390
0
 62
     7
 48
0.03937
100
AcDbLine
 10
4.81
 20
1.62
 30
0.0
 11
4.81
 21
0.0
 31
0.0
210
0.0
220
0.0
230
1.0
  0
LINE
  5
523
100
AcDbEntity
  8
0
370
     5
390
0
 62
     7
 48
0.014
100
AcDbLine
 10
4.81
 20
0.0
 30
0.0
 11
4.25
 21
0.0
 31
0.0
210
0.0
220
0.0
230
1.0
  0
LINE
  5
524
100
AcDbEntity
  8
0
370
     5
390
0
 62
     7
 48
0.00625
100
AcDbLine
 10
4.25
 20
0.0
 30
0.0
 11
4.25
 21
-0.25
 31
0.0
210
0.0
220
0.0
230
1.0
  0
LINE
  5
525
100
AcDbEntity
  8
0
370
     5
390
0
 62
     7
 48
0.03937
100
AcDbLine
 10
4.25
 20
-0.25
 30
0.0
 11
-4.25
 21
-0.25
 31
0.0
210
0.0
220
0.0
230
1.0
  0
LINE
  5
526
100
AcDbEntity
  8
0
370
     5
390
0
 62
     7
 48
0.00625
100
AcDbLine
 10
-4.25
 20
-0.25
 30
0.0
 11
-4.25
 21
0.0
 31
0.0
210
0.0
220
0.0
230
1.0
  0
LINE
  5
527
100
AcDbEntity
  8
0
370
     5
390
0
 62
     7
 48
0.014
100
AcDbLine
 10
-4.25
 20
0.0
 30
0.0
 11
-4.81
 21
0.0
 31
0.0
210
0.0
220
0.0
230
1.0
  0
LINE
  5
528
100
AcDbEntity
  8
0
370
     5
390
0
 62
     7
 48
0.03937
100
AcDbLine
 10
-4.81
 20
0.0
 30
0.0
 11
-4.81
 21
1.62
 31
0.0
210
0.0
220
0.0
230
1.0
  0
LINE
  5
529
100
AcDbEntity
  8
0
370
     5
390
0
 62
     7
 48
0.03937
100
AcDbLine
 10
-4.81
 20
1.62
 30
0.0
 11
4.81
 21
1.62
 31
0.0
210
0.0
220
0.0
230
1.0
  0
ENDBLK
  5
52A
100
AcDbEntity
  8
0
390
0
100
AcDbBlockEnd
  0
BLOCK
  5
52B
100
AcDbEntity
  8
0
370
     0
390
0
100
AcDbBlockBegin
  2
BLOCK20
 70
     0
 10
0.0
 20
0.0
 30
0.0
  3
BLOCK20
  1

  0
LINE
  5
52C
100
AcDbEntity
  8
0
370
     5
390
0
 62
     7
 48
0.011
100
AcDbLine
 10
5.81
 20
1.62
 30
0.0
 11
6.25
 21
1.62
 31
0.0
210
0.0
220
0.0
230
1.0
  0
LINE
  5
52D
100
AcDbEntity
  8
0
370
     5
390
0
 62
     7
 48
0.03937
100
AcDbLine
 10
6.25
 20
1.62
 30
0.0
 11
6.25
 21
0.0
 31
0.0
210
0.0
220
0.0
230
1.0
  0
LINE
  5
52E
100
AcDbEntity
  8
0
370
     5
390
0
 62
     7
 48
0.011
100
AcDbLine
 10
6.25
 20
0.0
 30
0.0
 11
5.81
 21
0.0
 31
0.0
210
0.0
220
0.0
230
1.0
  0
LINE
  5
52F
100
AcDbEntity
  8
0
370
     5
390
0
 62
     7
 48
0.03937
100
AcDbLine
 10
5.81
 20
0.0
 30
0.0
 11
5.81
 21
1.62
 31
0.0
210
0.0
220
0.0
230
1.0
  0
ENDBLK
  5
530
100
AcDbEntity
  8
0
390
0
100
AcDbBlockEnd
  0
ENDSEC
  0
SECTION
  2
ENTITIES
  0
VIEWPORT
  5
365
100
AcDbEntity
 67
     1
  8
0
370
     0
390
0
 62
     0
 48
0.0
100
AcDbViewport
 10
0.0
 20
0.0
 30
0.0
 40
1000.0
 41
1000.0
 68
     1
 69
     1
 12
0.0
 22
0.0
 13
0.0
 23
0.0
 14
1.0
 24
1.0
 15
1.0
 25
1.0
 16
0.0
 26
0.0
 36
1.0
 17
0.0
 27
0.0
 37
0.0
 42
50.0
 43
0.0
 44
0.0
 45
1000.0
 50
0.0
 51
0.0
 72
   100
 90
        0
340
0
  1

281
     0
 71
     0
 74
     1
110
0.0
120
0.0
130
0.0
111
1.0
121
0.0
131
0.0
112
0.0
122
1.0
132
0.0
345
0
346
0
 79
     0
146
0.0
  0
TEXT
  5
27
100
AcDbEntity
  8
0
370
    13
390
0
 62
     7
 48
0.03937
100
AcDbText
 10
7.774762
 20
1.08216
 30
0.0
 40
0.06
  1
SIZE:
 72
     5
 11
8.064134
 21
1.08216
 31
0.0
100
AcDbText
  0
TEXT
  5
28
100
AcDbEntity
  8
0
370
    13
390
0
 62
     7
 48
0.03937
100
AcDbText
 10
7.774762
 20
0.894218
 30
0.0
 40
0.06
  1
TYPE:
 72
     5
 11
8.064134
 21
0.894218
 31
0.0
100
AcDbText
  0
POINT
  5
29
100
AcDbEntity
  8
0
370
     5
390
0
 62
     7
 48
0.03937
100
AcDbPoint
 10
0.0
 20
0.0
 30
0.0
210
0.0
220
0.0
230
1.0
  0
POINT
  5
2A
100
AcDbEntity
  8
0
370
     5
390
0
 62
     7
 48
0.03937
100
AcDbPoint
 10
8.029755
 20
0.53125
 30
0.0
210
0.0
220
0.0
230
1.0
  0
LINE
  5
2B
100
AcDbEntity
  8
1
370
    35
390
0
 62
     7
 48
0.000032
100
AcDbLine
 10
9.035676
 20
0.778761
 30
0.0
 11
9.036922
 21
0.778449
 31
0.0
210
0.0
220
0.0
230
1.0
  0
LINE
  5
2C
100
AcDbEntity
  8
1
370
    35
390
0
 62
     7
 48
0.03937
100
AcDbLine
 10
0.25
 20
0.25
 30
0.0
 11
0.25
 21
8.25
 31
0.0
210
0.0
220
0.0
230
1.0
  0
LINE
  5
2D
100
AcDbEntity
  8
1
370
    35
390
0
 62
     7
 48
0.03937
100
AcDbLine
 10
7.75
 20
1.1875
 30
0.0
 11
10.75
 21
1.1875
 31
0.0
210
0.0
220
0.0
230
1.0
  0
LINE
  5
2E
100
AcDbEntity
  8
1
370
    35
390
0
 62
     7
 48
0.03937
100
AcDbLine
 10
7.75
 20
1.0
 30
0.0
 11
10.75
 21
1.0
 31
0.0
210
0.0
220
0.0
230
1.0
  0
LINE
  5
2F
100
AcDbEntity
  8
1
370
    35
390
0
 62
     7
 48
0.03937
100
AcDbLine
 10
0.25
 20
8.25
 30
0.0
 11
10.75
 21
8.25
 31
0.0
210
0.0
220
0.0
230
1.0
  0
LINE
  5
30
100
AcDbEntity
  8
1
370
    35
390
0
 62
     7
 48
0.03937
100
AcDbLine
 10
7.75
 20
0.8125
 30
0.0
 11
10.75
 21
0.8125
 31
0.0
210
0.0
220
0.0
230
1.0
  0
LINE
  5
31
100
AcDbEntity
  8
1
370
    35
390
0
 62
     7
 48
0.03937
100
AcDbLine
 10
0.25
 20
0.25
 30
0.0
 11
10.75
 21
0.25
 31
0.0
210
0.0
220
0.0
230
1.0
  0
LINE
  5
32
100
AcDbEntity
  8
1
370
    35
390
0
 62
     7
 48
0.03937
100
AcDbLine
 10
10.75
 20
8.25
 30
0.0
 11
10.75
 21
0.25
 31
0.0
210
0.0
220
0.0
230
1.0
  0
LINE
  5
33
100
AcDbEntity
  8
1
370
    35
390
0
 62
     7
 48
0.03937
100
AcDbLine
 10
7.75
 20
1.1875
 30
0.0
 11
7.75
 21
0.25
 31
0.0
210
0.0
220
0.0
230
1.0
  0
CIRCLE
  5
34
100
AcDbEntity
  8
0
370
    70
390
0
 62
     7
 48
0.03937
100
AcDbCircle
 10
8.029755
 20
0.53125
 30
0.0
 40
0.2475
210
0.0
220
0.0
230
1.0
  0
CIRCLE
  5
35
100
AcDbEntity
  8
0
370
    70
390
0
 62
     7
 48
0.03937
100
AcDbCircle
 10
8.029755
 20
0.53125
 30
0.0
 40
0.195
210
0.0
220
0.0
230
1.0
  0
CIRCLE
  5
36
100
AcDbEntity
  8
0
370
    35
390
0
 62
     7
 48
0.03937
100
AcDbCircle
 10
8.029755
 20
0.7525
 30
0.0
 40
0.015
210
0.0
220
0.0
230
1.0
  0
CIRCLE
  5
37
100
AcDbEntity
  8
0
370
    35
390
0
 62
     7
 48
0.03937
100
AcDbCircle
 10
8.251005
 20
0.53125
 30
0.0
 40
0.015
210
0.0
220
0.0
230
1.0
  0
CIRCLE
  5
38
100
AcDbEntity
  8
0
370
    35
390
0
 62
     7
 48
0.03937
100
AcDbCircle
 10
8.186202
 20
0.687697
 30
0.0
 40
0.015
210
0.0
220
0.0
230
1.0
  0
CIRCLE
  5
39
100
AcDbEntity
  8
0
370
    35
390
0
 62
     7
 48
0.03937
100
AcDbCircle
 10
8.029755
 20
0.31
 30
0.0
 40
0.015
210
0.0
220
0.0
230
1.0
  0
CIRCLE
  5
3A
100
AcDbEntity
  8
0
370
    35
390
0
 62
     7
 48
0.03937
100
AcDbCircle
 10
8.186202
 20
0.374803
 30
0.0
 40
0.015
210
0.0
220
0.0
230
1.0
  0
CIRCLE
  5
3B
100
AcDbEntity
  8
0
370
    35
390
0
 62
     7
 48
0.03937
100
AcDbCircle
 10
7.808505
 20
0.53125
 30
0.0
 40
0.015
210
0.0
220
0.0
230
1.0
  0
CIRCLE
  5
3C
100
AcDbEntity
  8
0
370
    35
390
0
 62
     7
 48
0.03937
100
AcDbCircle
 10
7.873308
 20
0.687697
 30
0.0
 40
0.015
210
0.0
220
0.0
230
1.0
  0
CIRCLE
  5
3D
100
AcDbEntity
  8
0
370
    35
390
0
 62
     7
 48
0.03937
100
AcDbCircle
 10
7.873308
 20
0.374803
 30
0.0
 40
0.015
210
0.0
220
0.0
230
1.0
  0
POLYLINE
  5
3E
100
AcDbEntity
  8
0
370
    13
390
0
 62
     7
 48
0.03937
100
AcDb2dPolyline
 66
     1
 10
0.0
 20
0.0
 30
0.0
 70
     1
 71
   118
  0
VERTEX
  5
3F
100
AcDbEntity
  8
0
370
     0
390
0
100
AcDbVertex
100
AcDb2dVertex
 10
8.029831
 20
0.605292
 30
0.0
  0
VERTEX
  5
40
100
AcDbEntity
  8
0
370
     0
390
0
100
AcDbVertex
100
AcDb2dVertex
 10
8.029019
 20
0.60375
 30
0.0
  0
VERTEX
  5
41
100
AcDbEntity
  8
0
370
     0
390
0
100
AcDbVertex
100
AcDb2dVertex
 10
8.021177
 20
0.589826
 30
0.0
  0
VERTEX
  5
42
100
AcDbEntity
  8
0
370
     0
390
0
100
AcDbVertex
100
AcDb2dVertex
 10
8.020426
 20
0.588405
 30
0.0
  0
VERTEX
  5
43
100
AcDbEntity
  8
0
370
     0
390
0
100
AcDbVertex
100
AcDb2dVertex
 10
8.019684
 20
0.586917
 30
0.0
  0
VERTEX
  5
44
100
AcDbEntity
  8
0
370
     0
390
0
100
AcDbVertex
100
AcDb2dVertex
 10
8.018954
 20
0.58536
 30
0.0
  0
VERTEX
  5
45
100
AcDbEntity
  8
0
370
     0
390
0
100
AcDbVertex
100
AcDb2dVertex
 10
8.018235
 20
0.583734
 30
0.0
  0
VERTEX
  5
46
100
AcDbEntity
  8
0
370
     0
390
0
100
AcDbVertex
100
AcDb2dVertex
 10
8.017528
 20
0.582038
 30
0.0
  0
VERTEX
  5
47
100
AcDbEntity
  8
0
370
     0
390
0
100
AcDbVertex
100
AcDb2dVertex
 10
8.01683
 20
0.580272
 30
0.0
  0
VERTEX
  5
48
100
AcDbEntity
  8
0
370
     0
390
0
100
AcDbVertex
100
AcDb2dVertex
 10
8.016143
 20
0.578438
 30
0.0
  0
VERTEX
  5
49
100
AcDbEntity
  8
0
370
     0
390
0
100
AcDbVertex
100
AcDb2dVertex
 10
8.015467
 20
0.576534
 30
0.0
  0
VERTEX
  5
4A
100
AcDbEntity
  8
0
370
     0
390
0
100
AcDbVertex
100
AcDb2dVertex
 10
8.014802
 20
0.574562
 30
0.0
  0
VERTEX
  5
4B
100
AcDbEntity
  8
0
370
     0
390
0
100
AcDbVertex
100
AcDb2dVertex
 10
8.014147
 20
0.572519
 30
0.0
  0
VERTEX
  5
4C
100
AcDbEntity
  8
0
370
     0
390
0
100
AcDbVertex
100
AcDb2dVertex
 10
8.012525
 20
0.574142
 30
0.0
  0
VERTEX
  5
4D
100
AcDbEntity
  8
0
370
     0
390
0
100
AcDbVertex
100
AcDb2dVertex
 10
8.011871
 20
0.576531
 30
0.0
  0
VERTEX
  5
4E
100
AcDbEntity
  8
0
370
     0
390
0
100
AcDbVertex
100
AcDb2dVertex
 10
8.011163
 20
0.578771
 30
0.0
  0
VERTEX
  5
4F
100
AcDbEntity
  8
0
370
     0
390
0
100
AcDbVertex
100
AcDb2dVertex
 10
8.010404
 20
0.580859
 30
0.0
  0
VERTEX
  5
50
100
AcDbEntity
  8
0
370
     0
390
0
100
AcDbVertex
100
AcDb2dVertex
 10
8.009591
 20
0.582795
 30
0.0
  0
VERTEX
  5
51
100
AcDbEntity
  8
0
370
     0
390
0
100
AcDbVertex
100
AcDb2dVertex
 10
8.008726
 20
0.584579
 30
0.0
  0
VERTEX
  5
52
100
AcDbEntity
  8
0
370
     0
390
0
100
AcDbVertex
100
AcDb2dVertex
 10
8.007806
 20
0.586212
 30
0.0
  0
VERTEX
  5
53
100
AcDbEntity
  8
0
370
     0
390
0
100
AcDbVertex
100
AcDb2dVertex
 10
8.006836
 20
0.587694
 30
0.0
  0
VERTEX
  5
54
100
AcDbEntity
  8
0
370
     0
390
0
100
AcDbVertex
100
AcDb2dVertex
 10
8.00581
 20
0.589025
 30
0.0
  0
VERTEX
  5
55
100
AcDbEntity
  8
0
370
     0
390
0
100
AcDbVertex
100
AcDb2dVertex
 10
8.004733
 20
0.590204
 30
0.0
  0
VERTEX
  5
56
100
AcDbEntity
  8
0
370
     0
390
0
100
AcDbVertex
100
AcDb2dVertex
 10
8.003601
 20
0.591231
 30
0.0
  0
VERTEX
  5
57
100
AcDbEntity
  8
0
370
     0
390
0
100
AcDbVertex
100
AcDb2dVertex
 10
8.002384
 20
0.592136
 30
0.0
  0
VERTEX
  5
58
100
AcDbEntity
  8
0
370
     0
390
0
100
AcDbVertex
100
AcDb2dVertex
 10
8.001043
 20
0.592944
 30
0.0
  0
VERTEX
  5
59
100
AcDbEntity
  8
0
370
     0
390
0
100
AcDbVertex
100
AcDb2dVertex
 10
7.99958
 20
0.593658
 30
0.0
  0
VERTEX
  5
5A
100
AcDbEntity
  8
0
370
     0
390
0
100
AcDbVertex
100
AcDb2dVertex
 10
7.997995
 20
0.594276
 30
0.0
  0
VERTEX
  5
5B
100
AcDbEntity
  8
0
370
     0
390
0
100
AcDbVertex
100
AcDb2dVertex
 10
7.996287
 20
0.5948
 30
0.0
  0
VERTEX
  5
5C
100
AcDbEntity
  8
0
370
     0
390
0
100
AcDbVertex
100
AcDb2dVertex
 10
7.994457
 20
0.595229
 30
0.0
  0
VERTEX
  5
5D
100
AcDbEntity
  8
0
370
     0
390
0
100
AcDbVertex
100
AcDb2dVertex
 10
7.992506
 20
0.595562
 30
0.0
  0
VERTEX
  5
5E
100
AcDbEntity
  8
0
370
     0
390
0
100
AcDbVertex
100
AcDb2dVertex
 10
7.990431
 20
0.595799
 30
0.0
  0
VERTEX
  5
5F
100
AcDbEntity
  8
0
370
     0
390
0
100
AcDbVertex
100
AcDb2dVertex
 10
7.988236
 20
0.595943
 30
0.0
  0
VERTEX
  5
60
100
AcDbEntity
  8
0
370
     0
390
0
100
AcDbVertex
100
AcDb2dVertex
 10
7.985918
 20
0.595991
 30
0.0
  0
VERTEX
  5
61
100
AcDbEntity
  8
0
370
     0
390
0
100
AcDbVertex
100
AcDb2dVertex
 10
7.983971
 20
0.595973
 30
0.0
  0
VERTEX
  5
62
100
AcDbEntity
  8
0
370
     0
390
0
100
AcDbVertex
100
AcDb2dVertex
 10
7.982024
 20
0.59592
 30
0.0
  0
VERTEX
  5
63
100
AcDbEntity
  8
0
370
     0
390
0
100
AcDbVertex
100
AcDb2dVertex
 10
7.980077
 20
0.595835
 30
0.0
  0
VERTEX
  5
64
100
AcDbEntity
  8
0
370
     0
390
0
100
AcDbVertex
100
AcDb2dVertex
 10
7.97813
 20
0.595713
 30
0.0
  0
VERTEX
  5
65
100
AcDbEntity
  8
0
370
     0
390
0
100
AcDbVertex
100
AcDb2dVertex
 10
7.976183
 20
0.595557
 30
0.0
  0
VERTEX
  5
66
100
AcDbEntity
  8
0
370
     0
390
0
100
AcDbVertex
100
AcDb2dVertex
 10
7.974885
 20
0.478313
 30
0.0
  0
VERTEX
  5
67
100
AcDbEntity
  8
0
370
     0
390
0
100
AcDbVertex
100
AcDb2dVertex
 10
7.987647
 20
0.466523
 30
0.0
  0
VERTEX
  5
68
100
AcDbEntity
  8
0
370
     0
390
0
100
AcDbVertex
100
AcDb2dVertex
 10
7.93822
 20
0.466523
 30
0.0
  0
VERTEX
  5
69
100
AcDbEntity
  8
0
370
     0
390
0
100
AcDbVertex
100
AcDb2dVertex
 10
7.953361
 20
0.479178
 30
0.0
  0
VERTEX
  5
6A
100
AcDbEntity
  8
0
370
     0
390
0
100
AcDbVertex
100
AcDb2dVertex
 10
7.953361
 20
0.586796
 30
0.0
  0
VERTEX
  5
6B
100
AcDbEntity
  8
0
370
     0
390
0
100
AcDbVertex
100
AcDb2dVertex
 10
7.945682
 20
0.586905
 30
0.0
  0
VERTEX
  5
6C
100
AcDbEntity
  8
0
370
     0
390
0
100
AcDbVertex
100
AcDb2dVertex
 10
7.943519
 20
0.58686
 30
0.0
  0
VERTEX
  5
6D
100
AcDbEntity
  8
0
370
     0
390
0
100
AcDbVertex
100
AcDb2dVertex
 10
7.941484
 20
0.58673
 30
0.0
  0
VERTEX
  5
6E
100
AcDbEntity
  8
0
370
     0
390
0
100
AcDbVertex
100
AcDb2dVertex
 10
7.939577
 20
0.586511
 30
0.0
  0
VERTEX
  5
6F
100
AcDbEntity
  8
0
370
     0
390
0
100
AcDbVertex
100
AcDb2dVertex
 10
7.937799
 20
0.586203
 30
0.0
  0
VERTEX
  5
70
100
AcDbEntity
  8
0
370
     0
390
0
100
AcDbVertex
100
AcDb2dVertex
 10
7.936151
 20
0.585809
 30
0.0
  0
VERTEX
  5
71
100
AcDbEntity
  8
0
370
     0
390
0
100
AcDbVertex
100
AcDb2dVertex
 10
7.93463
 20
0.585327
 30
0.0
  0
VERTEX
  5
72
100
AcDbEntity
  8
0
370
     0
390
0
100
AcDbVertex
100
AcDb2dVertex
 10
7.93324
 20
0.584759
 30
0.0
  0
VERTEX
  5
73
100
AcDbEntity
  8
0
370
     0
390
0
100
AcDbVertex
100
AcDb2dVertex
 10
7.930843
 20
0.583356
 30
0.0
  0
VERTEX
  5
74
100
AcDbEntity
  8
0
370
     0
390
0
100
AcDbVertex
100
AcDb2dVertex
 10
7.928935
 20
0.581582
 30
0.0
  0
VERTEX
  5
75
100
AcDbEntity
  8
0
370
     0
390
0
100
AcDbVertex
100
AcDb2dVertex
 10
7.92736
 20
0.579297
 30
0.0
  0
VERTEX
  5
76
100
AcDbEntity
  8
0
370
     0
390
0
100
AcDbVertex
100
AcDb2dVertex
 10
7.926092
 20
0.57648
 30
0.0
  0
VERTEX
  5
77
100
AcDbEntity
  8
0
370
     0
390
0
100
AcDbVertex
100
AcDb2dVertex
 10
7.925573
 20
0.574872
 30
0.0
  0
VERTEX
  5
78
100
AcDbEntity
  8
0
370
     0
390
0
100
AcDbVertex
100
AcDb2dVertex
 10
7.92513
 20
0.573132
 30
0.0
  0
VERTEX
  5
79
100
AcDbEntity
  8
0
370
     0
390
0
100
AcDbVertex
100
AcDb2dVertex
 10
7.924766
 20
0.571259
 30
0.0
  0
VERTEX
  5
7A
100
AcDbEntity
  8
0
370
     0
390
0
100
AcDbVertex
100
AcDb2dVertex
 10
7.924478
 20
0.569252
 30
0.0
  0
VERTEX
  5
7B
100
AcDbEntity
  8
0
370
     0
390
0
100
AcDbVertex
100
AcDb2dVertex
 10
7.924266
 20
0.567111
 30
0.0
  0
VERTEX
  5
7C
100
AcDbEntity
  8
0
370
     0
390
0
100
AcDbVertex
100
AcDb2dVertex
 10
7.921454
 20
0.567111
 30
0.0
  0
VERTEX
  5
7D
100
AcDbEntity
  8
0
370
     0
390
0
100
AcDbVertex
100
AcDb2dVertex
 10
7.921734
 20
0.569565
 30
0.0
  0
VERTEX
  5
7E
100
AcDbEntity
  8
0
370
     0
390
0
100
AcDbVertex
100
AcDb2dVertex
 10
7.922096
 20
0.571866
 30
0.0
  0
VERTEX
  5
7F
100
AcDbEntity
  8
0
370
     0
390
0
100
AcDbVertex
100
AcDb2dVertex
 10
7.922543
 20
0.574013
 30
0.0
  0
VERTEX
  5
80
100
AcDbEntity
  8
0
370
     0
390
0
100
AcDbVertex
100
AcDb2dVertex
 10
7.923073
 20
0.576006
 30
0.0
  0
VERTEX
  5
81
100
AcDbEntity
  8
0
370
     0
390
0
100
AcDbVertex
100
AcDb2dVertex
 10
7.923684
 20
0.577847
 30
0.0
  0
VERTEX
  5
82
100
AcDbEntity
  8
0
370
     0
390
0
100
AcDbVertex
100
AcDb2dVertex
 10
7.924381
 20
0.579533
 30
0.0
  0
VERTEX
  5
83
100
AcDbEntity
  8
0
370
     0
390
0
100
AcDbVertex
100
AcDb2dVertex
 10
7.92516
 20
0.581064
 30
0.0
  0
VERTEX
  5
84
100
AcDbEntity
  8
0
370
     0
390
0
100
AcDbVertex
100
AcDb2dVertex
 10
7.926023
 20
0.582444
 30
0.0
  0
VERTEX
  5
85
100
AcDbEntity
  8
0
370
     0
390
0
100
AcDbVertex
100
AcDb2dVertex
 10
7.926968
 20
0.58367
 30
0.0
  0
VERTEX
  5
86
100
AcDbEntity
  8
0
370
     0
390
0
100
AcDbVertex
100
AcDb2dVertex
 10
7.929138
 20
0.585687
 30
0.0
  0
VERTEX
  5
87
100
AcDbEntity
  8
0
370
     0
390
0
100
AcDbVertex
100
AcDb2dVertex
 10
7.930418
 20
0.586532
 30
0.0
  0
VERTEX
  5
88
100
AcDbEntity
  8
0
370
     0
390
0
100
AcDbVertex
100
AcDb2dVertex
 10
7.931839
 20
0.587279
 30
0.0
  0
VERTEX
  5
89
100
AcDbEntity
  8
0
370
     0
390
0
100
AcDbVertex
100
AcDb2dVertex
 10
7.933397
 20
0.587925
 30
0.0
  0
VERTEX
  5
8A
100
AcDbEntity
  8
0
370
     0
390
0
100
AcDbVertex
100
AcDb2dVertex
 10
7.935095
 20
0.588473
 30
0.0
  0
VERTEX
  5
8B
100
AcDbEntity
  8
0
370
     0
390
0
100
AcDbVertex
100
AcDb2dVertex
 10
7.936934
 20
0.588921
 30
0.0
  0
VERTEX
  5
8C
100
AcDbEntity
  8
0
370
     0
390
0
100
AcDbVertex
100
AcDb2dVertex
 10
7.938912
 20
0.589269
 30
0.0
  0
VERTEX
  5
8D
100
AcDbEntity
  8
0
370
     0
390
0
100
AcDbVertex
100
AcDb2dVertex
 10
7.941029
 20
0.589518
 30
0.0
  0
VERTEX
  5
8E
100
AcDbEntity
  8
0
370
     0
390
0
100
AcDbVertex
100
AcDb2dVertex
 10
7.943286
 20
0.589667
 30
0.0
  0
VERTEX
  5
8F
100
AcDbEntity
  8
0
370
     0
390
0
100
AcDbVertex
100
AcDb2dVertex
 10
7.945682
 20
0.589716
 30
0.0
  0
VERTEX
  5
90
100
AcDbEntity
  8
0
370
     0
390
0
100
AcDbVertex
100
AcDb2dVertex
 10
7.952171
 20
0.589608
 30
0.0
  0
VERTEX
  5
91
100
AcDbEntity
  8
0
370
     0
390
0
100
AcDbVertex
100
AcDb2dVertex
 10
7.953361
 20
0.594908
 30
0.0
  0
VERTEX
  5
92
100
AcDbEntity
  8
0
370
     0
390
0
100
AcDbVertex
100
AcDb2dVertex
 10
7.951177
 20
0.595142
 30
0.0
  0
VERTEX
  5
93
100
AcDbEntity
  8
0
370
     0
390
0
100
AcDbVertex
100
AcDb2dVertex
 10
7.949034
 20
0.595323
 30
0.0
  0
VERTEX
  5
94
100
AcDbEntity
  8
0
370
     0
390
0
100
AcDbVertex
100
AcDb2dVertex
 10
7.946936
 20
0.595454
 30
0.0
  0
VERTEX
  5
95
100
AcDbEntity
  8
0
370
     0
390
0
100
AcDbVertex
100
AcDb2dVertex
 10
7.944881
 20
0.595532
 30
0.0
  0
VERTEX
  5
96
100
AcDbEntity
  8
0
370
     0
390
0
100
AcDbVertex
100
AcDb2dVertex
 10
7.94287
 20
0.595557
 30
0.0
  0
VERTEX
  5
97
100
AcDbEntity
  8
0
370
     0
390
0
100
AcDbVertex
100
AcDb2dVertex
 10
7.940158
 20
0.5955
 30
0.0
  0
VERTEX
  5
98
100
AcDbEntity
  8
0
370
     0
390
0
100
AcDbVertex
100
AcDb2dVertex
 10
7.9376
 20
0.595331
 30
0.0
  0
VERTEX
  5
99
100
AcDbEntity
  8
0
370
     0
390
0
100
AcDbVertex
100
AcDb2dVertex
 10
7.9352
 20
0.595046
 30
0.0
  0
VERTEX
  5
9A
100
AcDbEntity
  8
0
370
     0
390
0
100
AcDbVertex
100
AcDb2dVertex
 10
7.932953
 20
0.594648
 30
0.0
  0
VERTEX
  5
9B
100
AcDbEntity
  8
0
370
     0
390
0
100
AcDbVertex
100
AcDb2dVertex
 10
7.930864
 20
0.594138
 30
0.0
  0
VERTEX
  5
9C
100
AcDbEntity
  8
0
370
     0
390
0
100
AcDbVertex
100
AcDb2dVertex
 10
7.92893
 20
0.593513
 30
0.0
  0
VERTEX
  5
9D
100
AcDbEntity
  8
0
370
     0
390
0
100
AcDbVertex
100
AcDb2dVertex
 10
7.927152
 20
0.592775
 30
0.0
  0
VERTEX
  5
9E
100
AcDbEntity
  8
0
370
     0
390
0
100
AcDbVertex
100
AcDb2dVertex
 10
7.92553
 20
0.591923
 30
0.0
  0
VERTEX
  5
9F
100
AcDbEntity
  8
0
370
     0
390
0
100
AcDbVertex
100
AcDb2dVertex
 10
7.924063
 20
0.590958
 30
0.0
  0
VERTEX
  5
A0
100
AcDbEntity
  8
0
370
     0
390
0
100
AcDbVertex
100
AcDb2dVertex
 10
7.922751
 20
0.58988
 30
0.0
  0
VERTEX
  5
A1
100
AcDbEntity
  8
0
370
     0
390
0
100
AcDbVertex
100
AcDb2dVertex
 10
7.921574
 20
0.588665
 30
0.0
  0
VERTEX
  5
A2
100
AcDbEntity
  8
0
370
     0
390
0
100
AcDbVertex
100
AcDb2dVertex
 10
7.920506
 20
0.587294
 30
0.0
  0
VERTEX
  5
A3
100
AcDbEntity
  8
0
370
     0
390
0
100
AcDbVertex
100
AcDb2dVertex
 10
7.919549
 20
0.585767
 30
0.0
  0
VERTEX
  5
A4
100
AcDbEntity
  8
0
370
     0
390
0
100
AcDbVertex
100
AcDb2dVertex
 10
7.918703
 20
0.584081
 30
0.0
  0
VERTEX
  5
A5
100
AcDbEntity
  8
0
370
     0
390
0
100
AcDbVertex
100
AcDb2dVertex
 10
7.917966
 20
0.58224
 30
0.0
  0
VERTEX
  5
A6
100
AcDbEntity
  8
0
370
     0
390
0
100
AcDbVertex
100
AcDb2dVertex
 10
7.917339
 20
0.580242
 30
0.0
  0
VERTEX
  5
A7
100
AcDbEntity
  8
0
370
     0
390
0
100
AcDbVertex
100
AcDb2dVertex
 10
7.916824
 20
0.578087
 30
0.0
  0
VERTEX
  5
A8
100
AcDbEntity
  8
0
370
     0
390
0
100
AcDbVertex
100
AcDb2dVertex
 10
7.916418
 20
0.575775
 30
0.0
  0
VERTEX
  5
A9
100
AcDbEntity
  8
0
370
     0
390
0
100
AcDbVertex
100
AcDb2dVertex
 10
7.916123
 20
0.573306
 30
0.0
  0
VERTEX
  5
AA
100
AcDbEntity
  8
0
370
     0
390
0
100
AcDbVertex
100
AcDb2dVertex
 10
7.915938
 20
0.570681
 30
0.0
  0
VERTEX
  5
AB
100
AcDbEntity
  8
0
370
     0
390
0
100
AcDbVertex
100
AcDb2dVertex
 10
7.913659
 20
0.573722
 30
0.0
  0
VERTEX
  5
AC
100
AcDbEntity
  8
0
370
     0
390
0
100
AcDbVertex
100
AcDb2dVertex
 10
7.912577
 20
0.576833
 30
0.0
  0
VERTEX
  5
AD
100
AcDbEntity
  8
0
370
     0
390
0
100
AcDbVertex
100
AcDb2dVertex
 10
7.911392
 20
0.580013
 30
0.0
  0
VERTEX
  5
AE
100
AcDbEntity
  8
0
370
     0
390
0
100
AcDbVertex
100
AcDb2dVertex
 10
7.910106
 20
0.583262
 30
0.0
  0
VERTEX
  5
AF
100
AcDbEntity
  8
0
370
     0
390
0
100
AcDbVertex
100
AcDb2dVertex
 10
7.908719
 20
0.58658
 30
0.0
  0
VERTEX
  5
B0
100
AcDbEntity
  8
0
370
     0
390
0
100
AcDbVertex
100
AcDb2dVertex
 10
7.907229
 20
0.589967
 30
0.0
  0
VERTEX
  5
B1
100
AcDbEntity
  8
0
370
     0
390
0
100
AcDbVertex
100
AcDb2dVertex
 10
7.905638
 20
0.593424
 30
0.0
  0
VERTEX
  5
B2
100
AcDbEntity
  8
0
370
     0
390
0
100
AcDbVertex
100
AcDb2dVertex
 10
7.903945
 20
0.596951
 30
0.0
  0
VERTEX
  5
B3
100
AcDbEntity
  8
0
370
     0
390
0
100
AcDbVertex
100
AcDb2dVertex
 10
7.902151
 20
0.600546
 30
0.0
  0
VERTEX
  5
B4
100
AcDbEntity
  8
0
370
     0
390
0
100
AcDbVertex
100
AcDb2dVertex
 10
7.900255
 20
0.604209
 30
0.0
  0
SEQEND
  5
B5
100
AcDbEntity
  8
0
370
     0
390
0
  0
POLYLINE
  5
B6
100
AcDbEntity
  8
0
370
    13
390
0
 62
     7
 48
0.03937
100
AcDb2dPolyline
 66
     1
 10
0.0
 20
0.0
 30
0.0
 70
     1
 71
    22
  0
VERTEX
  5
B7
100
AcDbEntity
  8
0
370
     0
390
0
100
AcDbVertex
100
AcDb2dVertex
 10
8.036644
 20
0.598478
 30
0.0
  0
VERTEX
  5
B8
100
AcDbEntity
  8
0
370
     0
390
0
100
AcDbVertex
100
AcDb2dVertex
 10
8.035144
 20
0.596448
 30
0.0
  0
VERTEX
  5
B9
100
AcDbEntity
  8
0
370
     0
390
0
100
AcDbVertex
100
AcDb2dVertex
 10
8.033629
 20
0.594168
 30
0.0
  0
VERTEX
  5
BA
100
AcDbEntity
  8
0
370
     0
390
0
100
AcDbVertex
100
AcDb2dVertex
 10
8.032099
 20
0.591638
 30
0.0
  0
VERTEX
  5
BB
100
AcDbEntity
  8
0
370
     0
390
0
100
AcDbVertex
100
AcDb2dVertex
 10
8.030552
 20
0.588855
 30
0.0
  0
VERTEX
  5
BC
100
AcDbEntity
  8
0
370
     0
390
0
100
AcDbVertex
100
AcDb2dVertex
 10
8.028992
 20
0.585822
 30
0.0
  0
VERTEX
  5
BD
100
AcDbEntity
  8
0
370
     0
390
0
100
AcDbVertex
100
AcDb2dVertex
 10
8.027416
 20
0.582539
 30
0.0
  0
VERTEX
  5
BE
100
AcDbEntity
  8
0
370
     0
390
0
100
AcDbVertex
100
AcDb2dVertex
 10
8.025824
 20
0.579005
 30
0.0
  0
VERTEX
  5
BF
100
AcDbEntity
  8
0
370
     0
390
0
100
AcDbVertex
100
AcDb2dVertex
 10
8.024219
 20
0.575219
 30
0.0
  0
VERTEX
  5
C0
100
AcDbEntity
  8
0
370
     0
390
0
100
AcDbVertex
100
AcDb2dVertex
 10
8.022597
 20
0.571182
 30
0.0
  0
VERTEX
  5
C1
100
AcDbEntity
  8
0
370
     0
390
0
100
AcDbVertex
100
AcDb2dVertex
 10
8.020961
 20
0.566895
 30
0.0
  0
VERTEX
  5
C2
100
AcDbEntity
  8
0
370
     0
390
0
100
AcDbVertex
100
AcDb2dVertex
 10
8.018149
 20
0.567869
 30
0.0
  0
VERTEX
  5
C3
100
AcDbEntity
  8
0
370
     0
390
0
100
AcDbVertex
100
AcDb2dVertex
 10
8.020069
 20
0.573183
 30
0.0
  0
VERTEX
  5
C4
100
AcDbEntity
  8
0
370
     0
390
0
100
AcDbVertex
100
AcDb2dVertex
 10
8.021652
 20
0.577253
 30
0.0
  0
VERTEX
  5
C5
100
AcDbEntity
  8
0
370
     0
390
0
100
AcDbVertex
100
AcDb2dVertex
 10
8.023227
 20
0.581049
 30
0.0
  0
VERTEX
  5
C6
100
AcDbEntity
  8
0
370
     0
390
0
100
AcDbVertex
100
AcDb2dVertex
 10
8.024791
 20
0.584573
 30
0.0
  0
VERTEX
  5
C7
100
AcDbEntity
  8
0
370
     0
390
0
100
AcDbVertex
100
AcDb2dVertex
 10
8.026342
 20
0.587825
 30
0.0
  0
VERTEX
  5
C8
100
AcDbEntity
  8
0
370
     0
390
0
100
AcDbVertex
100
AcDb2dVertex
 10
8.027884
 20
0.590802
 30
0.0
  0
VERTEX
  5
C9
100
AcDbEntity
  8
0
370
     0
390
0
100
AcDbVertex
100
AcDb2dVertex
 10
8.029413
 20
0.593508
 30
0.0
  0
VERTEX
  5
CA
100
AcDbEntity
  8
0
370
     0
390
0
100
AcDbVertex
100
AcDb2dVertex
 10
8.030933
 20
0.595943
 30
0.0
  0
VERTEX
  5
CB
100
AcDbEntity
  8
0
370
     0
390
0
100
AcDbVertex
100
AcDb2dVertex
 10
8.032442
 20
0.598104
 30
0.0
  0
VERTEX
  5
CC
100
AcDbEntity
  8
0
370
     0
390
0
100
AcDbVertex
100
AcDb2dVertex
 10
8.03394
 20
0.599991
 30
0.0
  0
SEQEND
  5
CD
100
AcDbEntity
  8
0
370
     0
390
0
  0
POLYLINE
  5
CE
100
AcDbEntity
  8
0
370
    13
390
0
 62
     7
 48
0.03937
100
AcDb2dPolyline
 66
     1
 10
0.0
 20
0.0
 30
0.0
 70
     1
 71
    34
  0
VERTEX
  5
CF
100
AcDbEntity
  8
0
370
     0
390
0
100
AcDbVertex
100
AcDb2dVertex
 10
8.007766
 20
0.581604
 30
0.0
  0
VERTEX
  5
D0
100
AcDbEntity
  8
0
370
     0
390
0
100
AcDbVertex
100
AcDb2dVertex
 10
8.006072
 20
0.582632
 30
0.0
  0
VERTEX
  5
D1
100
AcDbEntity
  8
0
370
     0
390
0
100
AcDbVertex
100
AcDb2dVertex
 10
8.004322
 20
0.583551
 30
0.0
  0
VERTEX
  5
D2
100
AcDbEntity
  8
0
370
     0
390
0
100
AcDbVertex
100
AcDb2dVertex
 10
8.002516
 20
0.584363
 30
0.0
  0
VERTEX
  5
D3
100
AcDbEntity
  8
0
370
     0
390
0
100
AcDbVertex
100
AcDb2dVertex
 10
8.000652
 20
0.585066
 30
0.0
  0
VERTEX
  5
D4
100
AcDbEntity
  8
0
370
     0
390
0
100
AcDbVertex
100
AcDb2dVertex
 10
7.998734
 20
0.58566
 30
0.0
  0
VERTEX
  5
D5
100
AcDbEntity
  8
0
370
     0
390
0
100
AcDbVertex
100
AcDb2dVertex
 10
7.996758
 20
0.586148
 30
0.0
  0
VERTEX
  5
D6
100
AcDbEntity
  8
0
370
     0
390
0
100
AcDbVertex
100
AcDb2dVertex
 10
7.994728
 20
0.586526
 30
0.0
  0
VERTEX
  5
D7
100
AcDbEntity
  8
0
370
     0
390
0
100
AcDbVertex
100
AcDb2dVertex
 10
7.992641
 20
0.586796
 30
0.0
  0
VERTEX
  5
D8
100
AcDbEntity
  8
0
370
     0
390
0
100
AcDbVertex
100
AcDb2dVertex
 10
7.990496
 20
0.586959
 30
0.0
  0
VERTEX
  5
D9
100
AcDbEntity
  8
0
370
     0
390
0
100
AcDbVertex
100
AcDb2dVertex
 10
7.988297
 20
0.587013
 30
0.0
  0
VERTEX
  5
DA
100
AcDbEntity
  8
0
370
     0
390
0
100
AcDbVertex
100
AcDb2dVertex
 10
7.986785
 20
0.586983
 30
0.0
  0
VERTEX
  5
DB
100
AcDbEntity
  8
0
370
     0
390
0
100
AcDbVertex
100
AcDb2dVertex
 10
7.985234
 20
0.586896
 30
0.0
  0
VERTEX
  5
DC
100
AcDbEntity
  8
0
370
     0
390
0
100
AcDbVertex
100
AcDb2dVertex
 10
7.983644
 20
0.586751
 30
0.0
  0
VERTEX
  5
DD
100
AcDbEntity
  8
0
370
     0
390
0
100
AcDbVertex
100
AcDb2dVertex
 10
7.983538
 20
0.477987
 30
0.0
  0
VERTEX
  5
DE
100
AcDbEntity
  8
0
370
     0
390
0
100
AcDbVertex
100
AcDb2dVertex
 10
8.000735
 20
0.457653
 30
0.0
  0
VERTEX
  5
DF
100
AcDbEntity
  8
0
370
     0
390
0
100
AcDbVertex
100
AcDb2dVertex
 10
7.945466
 20
0.457653
 30
0.0
  0
VERTEX
  5
E0
100
AcDbEntity
  8
0
370
     0
390
0
100
AcDbVertex
100
AcDb2dVertex
 10
7.942978
 20
0.460574
 30
0.0
  0
VERTEX
  5
E1
100
AcDbEntity
  8
0
370
     0
390
0
100
AcDbVertex
100
AcDb2dVertex
 10
7.994786
 20
0.460574
 30
0.0
  0
VERTEX
  5
E2
100
AcDbEntity
  8
0
370
     0
390
0
100
AcDbVertex
100
AcDb2dVertex
 10
7.980293
 20
0.477123
 30
0.0
  0
VERTEX
  5
E3
100
AcDbEntity
  8
0
370
     0
390
0
100
AcDbVertex
100
AcDb2dVertex
 10
7.980293
 20
0.589826
 30
0.0
  0
VERTEX
  5
E4
100
AcDbEntity
  8
0
370
     0
390
0
100
AcDbVertex
100
AcDb2dVertex
 10
7.986134
 20
0.589934
 30
0.0
  0
VERTEX
  5
E5
100
AcDbEntity
  8
0
370
     0
390
0
100
AcDbVertex
100
AcDb2dVertex
 10
7.988171
 20
0.589916
 30
0.0
  0
VERTEX
  5
E6
100
AcDbEntity
  8
0
370
     0
390
0
100
AcDbVertex
100
AcDb2dVertex
 10
7.990086
 20
0.589866
 30
0.0
  0
VERTEX
  5
E7
100
AcDbEntity
  8
0
370
     0
390
0
100
AcDbVertex
100
AcDb2dVertex
 10
7.991879
 20
0.589782
 30
0.0
  0
VERTEX
  5
E8
100
AcDbEntity
  8
0
370
     0
390
0
100
AcDbVertex
100
AcDb2dVertex
 10
7.993549
 20
0.589665
 30
0.0
  0
VERTEX
  5
E9
100
AcDbEntity
  8
0
370
     0
390
0
100
AcDbVertex
100
AcDb2dVertex
 10
7.995098
 20
0.589514
 30
0.0
  0
VERTEX
  5
EA
100
AcDbEntity
  8
0
370
     0
390
0
100
AcDbVertex
100
AcDb2dVertex
 10
7.997828
 20
0.589112
 30
0.0
  0
VERTEX
  5
EB
100
AcDbEntity
  8
0
370
     0
390
0
100
AcDbVertex
100
AcDb2dVertex
 10
8.000069
 20
0.588575
 30
0.0
  0
VERTEX
  5
EC
100
AcDbEntity
  8
0
370
     0
390
0
100
AcDbVertex
100
AcDb2dVertex
 10
8.001862
 20
0.587888
 30
0.0
  0
VERTEX
  5
ED
100
AcDbEntity
  8
0
370
     0
390
0
100
AcDbVertex
100
AcDb2dVertex
 10
8.003455
 20
0.586953
 30
0.0
  0
VERTEX
  5
EE
100
AcDbEntity
  8
0
370
     0
390
0
100
AcDbVertex
100
AcDb2dVertex
 10
8.004886
 20
0.585755
 30
0.0
  0
VERTEX
  5
EF
100
AcDbEntity
  8
0
370
     0
390
0
100
AcDbVertex
100
AcDb2dVertex
 10
8.006157
 20
0.584294
 30
0.0
  0
VERTEX
  5
F0
100
AcDbEntity
  8
0
370
     0
390
0
100
AcDbVertex
100
AcDb2dVertex
 10
8.007269
 20
0.582567
 30
0.0
  0
SEQEND
  5
F1
100
AcDbEntity
  8
0
370
     0
390
0
  0
POLYLINE
  5
F2
100
AcDbEntity
  8
0
370
    13
390
0
 62
     7
 48
0.03937
100
AcDb2dPolyline
 66
     1
 10
0.0
 20
0.0
 30
0.0
 70
     1
 71
   138
  0
VERTEX
  5
F3
100
AcDbEntity
  8
0
370
     0
390
0
100
AcDbVertex
100
AcDb2dVertex
 10
8.03978
 20
0.605292
 30
0.0
  0
VERTEX
  5
F4
100
AcDbEntity
  8
0
370
     0
390
0
100
AcDbVertex
100
AcDb2dVertex
 10
8.152051
 20
0.605292
 30
0.0
  0
VERTEX
  5
F5
100
AcDbEntity
  8
0
370
     0
390
0
100
AcDbVertex
100
AcDb2dVertex
 10
8.150747
 20
0.603555
 30
0.0
  0
VERTEX
  5
F6
100
AcDbEntity
  8
0
370
     0
390
0
100
AcDbVertex
100
AcDb2dVertex
 10
8.149522
 20
0.601895
 30
0.0
  0
VERTEX
  5
F7
100
AcDbEntity
  8
0
370
     0
390
0
100
AcDbVertex
100
AcDb2dVertex
 10
8.148372
 20
0.600311
 30
0.0
  0
VERTEX
  5
F8
100
AcDbEntity
  8
0
370
     0
390
0
100
AcDbVertex
100
AcDb2dVertex
 10
8.1473
 20
0.598802
 30
0.0
  0
VERTEX
  5
F9
100
AcDbEntity
  8
0
370
     0
390
0
100
AcDbVertex
100
AcDb2dVertex
 10
8.146304
 20
0.597369
 30
0.0
  0
VERTEX
  5
FA
100
AcDbEntity
  8
0
370
     0
390
0
100
AcDbVertex
100
AcDb2dVertex
 10
8.145386
 20
0.596012
 30
0.0
  0
VERTEX
  5
FB
100
AcDbEntity
  8
0
370
     0
390
0
100
AcDbVertex
100
AcDb2dVertex
 10
8.144543
 20
0.594729
 30
0.0
  0
VERTEX
  5
FC
100
AcDbEntity
  8
0
370
     0
390
0
100
AcDbVertex
100
AcDb2dVertex
 10
8.143089
 20
0.592394
 30
0.0
  0
VERTEX
  5
FD
100
AcDbEntity
  8
0
370
     0
390
0
100
AcDbVertex
100
AcDb2dVertex
 10
8.14189
 20
0.590261
 30
0.0
  0
VERTEX
  5
FE
100
AcDbEntity
  8
0
370
     0
390
0
100
AcDbVertex
100
AcDb2dVertex
 10
8.140617
 20
0.587735
 30
0.0
  0
VERTEX
  5
FF
100
AcDbEntity
  8
0
370
     0
390
0
100
AcDbVertex
100
AcDb2dVertex
 10
8.139935
 20
0.586286
 30
0.0
  0
VERTEX
  5
100
100
AcDbEntity
  8
0
370
     0
390
0
100
AcDbVertex
100
AcDb2dVertex
 10
8.13922
 20
0.584714
 30
0.0
  0
VERTEX
  5
101
100
AcDbEntity
  8
0
370
     0
390
0
100
AcDbVertex
100
AcDb2dVertex
 10
8.138474
 20
0.583019
 30
0.0
  0
VERTEX
  5
102
100
AcDbEntity
  8
0
370
     0
390
0
100
AcDbVertex
100
AcDb2dVertex
 10
8.137697
 20
0.581201
 30
0.0
  0
VERTEX
  5
103
100
AcDbEntity
  8
0
370
     0
390
0
100
AcDbVertex
100
AcDb2dVertex
 10
8.136889
 20
0.57926
 30
0.0
  0
VERTEX
  5
104
100
AcDbEntity
  8
0
370
     0
390
0
100
AcDbVertex
100
AcDb2dVertex
 10
8.136049
 20
0.577196
 30
0.0
  0
VERTEX
  5
105
100
AcDbEntity
  8
0
370
     0
390
0
100
AcDbVertex
100
AcDb2dVertex
 10
8.135177
 20
0.575007
 30
0.0
  0
VERTEX
  5
106
100
AcDbEntity
  8
0
370
     0
390
0
100
AcDbVertex
100
AcDb2dVertex
 10
8.134311
 20
0.572844
 30
0.0
  0
VERTEX
  5
107
100
AcDbEntity
  8
0
370
     0
390
0
100
AcDbVertex
100
AcDb2dVertex
 10
8.132887
 20
0.575682
 30
0.0
  0
VERTEX
  5
108
100
AcDbEntity
  8
0
370
     0
390
0
100
AcDbVertex
100
AcDb2dVertex
 10
8.131463
 20
0.578313
 30
0.0
  0
VERTEX
  5
109
100
AcDbEntity
  8
0
370
     0
390
0
100
AcDbVertex
100
AcDb2dVertex
 10
8.130044
 20
0.580736
 30
0.0
  0
VERTEX
  5
10A
100
AcDbEntity
  8
0
370
     0
390
0
100
AcDbVertex
100
AcDb2dVertex
 10
8.128628
 20
0.582951
 30
0.0
  0
VERTEX
  5
10B
100
AcDbEntity
  8
0
370
     0
390
0
100
AcDbVertex
100
AcDb2dVertex
 10
8.127215
 20
0.584958
 30
0.0
  0
VERTEX
  5
10C
100
AcDbEntity
  8
0
370
     0
390
0
100
AcDbVertex
100
AcDb2dVertex
 10
8.125804
 20
0.586758
 30
0.0
  0
VERTEX
  5
10D
100
AcDbEntity
  8
0
370
     0
390
0
100
AcDbVertex
100
AcDb2dVertex
 10
8.124398
 20
0.58835
 30
0.0
  0
VERTEX
  5
10E
100
AcDbEntity
  8
0
370
     0
390
0
100
AcDbVertex
100
AcDb2dVertex
 10
8.122994
 20
0.589734
 30
0.0
  0
VERTEX
  5
10F
100
AcDbEntity
  8
0
370
     0
390
0
100
AcDbVertex
100
AcDb2dVertex
 10
8.121594
 20
0.59091
 30
0.0
  0
VERTEX
  5
110
100
AcDbEntity
  8
0
370
     0
390
0
100
AcDbVertex
100
AcDb2dVertex
 10
8.120198
 20
0.591881
 30
0.0
  0
VERTEX
  5
111
100
AcDbEntity
  8
0
370
     0
390
0
100
AcDbVertex
100
AcDb2dVertex
 10
8.118707
 20
0.592701
 30
0.0
  0
VERTEX
  5
112
100
AcDbEntity
  8
0
370
     0
390
0
100
AcDbVertex
100
AcDb2dVertex
 10
8.117024
 20
0.593438
 30
0.0
  0
VERTEX
  5
113
100
AcDbEntity
  8
0
370
     0
390
0
100
AcDbVertex
100
AcDb2dVertex
 10
8.11515
 20
0.594086
 30
0.0
  0
VERTEX
  5
114
100
AcDbEntity
  8
0
370
     0
390
0
100
AcDbVertex
100
AcDb2dVertex
 10
8.113085
 20
0.594648
 30
0.0
  0
VERTEX
  5
115
100
AcDbEntity
  8
0
370
     0
390
0
100
AcDbVertex
100
AcDb2dVertex
 10
8.110827
 20
0.595125
 30
0.0
  0
VERTEX
  5
116
100
AcDbEntity
  8
0
370
     0
390
0
100
AcDbVertex
100
AcDb2dVertex
 10
8.108379
 20
0.595514
 30
0.0
  0
VERTEX
  5
117
100
AcDbEntity
  8
0
370
     0
390
0
100
AcDbVertex
100
AcDb2dVertex
 10
8.10574
 20
0.595817
 30
0.0
  0
VERTEX
  5
118
100
AcDbEntity
  8
0
370
     0
390
0
100
AcDbVertex
100
AcDb2dVertex
 10
8.102909
 20
0.596033
 30
0.0
  0
VERTEX
  5
119
100
AcDbEntity
  8
0
370
     0
390
0
100
AcDbVertex
100
AcDb2dVertex
 10
8.099887
 20
0.596163
 30
0.0
  0
VERTEX
  5
11A
100
AcDbEntity
  8
0
370
     0
390
0
100
AcDbVertex
100
AcDb2dVertex
 10
8.096672
 20
0.596207
 30
0.0
  0
VERTEX
  5
11B
100
AcDbEntity
  8
0
370
     0
390
0
100
AcDbVertex
100
AcDb2dVertex
 10
8.090507
 20
0.596099
 30
0.0
  0
VERTEX
  5
11C
100
AcDbEntity
  8
0
370
     0
390
0
100
AcDbVertex
100
AcDb2dVertex
 10
8.080016
 20
0.596207
 30
0.0
  0
VERTEX
  5
11D
100
AcDbEntity
  8
0
370
     0
390
0
100
AcDbVertex
100
AcDb2dVertex
 10
8.076014
 20
0.596315
 30
0.0
  0
VERTEX
  5
11E
100
AcDbEntity
  8
0
370
     0
390
0
100
AcDbVertex
100
AcDb2dVertex
 10
8.076014
 20
0.545696
 30
0.0
  0
VERTEX
  5
11F
100
AcDbEntity
  8
0
370
     0
390
0
100
AcDbVertex
100
AcDb2dVertex
 10
8.082612
 20
0.545696
 30
0.0
  0
VERTEX
  5
120
100
AcDbEntity
  8
0
370
     0
390
0
100
AcDbVertex
100
AcDb2dVertex
 10
8.082612
 20
0.590366
 30
0.0
  0
VERTEX
  5
121
100
AcDbEntity
  8
0
370
     0
390
0
100
AcDbVertex
100
AcDb2dVertex
 10
8.085749
 20
0.590474
 30
0.0
  0
VERTEX
  5
122
100
AcDbEntity
  8
0
370
     0
390
0
100
AcDbVertex
100
AcDb2dVertex
 10
8.088465
 20
0.590591
 30
0.0
  0
VERTEX
  5
123
100
AcDbEntity
  8
0
370
     0
390
0
100
AcDbVertex
100
AcDb2dVertex
 10
8.091251
 20
0.590682
 30
0.0
  0
VERTEX
  5
124
100
AcDbEntity
  8
0
370
     0
390
0
100
AcDbVertex
100
AcDb2dVertex
 10
8.094107
 20
0.590747
 30
0.0
  0
VERTEX
  5
125
100
AcDbEntity
  8
0
370
     0
390
0
100
AcDbVertex
100
AcDb2dVertex
 10
8.097032
 20
0.590786
 30
0.0
  0
VERTEX
  5
126
100
AcDbEntity
  8
0
370
     0
390
0
100
AcDbVertex
100
AcDb2dVertex
 10
8.100026
 20
0.590798
 30
0.0
  0
VERTEX
  5
127
100
AcDbEntity
  8
0
370
     0
390
0
100
AcDbVertex
100
AcDb2dVertex
 10
8.104273
 20
0.590684
 30
0.0
  0
VERTEX
  5
128
100
AcDbEntity
  8
0
370
     0
390
0
100
AcDbVertex
100
AcDb2dVertex
 10
8.108189
 20
0.59034
 30
0.0
  0
VERTEX
  5
129
100
AcDbEntity
  8
0
370
     0
390
0
100
AcDbVertex
100
AcDb2dVertex
 10
8.111775
 20
0.589767
 30
0.0
  0
VERTEX
  5
12A
100
AcDbEntity
  8
0
370
     0
390
0
100
AcDbVertex
100
AcDb2dVertex
 10
8.115029
 20
0.588965
 30
0.0
  0
VERTEX
  5
12B
100
AcDbEntity
  8
0
370
     0
390
0
100
AcDbVertex
100
AcDb2dVertex
 10
8.117954
 20
0.587933
 30
0.0
  0
VERTEX
  5
12C
100
AcDbEntity
  8
0
370
     0
390
0
100
AcDbVertex
100
AcDb2dVertex
 10
8.120546
 20
0.586671
 30
0.0
  0
VERTEX
  5
12D
100
AcDbEntity
  8
0
370
     0
390
0
100
AcDbVertex
100
AcDb2dVertex
 10
8.122807
 20
0.58518
 30
0.0
  0
VERTEX
  5
12E
100
AcDbEntity
  8
0
370
     0
390
0
100
AcDbVertex
100
AcDb2dVertex
 10
8.124737
 20
0.583461
 30
0.0
  0
VERTEX
  5
12F
100
AcDbEntity
  8
0
370
     0
390
0
100
AcDbVertex
100
AcDb2dVertex
 10
8.126338
 20
0.581511
 30
0.0
  0
VERTEX
  5
130
100
AcDbEntity
  8
0
370
     0
390
0
100
AcDbVertex
100
AcDb2dVertex
 10
8.127607
 20
0.579333
 30
0.0
  0
VERTEX
  5
131
100
AcDbEntity
  8
0
370
     0
390
0
100
AcDbVertex
100
AcDb2dVertex
 10
8.125449
 20
0.581235
 30
0.0
  0
VERTEX
  5
132
100
AcDbEntity
  8
0
370
     0
390
0
100
AcDbVertex
100
AcDb2dVertex
 10
8.123219
 20
0.582873
 30
0.0
  0
VERTEX
  5
133
100
AcDbEntity
  8
0
370
     0
390
0
100
AcDbVertex
100
AcDb2dVertex
 10
8.120915
 20
0.584246
 30
0.0
  0
VERTEX
  5
134
100
AcDbEntity
  8
0
370
     0
390
0
100
AcDbVertex
100
AcDb2dVertex
 10
8.118538
 20
0.585356
 30
0.0
  0
VERTEX
  5
135
100
AcDbEntity
  8
0
370
     0
390
0
100
AcDbVertex
100
AcDb2dVertex
 10
8.116087
 20
0.586202
 30
0.0
  0
VERTEX
  5
136
100
AcDbEntity
  8
0
370
     0
390
0
100
AcDbVertex
100
AcDb2dVertex
 10
8.113329
 20
0.586844
 30
0.0
  0
VERTEX
  5
137
100
AcDbEntity
  8
0
370
     0
390
0
100
AcDbVertex
100
AcDb2dVertex
 10
8.111747
 20
0.587112
 30
0.0
  0
VERTEX
  5
138
100
AcDbEntity
  8
0
370
     0
390
0
100
AcDbVertex
100
AcDb2dVertex
 10
8.110031
 20
0.587343
 30
0.0
  0
VERTEX
  5
139
100
AcDbEntity
  8
0
370
     0
390
0
100
AcDbVertex
100
AcDb2dVertex
 10
8.108179
 20
0.58754
 30
0.0
  0
VERTEX
  5
13A
100
AcDbEntity
  8
0
370
     0
390
0
100
AcDbVertex
100
AcDb2dVertex
 10
8.106191
 20
0.5877
 30
0.0
  0
VERTEX
  5
13B
100
AcDbEntity
  8
0
370
     0
390
0
100
AcDbVertex
100
AcDb2dVertex
 10
8.104068
 20
0.587826
 30
0.0
  0
VERTEX
  5
13C
100
AcDbEntity
  8
0
370
     0
390
0
100
AcDbVertex
100
AcDb2dVertex
 10
8.101811
 20
0.587915
 30
0.0
  0
VERTEX
  5
13D
100
AcDbEntity
  8
0
370
     0
390
0
100
AcDbVertex
100
AcDb2dVertex
 10
8.099417
 20
0.587969
 30
0.0
  0
VERTEX
  5
13E
100
AcDbEntity
  8
0
370
     0
390
0
100
AcDbVertex
100
AcDb2dVertex
 10
8.09689
 20
0.587987
 30
0.0
  0
VERTEX
  5
13F
100
AcDbEntity
  8
0
370
     0
390
0
100
AcDbVertex
100
AcDb2dVertex
 10
8.094938
 20
0.587964
 30
0.0
  0
VERTEX
  5
140
100
AcDbEntity
  8
0
370
     0
390
0
100
AcDbVertex
100
AcDb2dVertex
 10
8.092805
 20
0.5879
 30
0.0
  0
VERTEX
  5
141
100
AcDbEntity
  8
0
370
     0
390
0
100
AcDbVertex
100
AcDb2dVertex
 10
8.090491
 20
0.587792
 30
0.0
  0
VERTEX
  5
142
100
AcDbEntity
  8
0
370
     0
390
0
100
AcDbVertex
100
AcDb2dVertex
 10
8.087994
 20
0.58764
 30
0.0
  0
VERTEX
  5
143
100
AcDbEntity
  8
0
370
     0
390
0
100
AcDbVertex
100
AcDb2dVertex
 10
8.085316
 20
0.587445
 30
0.0
  0
VERTEX
  5
144
100
AcDbEntity
  8
0
370
     0
390
0
100
AcDbVertex
100
AcDb2dVertex
 10
8.085316
 20
0.545696
 30
0.0
  0
VERTEX
  5
145
100
AcDbEntity
  8
0
370
     0
390
0
100
AcDbVertex
100
AcDb2dVertex
 10
8.101647
 20
0.545696
 30
0.0
  0
VERTEX
  5
146
100
AcDbEntity
  8
0
370
     0
390
0
100
AcDbVertex
100
AcDb2dVertex
 10
8.118953
 20
0.563975
 30
0.0
  0
VERTEX
  5
147
100
AcDbEntity
  8
0
370
     0
390
0
100
AcDbVertex
100
AcDb2dVertex
 10
8.118953
 20
0.518655
 30
0.0
  0
VERTEX
  5
148
100
AcDbEntity
  8
0
370
     0
390
0
100
AcDbVertex
100
AcDb2dVertex
 10
8.100782
 20
0.53661
 30
0.0
  0
VERTEX
  5
149
100
AcDbEntity
  8
0
370
     0
390
0
100
AcDbVertex
100
AcDb2dVertex
 10
8.076014
 20
0.53661
 30
0.0
  0
VERTEX
  5
14A
100
AcDbEntity
  8
0
370
     0
390
0
100
AcDbVertex
100
AcDb2dVertex
 10
8.076014
 20
0.482097
 30
0.0
  0
VERTEX
  5
14B
100
AcDbEntity
  8
0
370
     0
390
0
100
AcDbVertex
100
AcDb2dVertex
 10
8.089859
 20
0.468038
 30
0.0
  0
VERTEX
  5
14C
100
AcDbEntity
  8
0
370
     0
390
0
100
AcDbVertex
100
AcDb2dVertex
 10
8.036753
 20
0.468038
 30
0.0
  0
VERTEX
  5
14D
100
AcDbEntity
  8
0
370
     0
390
0
100
AcDbVertex
100
AcDb2dVertex
 10
8.054382
 20
0.482097
 30
0.0
  0
VERTEX
  5
14E
100
AcDbEntity
  8
0
370
     0
390
0
100
AcDbVertex
100
AcDb2dVertex
 10
8.054382
 20
0.528606
 30
0.0
  0
VERTEX
  5
14F
100
AcDbEntity
  8
0
370
     0
390
0
100
AcDbVertex
100
AcDb2dVertex
 10
8.052737
 20
0.528543
 30
0.0
  0
VERTEX
  5
150
100
AcDbEntity
  8
0
370
     0
390
0
100
AcDbVertex
100
AcDb2dVertex
 10
8.051134
 20
0.528356
 30
0.0
  0
VERTEX
  5
151
100
AcDbEntity
  8
0
370
     0
390
0
100
AcDbVertex
100
AcDb2dVertex
 10
8.049571
 20
0.528042
 30
0.0
  0
VERTEX
  5
152
100
AcDbEntity
  8
0
370
     0
390
0
100
AcDbVertex
100
AcDb2dVertex
 10
8.048048
 20
0.527603
 30
0.0
  0
VERTEX
  5
153
100
AcDbEntity
  8
0
370
     0
390
0
100
AcDbVertex
100
AcDb2dVertex
 10
8.046567
 20
0.527039
 30
0.0
  0
VERTEX
  5
154
100
AcDbEntity
  8
0
370
     0
390
0
100
AcDbVertex
100
AcDb2dVertex
 10
8.045129
 20
0.526349
 30
0.0
  0
VERTEX
  5
155
100
AcDbEntity
  8
0
370
     0
390
0
100
AcDbVertex
100
AcDb2dVertex
 10
8.04373
 20
0.525533
 30
0.0
  0
VERTEX
  5
156
100
AcDbEntity
  8
0
370
     0
390
0
100
AcDbVertex
100
AcDb2dVertex
 10
8.042372
 20
0.524592
 30
0.0
  0
VERTEX
  5
157
100
AcDbEntity
  8
0
370
     0
390
0
100
AcDbVertex
100
AcDb2dVertex
 10
8.041057
 20
0.523526
 30
0.0
  0
VERTEX
  5
158
100
AcDbEntity
  8
0
370
     0
390
0
100
AcDbVertex
100
AcDb2dVertex
 10
8.03978
 20
0.522333
 30
0.0
  0
VERTEX
  5
159
100
AcDbEntity
  8
0
370
     0
390
0
100
AcDbVertex
100
AcDb2dVertex
 10
8.037725
 20
0.524604
 30
0.0
  0
VERTEX
  5
15A
100
AcDbEntity
  8
0
370
     0
390
0
100
AcDbVertex
100
AcDb2dVertex
 10
8.039021
 20
0.52592
 30
0.0
  0
VERTEX
  5
15B
100
AcDbEntity
  8
0
370
     0
390
0
100
AcDbVertex
100
AcDb2dVertex
 10
8.0404
 20
0.527097
 30
0.0
  0
VERTEX
  5
15C
100
AcDbEntity
  8
0
370
     0
390
0
100
AcDbVertex
100
AcDb2dVertex
 10
8.041859
 20
0.528135
 30
0.0
  0
VERTEX
  5
15D
100
AcDbEntity
  8
0
370
     0
390
0
100
AcDbVertex
100
AcDb2dVertex
 10
8.043403
 20
0.529035
 30
0.0
  0
VERTEX
  5
15E
100
AcDbEntity
  8
0
370
     0
390
0
100
AcDbVertex
100
AcDb2dVertex
 10
8.045027
 20
0.529796
 30
0.0
  0
VERTEX
  5
15F
100
AcDbEntity
  8
0
370
     0
390
0
100
AcDbVertex
100
AcDb2dVertex
 10
8.046733
 20
0.53042
 30
0.0
  0
VERTEX
  5
160
100
AcDbEntity
  8
0
370
     0
390
0
100
AcDbVertex
100
AcDb2dVertex
 10
8.048522
 20
0.530904
 30
0.0
  0
VERTEX
  5
161
100
AcDbEntity
  8
0
370
     0
390
0
100
AcDbVertex
100
AcDb2dVertex
 10
8.050394
 20
0.531249
 30
0.0
  0
VERTEX
  5
162
100
AcDbEntity
  8
0
370
     0
390
0
100
AcDbVertex
100
AcDb2dVertex
 10
8.052347
 20
0.531458
 30
0.0
  0
VERTEX
  5
163
100
AcDbEntity
  8
0
370
     0
390
0
100
AcDbVertex
100
AcDb2dVertex
 10
8.054382
 20
0.531527
 30
0.0
  0
VERTEX
  5
164
100
AcDbEntity
  8
0
370
     0
390
0
100
AcDbVertex
100
AcDb2dVertex
 10
8.054382
 20
0.53661
 30
0.0
  0
VERTEX
  5
165
100
AcDbEntity
  8
0
370
     0
390
0
100
AcDbVertex
100
AcDb2dVertex
 10
8.052773
 20
0.536748
 30
0.0
  0
VERTEX
  5
166
100
AcDbEntity
  8
0
370
     0
390
0
100
AcDbVertex
100
AcDb2dVertex
 10
8.051138
 20
0.536826
 30
0.0
  0
VERTEX
  5
167
100
AcDbEntity
  8
0
370
     0
390
0
100
AcDbVertex
100
AcDb2dVertex
 10
8.049152
 20
0.536744
 30
0.0
  0
VERTEX
  5
168
100
AcDbEntity
  8
0
370
     0
390
0
100
AcDbVertex
100
AcDb2dVertex
 10
8.047222
 20
0.536498
 30
0.0
  0
VERTEX
  5
169
100
AcDbEntity
  8
0
370
     0
390
0
100
AcDbVertex
100
AcDb2dVertex
 10
8.045345
 20
0.536087
 30
0.0
  0
VERTEX
  5
16A
100
AcDbEntity
  8
0
370
     0
390
0
100
AcDbVertex
100
AcDb2dVertex
 10
8.043522
 20
0.535512
 30
0.0
  0
VERTEX
  5
16B
100
AcDbEntity
  8
0
370
     0
390
0
100
AcDbVertex
100
AcDb2dVertex
 10
8.041754
 20
0.534771
 30
0.0
  0
VERTEX
  5
16C
100
AcDbEntity
  8
0
370
     0
390
0
100
AcDbVertex
100
AcDb2dVertex
 10
8.04004
 20
0.533868
 30
0.0
  0
VERTEX
  5
16D
100
AcDbEntity
  8
0
370
     0
390
0
100
AcDbVertex
100
AcDb2dVertex
 10
8.038381
 20
0.532799
 30
0.0
  0
VERTEX
  5
16E
100
AcDbEntity
  8
0
370
     0
390
0
100
AcDbVertex
100
AcDb2dVertex
 10
8.036774
 20
0.531566
 30
0.0
  0
VERTEX
  5
16F
100
AcDbEntity
  8
0
370
     0
390
0
100
AcDbVertex
100
AcDb2dVertex
 10
8.035222
 20
0.530168
 30
0.0
  0
VERTEX
  5
170
100
AcDbEntity
  8
0
370
     0
390
0
100
AcDbVertex
100
AcDb2dVertex
 10
8.033725
 20
0.528606
 30
0.0
  0
VERTEX
  5
171
100
AcDbEntity
  8
0
370
     0
390
0
100
AcDbVertex
100
AcDb2dVertex
 10
8.032967
 20
0.530337
 30
0.0
  0
VERTEX
  5
172
100
AcDbEntity
  8
0
370
     0
390
0
100
AcDbVertex
100
AcDb2dVertex
 10
8.034058
 20
0.533022
 30
0.0
  0
VERTEX
  5
173
100
AcDbEntity
  8
0
370
     0
390
0
100
AcDbVertex
100
AcDb2dVertex
 10
8.03538
 20
0.535451
 30
0.0
  0
VERTEX
  5
174
100
AcDbEntity
  8
0
370
     0
390
0
100
AcDbVertex
100
AcDb2dVertex
 10
8.036938
 20
0.537626
 30
0.0
  0
VERTEX
  5
175
100
AcDbEntity
  8
0
370
     0
390
0
100
AcDbVertex
100
AcDb2dVertex
 10
8.03873
 20
0.539544
 30
0.0
  0
VERTEX
  5
176
100
AcDbEntity
  8
0
370
     0
390
0
100
AcDbVertex
100
AcDb2dVertex
 10
8.040755
 20
0.541208
 30
0.0
  0
VERTEX
  5
177
100
AcDbEntity
  8
0
370
     0
390
0
100
AcDbVertex
100
AcDb2dVertex
 10
8.043013
 20
0.542615
 30
0.0
  0
VERTEX
  5
178
100
AcDbEntity
  8
0
370
     0
390
0
100
AcDbVertex
100
AcDb2dVertex
 10
8.045504
 20
0.543768
 30
0.0
  0
VERTEX
  5
179
100
AcDbEntity
  8
0
370
     0
390
0
100
AcDbVertex
100
AcDb2dVertex
 10
8.048231
 20
0.544665
 30
0.0
  0
VERTEX
  5
17A
100
AcDbEntity
  8
0
370
     0
390
0
100
AcDbVertex
100
AcDb2dVertex
 10
8.051189
 20
0.545309
 30
0.0
  0
VERTEX
  5
17B
100
AcDbEntity
  8
0
370
     0
390
0
100
AcDbVertex
100
AcDb2dVertex
 10
8.054382
 20
0.545696
 30
0.0
  0
VERTEX
  5
17C
100
AcDbEntity
  8
0
370
     0
390
0
100
AcDbVertex
100
AcDb2dVertex
 10
8.054382
 20
0.591339
 30
0.0
  0
SEQEND
  5
17D
100
AcDbEntity
  8
0
370
     0
390
0
  0
POLYLINE
  5
17E
100
AcDbEntity
  8
0
370
    13
390
0
 62
     7
 48
0.03937
100
AcDb2dPolyline
 66
     1
 10
0.0
 20
0.0
 30
0.0
 70
     1
 71
    22
  0
VERTEX
  5
17F
100
AcDbEntity
  8
0
370
     0
390
0
100
AcDbVertex
100
AcDb2dVertex
 10
8.160271
 20
0.598694
 30
0.0
  0
VERTEX
  5
180
100
AcDbEntity
  8
0
370
     0
390
0
100
AcDbVertex
100
AcDb2dVertex
 10
8.157292
 20
0.595112
 30
0.0
  0
VERTEX
  5
181
100
AcDbEntity
  8
0
370
     0
390
0
100
AcDbVertex
100
AcDb2dVertex
 10
8.154542
 20
0.59159
 30
0.0
  0
VERTEX
  5
182
100
AcDbEntity
  8
0
370
     0
390
0
100
AcDbVertex
100
AcDb2dVertex
 10
8.152022
 20
0.588129
 30
0.0
  0
VERTEX
  5
183
100
AcDbEntity
  8
0
370
     0
390
0
100
AcDbVertex
100
AcDb2dVertex
 10
8.149732
 20
0.584729
 30
0.0
  0
VERTEX
  5
184
100
AcDbEntity
  8
0
370
     0
390
0
100
AcDbVertex
100
AcDb2dVertex
 10
8.147671
 20
0.581388
 30
0.0
  0
VERTEX
  5
185
100
AcDbEntity
  8
0
370
     0
390
0
100
AcDbVertex
100
AcDb2dVertex
 10
8.145838
 20
0.578109
 30
0.0
  0
VERTEX
  5
186
100
AcDbEntity
  8
0
370
     0
390
0
100
AcDbVertex
100
AcDb2dVertex
 10
8.144234
 20
0.57489
 30
0.0
  0
VERTEX
  5
187
100
AcDbEntity
  8
0
370
     0
390
0
100
AcDbVertex
100
AcDb2dVertex
 10
8.142862
 20
0.571733
 30
0.0
  0
VERTEX
  5
188
100
AcDbEntity
  8
0
370
     0
390
0
100
AcDbVertex
100
AcDb2dVertex
 10
8.141717
 20
0.568634
 30
0.0
  0
VERTEX
  5
189
100
AcDbEntity
  8
0
370
     0
390
0
100
AcDbVertex
100
AcDb2dVertex
 10
8.140802
 20
0.565596
 30
0.0
  0
VERTEX
  5
18A
100
AcDbEntity
  8
0
370
     0
390
0
100
AcDbVertex
100
AcDb2dVertex
 10
8.138531
 20
0.567111
 30
0.0
  0
VERTEX
  5
18B
100
AcDbEntity
  8
0
370
     0
390
0
100
AcDbVertex
100
AcDb2dVertex
 10
8.139469
 20
0.570503
 30
0.0
  0
VERTEX
  5
18C
100
AcDbEntity
  8
0
370
     0
390
0
100
AcDbVertex
100
AcDb2dVertex
 10
8.140637
 20
0.573882
 30
0.0
  0
VERTEX
  5
18D
100
AcDbEntity
  8
0
370
     0
390
0
100
AcDbVertex
100
AcDb2dVertex
 10
8.142038
 20
0.577251
 30
0.0
  0
VERTEX
  5
18E
100
AcDbEntity
  8
0
370
     0
390
0
100
AcDbVertex
100
AcDb2dVertex
 10
8.14367
 20
0.58061
 30
0.0
  0
VERTEX
  5
18F
100
AcDbEntity
  8
0
370
     0
390
0
100
AcDbVertex
100
AcDb2dVertex
 10
8.145533
 20
0.583958
 30
0.0
  0
VERTEX
  5
190
100
AcDbEntity
  8
0
370
     0
390
0
100
AcDbVertex
100
AcDb2dVertex
 10
8.147629
 20
0.587294
 30
0.0
  0
VERTEX
  5
191
100
AcDbEntity
  8
0
370
     0
390
0
100
AcDbVertex
100
AcDb2dVertex
 10
8.149955
 20
0.590619
 30
0.0
  0
VERTEX
  5
192
100
AcDbEntity
  8
0
370
     0
390
0
100
AcDbVertex
100
AcDb2dVertex
 10
8.152513
 20
0.593936
 30
0.0
  0
VERTEX
  5
193
100
AcDbEntity
  8
0
370
     0
390
0
100
AcDbVertex
100
AcDb2dVertex
 10
8.155303
 20
0.597239
 30
0.0
  0
VERTEX
  5
194
100
AcDbEntity
  8
0
370
     0
390
0
100
AcDbVertex
100
AcDb2dVertex
 10
8.158324
 20
0.600533
 30
0.0
  0
SEQEND
  5
195
100
AcDbEntity
  8
0
370
     0
390
0
  0
POLYLINE
  5
196
100
AcDbEntity
  8
0
370
    13
390
0
 62
     7
 48
0.03937
100
AcDb2dPolyline
 66
     1
 10
0.0
 20
0.0
 30
0.0
 70
     1
 71
     4
  0
VERTEX
  5
197
100
AcDbEntity
  8
0
370
     0
390
0
100
AcDbVertex
100
AcDb2dVertex
 10
8.126849
 20
0.560189
 30
0.0
  0
VERTEX
  5
198
100
AcDbEntity
  8
0
370
     0
390
0
100
AcDbVertex
100
AcDb2dVertex
 10
8.126849
 20
0.513464
 30
0.0
  0
VERTEX
  5
199
100
AcDbEntity
  8
0
370
     0
390
0
100
AcDbVertex
100
AcDb2dVertex
 10
8.124036
 20
0.515087
 30
0.0
  0
VERTEX
  5
19A
100
AcDbEntity
  8
0
370
     0
390
0
100
AcDbVertex
100
AcDb2dVertex
 10
8.124036
 20
0.561812
 30
0.0
  0
SEQEND
  5
19B
100
AcDbEntity
  8
0
370
     0
390
0
  0
POLYLINE
  5
19C
100
AcDbEntity
  8
0
370
    13
390
0
 62
     7
 48
0.03937
100
AcDb2dPolyline
 66
     1
 10
0.0
 20
0.0
 30
0.0
 70
     1
 71
    10
  0
VERTEX
  5
19D
100
AcDbEntity
  8
0
370
     0
390
0
100
AcDbVertex
100
AcDb2dVertex
 10
8.107488
 20
0.527525
 30
0.0
  0
VERTEX
  5
19E
100
AcDbEntity
  8
0
370
     0
390
0
100
AcDbVertex
100
AcDb2dVertex
 10
8.085316
 20
0.527525
 30
0.0
  0
VERTEX
  5
19F
100
AcDbEntity
  8
0
370
     0
390
0
100
AcDbVertex
100
AcDb2dVertex
 10
8.085316
 20
0.481233
 30
0.0
  0
VERTEX
  5
1A0
100
AcDbEntity
  8
0
370
     0
390
0
100
AcDbVertex
100
AcDb2dVertex
 10
8.104352
 20
0.457653
 30
0.0
  0
VERTEX
  5
1A1
100
AcDbEntity
  8
0
370
     0
390
0
100
AcDbVertex
100
AcDb2dVertex
 10
8.041727
 20
0.457653
 30
0.0
  0
VERTEX
  5
1A2
100
AcDbEntity
  8
0
370
     0
390
0
100
AcDbVertex
100
AcDb2dVertex
 10
8.039024
 20
0.460574
 30
0.0
  0
VERTEX
  5
1A3
100
AcDbEntity
  8
0
370
     0
390
0
100
AcDbVertex
100
AcDb2dVertex
 10
8.098295
 20
0.460574
 30
0.0
  0
VERTEX
  5
1A4
100
AcDbEntity
  8
0
370
     0
390
0
100
AcDbVertex
100
AcDb2dVertex
 10
8.082612
 20
0.479934
 30
0.0
  0
VERTEX
  5
1A5
100
AcDbEntity
  8
0
370
     0
390
0
100
AcDbVertex
100
AcDb2dVertex
 10
8.082612
 20
0.530445
 30
0.0
  0
VERTEX
  5
1A6
100
AcDbEntity
  8
0
370
     0
390
0
100
AcDbVertex
100
AcDb2dVertex
 10
8.104352
 20
0.530445
 30
0.0
  0
SEQEND
  5
1A7
100
AcDbEntity
  8
0
370
     0
390
0
  0
CIRCLE
  5
1A8
100
AcDbEntity
  8
0
370
    35
390
0
 62
     7
 48
0.03937
100
AcDbCircle
 10
1.632345
 20
5.729829
 30
0.0
 40
0.175
210
0.0
220
0.0
230
1.0
  0
CIRCLE
  5
1A9
100
AcDbEntity
  8
0
370
    35
390
0
 62
     7
 48
0.03937
100
AcDbCircle
 10
3.490845
 20
5.729829
 30
0.0
 40
2.1875
210
0.0
220
0.0
230
1.0
  0
CIRCLE
  5
1AA
100
AcDbEntity
  8
0
370
    35
390
0
 62
     7
 48
0.03937
100
AcDbCircle
 10
5.100353
 20
4.800579
 30
0.0
 40
0.175
210
0.0
220
0.0
230
1.0
  0
CIRCLE
  5
1AB
100
AcDbEntity
  8
0
370
    35
390
0
 62
     7
 48
0.03937
100
AcDbCircle
 10
2.561595
 20
7.339337
 30
0.0
 40
0.175
210
0.0
220
0.0
230
1.0
  0
CIRCLE
  5
1AC
100
AcDbEntity
  8
0
370
    35
390
0
 62
     7
 48
0.03937
100
AcDbCircle
 10
4.420095
 20
4.120321
 30
0.0
 40
0.175
210
0.0
220
0.0
230
1.0
  0
CIRCLE
  5
1AD
100
AcDbEntity
  8
0
370
    35
390
0
 62
     7
 48
0.03937
100
AcDbCircle
 10
3.490845
 20
7.588329
 30
0.0
 40
0.175
210
0.0
220
0.0
230
1.0
  0
CIRCLE
  5
1AE
100
AcDbEntity
  8
0
370
    35
390
0
 62
     7
 48
0.03937
100
AcDbCircle
 10
3.490845
 20
3.871329
 30
0.0
 40
0.175
210
0.0
220
0.0
230
1.0
  0
CIRCLE
  5
1AF
100
AcDbEntity
  8
0
370
    35
390
0
 62
     7
 48
0.03937
100
AcDbCircle
 10
4.420095
 20
7.339337
 30
0.0
 40
0.175
210
0.0
220
0.0
230
1.0
  0
CIRCLE
  5
1B0
100
AcDbEntity
  8
0
370
    35
390
0
 62
     7
 48
0.03937
100
AcDbCircle
 10
2.561595
 20
4.120321
 30
0.0
 40
0.175
210
0.0
220
0.0
230
1.0
  0
CIRCLE
  5
1B1
100
AcDbEntity
  8
0
370
    35
390
0
 62
     7
 48
0.03937
100
AcDbCircle
 10
5.100353
 20
6.659079
 30
0.0
 40
0.175
210
0.0
220
0.0
230
1.0
  0
CIRCLE
  5
1B2
100
AcDbEntity
  8
0
370
    35
390
0
 62
     7
 48
0.03937
100
AcDbCircle
 10
1.881337
 20
4.800579
 30
0.0
 40
0.175
210
0.0
220
0.0
230
1.0
  0
CIRCLE
  5
1B3
100
AcDbEntity
  8
0
370
    35
390
0
 62
     7
 48
0.03937
100
AcDbCircle
 10
5.349345
 20
5.729829
 30
0.0
 40
0.175
210
0.0
220
0.0
230
1.0
  0
CIRCLE
  5
1B4
100
AcDbEntity
  8
0
370
    35
390
0
 62
     7
 48
0.03937
100
AcDbCircle
 10
1.881337
 20
6.659079
 30
0.0
 40
0.175
210
0.0
220
0.0
230
1.0
  0
CIRCLE
  5
1B5
100
AcDbEntity
  8
0
370
    35
390
0
 62
     7
 48
0.03937
100
AcDbCircle
 10
1.695672
 20
5.248814
 30
0.0
 40
0.086625
210
0.0
220
0.0
230
1.0
  0
CIRCLE
  5
1B6
100
AcDbEntity
  8
0
370
    35
390
0
 62
     7
 48
0.03937
100
AcDbCircle
 10
1.695672
 20
5.248814
 30
0.0
 40
0.06825
210
0.0
220
0.0
230
1.0
  0
LINE
  5
1B7
100
AcDbEntity
  8
0
370
    35
390
0
 62
     7
 48
0.00014
100
AcDbLine
 10
1.720116
 20
5.25563
 30
0.0
 11
1.714698
 21
5.25702
 31
0.0
210
0.0
220
0.0
230
1.0
  0
LINE
  5
1B8
100
AcDbEntity
  8
0
370
    35
390
0
 62
     7
 48
0.000014
100
AcDbLine
 10
1.714698
 20
5.25702
 30
0.0
 11
1.714149
 21
5.257146
 31
0.0
210
0.0
220
0.0
230
1.0
  0
LINE
  5
1B9
100
AcDbEntity
  8
0
370
    35
390
0
 62
     7
 48
0.000015
100
AcDbLine
 10
1.714149
 20
5.257146
 30
0.0
 11
1.713579
 21
5.257261
 31
0.0
210
0.0
220
0.0
230
1.0
  0
LINE
  5
1BA
100
AcDbEntity
  8
0
370
    35
390
0
 62
     7
 48
0.000015
100
AcDbLine
 10
1.713579
 20
5.257261
 30
0.0
 11
1.712987
 21
5.257367
 31
0.0
210
0.0
220
0.0
230
1.0
  0
LINE
  5
1BB
100
AcDbEntity
  8
0
370
    35
390
0
 62
     7
 48
0.000016
100
AcDbLine
 10
1.712987
 20
5.257367
 30
0.0
 11
1.712372
 21
5.257463
 31
0.0
210
0.0
220
0.0
230
1.0
  0
LINE
  5
1BC
100
AcDbEntity
  8
0
370
    35
390
0
 62
     7
 48
0.000016
100
AcDbLine
 10
1.712372
 20
5.257463
 30
0.0
 11
1.711734
 21
5.257549
 31
0.0
210
0.0
220
0.0
230
1.0
  0
LINE
  5
1BD
100
AcDbEntity
  8
0
370
    35
390
0
 62
     7
 48
0.000017
100
AcDbLine
 10
1.711734
 20
5.257549
 30
0.0
 11
1.711074
 21
5.257624
 31
0.0
210
0.0
220
0.0
230
1.0
  0
LINE
  5
1BE
100
AcDbEntity
  8
0
370
    35
390
0
 62
     7
 48
0.000017
100
AcDbLine
 10
1.711074
 20
5.257624
 30
0.0
 11
1.710392
 21
5.25769
 31
0.0
210
0.0
220
0.0
230
1.0
  0
LINE
  5
1BF
100
AcDbEntity
  8
0
370
    35
390
0
 62
     7
 48
0.000018
100
AcDbLine
 10
1.710392
 20
5.25769
 30
0.0
 11
1.709687
 21
5.257747
 31
0.0
210
0.0
220
0.0
230
1.0
  0
LINE
  5
1C0
100
AcDbEntity
  8
0
370
    35
390
0
 62
     7
 48
0.000018
100
AcDbLine
 10
1.709687
 20
5.257747
 30
0.0
 11
1.70896
 21
5.257793
 31
0.0
210
0.0
220
0.0
230
1.0
  0
LINE
  5
1C1
100
AcDbEntity
  8
0
370
    35
390
0
 62
     7
 48
0.000019
100
AcDbLine
 10
1.70896
 20
5.257793
 30
0.0
 11
1.70821
 21
5.257829
 31
0.0
210
0.0
220
0.0
230
1.0
  0
LINE
  5
1C2
100
AcDbEntity
  8
0
370
    35
390
0
 62
     7
 48
0.00002
100
AcDbLine
 10
1.70821
 20
5.257829
 30
0.0
 11
1.708612
 21
5.258524
 31
0.0
210
0.0
220
0.0
230
1.0
  0
LINE
  5
1C3
100
AcDbEntity
  8
0
370
    35
390
0
 62
     7
 48
0.000022
100
AcDbLine
 10
1.708612
 20
5.258524
 30
0.0
 11
1.70936
 21
5.258962
 31
0.0
210
0.0
220
0.0
230
1.0
  0
LINE
  5
1C4
100
AcDbEntity
  8
0
370
    35
390
0
 62
     7
 48
0.000021
100
AcDbLine
 10
1.70936
 20
5.258962
 30
0.0
 11
1.710053
 21
5.259404
 31
0.0
210
0.0
220
0.0
230
1.0
  0
LINE
  5
1C5
100
AcDbEntity
  8
0
370
    35
390
0
 62
     7
 48
0.000019
100
AcDbLine
 10
1.710053
 20
5.259404
 30
0.0
 11
1.71069
 21
5.25985
 31
0.0
210
0.0
220
0.0
230
1.0
  0
LINE
  5
1C6
100
AcDbEntity
  8
0
370
    35
390
0
 62
     7
 48
0.000018
100
AcDbLine
 10
1.71069
 20
5.25985
 30
0.0
 11
1.711271
 21
5.2603
 31
0.0
210
0.0
220
0.0
230
1.0
  0
LINE
  5
1C7
100
AcDbEntity
  8
0
370
    35
390
0
 62
     7
 48
0.000017
100
AcDbLine
 10
1.711271
 20
5.2603
 30
0.0
 11
1.711796
 21
5.260754
 31
0.0
210
0.0
220
0.0
230
1.0
  0
LINE
  5
1C8
100
AcDbEntity
  8
0
370
    35
390
0
 62
     7
 48
0.000016
100
AcDbLine
 10
1.711796
 20
5.260754
 30
0.0
 11
1.712265
 21
5.261213
 31
0.0
210
0.0
220
0.0
230
1.0
  0
LINE
  5
1C9
100
AcDbEntity
  8
0
370
    35
390
0
 62
     7
 48
0.000016
100
AcDbLine
 10
1.712265
 20
5.261213
 30
0.0
 11
1.712678
 21
5.261676
 31
0.0
210
0.0
220
0.0
230
1.0
  0
LINE
  5
1CA
100
AcDbEntity
  8
0
370
    35
390
0
 62
     7
 48
0.000015
100
AcDbLine
 10
1.712678
 20
5.261676
 30
0.0
 11
1.713035
 21
5.262143
 31
0.0
210
0.0
220
0.0
230
1.0
  0
LINE
  5
1CB
100
AcDbEntity
  8
0
370
    35
390
0
 62
     7
 48
0.000014
100
AcDbLine
 10
1.713035
 20
5.262143
 30
0.0
 11
1.713336
 21
5.262614
 31
0.0
210
0.0
220
0.0
230
1.0
  0
LINE
  5
1CC
100
AcDbEntity
  8
0
370
    35
390
0
 62
     7
 48
0.000013
100
AcDbLine
 10
1.713336
 20
5.262614
 30
0.0
 11
1.713581
 21
5.263089
 31
0.0
210
0.0
220
0.0
230
1.0
  0
LINE
  5
1CD
100
AcDbEntity
  8
0
370
    35
390
0
 62
     7
 48
0.000013
100
AcDbLine
 10
1.713581
 20
5.263089
 30
0.0
 11
1.713776
 21
5.263583
 31
0.0
210
0.0
220
0.0
230
1.0
  0
LINE
  5
1CE
100
AcDbEntity
  8
0
370
    35
390
0
 62
     7
 48
0.000014
100
AcDbLine
 10
1.713776
 20
5.263583
 30
0.0
 11
1.713928
 21
5.26411
 31
0.0
210
0.0
220
0.0
230
1.0
  0
LINE
  5
1CF
100
AcDbEntity
  8
0
370
    35
390
0
 62
     7
 48
0.000014
100
AcDbLine
 10
1.713928
 20
5.26411
 30
0.0
 11
1.714037
 21
5.264669
 31
0.0
210
0.0
220
0.0
230
1.0
  0
LINE
  5
1D0
100
AcDbEntity
  8
0
370
    35
390
0
 62
     7
 48
0.000015
100
AcDbLine
 10
1.714037
 20
5.264669
 30
0.0
 11
1.714102
 21
5.265261
 31
0.0
210
0.0
220
0.0
230
1.0
  0
LINE
  5
1D1
100
AcDbEntity
  8
0
370
    35
390
0
 62
     7
 48
0.000016
100
AcDbLine
 10
1.714102
 20
5.265261
 30
0.0
 11
1.714125
 21
5.265885
 31
0.0
210
0.0
220
0.0
230
1.0
  0
LINE
  5
1D2
100
AcDbEntity
  8
0
370
    35
390
0
 62
     7
 48
0.000016
100
AcDbLine
 10
1.714125
 20
5.265885
 30
0.0
 11
1.714104
 21
5.266543
 31
0.0
210
0.0
220
0.0
230
1.0
  0
LINE
  5
1D3
100
AcDbEntity
  8
0
370
    35
390
0
 62
     7
 48
0.000017
100
AcDbLine
 10
1.714104
 20
5.266543
 30
0.0
 11
1.71404
 21
5.267233
 31
0.0
210
0.0
220
0.0
230
1.0
  0
LINE
  5
1D4
100
AcDbEntity
  8
0
370
    35
390
0
 62
     7
 48
0.000018
100
AcDbLine
 10
1.71404
 20
5.267233
 30
0.0
 11
1.713932
 21
5.267956
 31
0.0
210
0.0
220
0.0
230
1.0
  0
LINE
  5
1D5
100
AcDbEntity
  8
0
370
    35
390
0
 62
     7
 48
0.000019
100
AcDbLine
 10
1.713932
 20
5.267956
 30
0.0
 11
1.713782
 21
5.268711
 31
0.0
210
0.0
220
0.0
230
1.0
  0
LINE
  5
1D6
100
AcDbEntity
  8
0
370
    35
390
0
 62
     7
 48
0.00002
100
AcDbLine
 10
1.713782
 20
5.268711
 30
0.0
 11
1.713588
 21
5.269499
 31
0.0
210
0.0
220
0.0
230
1.0
  0
LINE
  5
1D7
100
AcDbEntity
  8
0
370
    35
390
0
 62
     7
 48
0.000017
100
AcDbLine
 10
1.713588
 20
5.269499
 30
0.0
 11
1.713405
 21
5.270155
 31
0.0
210
0.0
220
0.0
230
1.0
  0
LINE
  5
1D8
100
AcDbEntity
  8
0
370
    35
390
0
 62
     7
 48
0.000017
100
AcDbLine
 10
1.713405
 20
5.270155
 30
0.0
 11
1.713211
 21
5.270809
 31
0.0
210
0.0
220
0.0
230
1.0
  0
LINE
  5
1D9
100
AcDbEntity
  8
0
370
    35
390
0
 62
     7
 48
0.000017
100
AcDbLine
 10
1.713211
 20
5.270809
 30
0.0
 11
1.713006
 21
5.271459
 31
0.0
210
0.0
220
0.0
230
1.0
  0
LINE
  5
1DA
100
AcDbEntity
  8
0
370
    35
390
0
 62
     7
 48
0.000017
100
AcDbLine
 10
1.713006
 20
5.271459
 30
0.0
 11
1.712789
 21
5.272107
 31
0.0
210
0.0
220
0.0
230
1.0
  0
LINE
  5
1DB
100
AcDbEntity
  8
0
370
    35
390
0
 62
     7
 48
0.000017
100
AcDbLine
 10
1.712789
 20
5.272107
 30
0.0
 11
1.712559
 21
5.272751
 31
0.0
210
0.0
220
0.0
230
1.0
  0
LINE
  5
1DC
100
AcDbEntity
  8
0
370
    35
390
0
 62
     7
 48
0.001026
100
AcDbLine
 10
1.712559
 20
5.272751
 30
0.0
 11
1.672805
 21
5.262569
 31
0.0
210
0.0
220
0.0
230
1.0
  0
LINE
  5
1DD
100
AcDbEntity
  8
0
370
    35
390
0
 62
     7
 48
0.000152
100
AcDbLine
 10
1.672805
 20
5.262569
 30
0.0
 11
1.669975
 21
5.257186
 31
0.0
210
0.0
220
0.0
230
1.0
  0
LINE
  5
1DE
100
AcDbEntity
  8
0
370
    35
390
0
 62
     7
 48
0.000432
100
AcDbLine
 10
1.669975
 20
5.257186
 30
0.0
 11
1.665497
 21
5.273896
 31
0.0
210
0.0
220
0.0
230
1.0
  0
LINE
  5
1DF
100
AcDbEntity
  8
0
370
    35
390
0
 62
     7
 48
0.000173
100
AcDbLine
 10
1.665497
 20
5.273896
 30
0.0
 11
1.671147
 21
5.269924
 31
0.0
210
0.0
220
0.0
230
1.0
  0
LINE
  5
1E0
100
AcDbEntity
  8
0
370
    35
390
0
 62
     7
 48
0.000942
100
AcDbLine
 10
1.671147
 20
5.269924
 30
0.0
 11
1.70753
 21
5.279673
 31
0.0
210
0.0
220
0.0
230
1.0
  0
LINE
  5
1E1
100
AcDbEntity
  8
0
370
    35
390
0
 62
     7
 48
0.000067
100
AcDbLine
 10
1.70753
 20
5.279673
 30
0.0
 11
1.706871
 21
5.282279
 31
0.0
210
0.0
220
0.0
230
1.0
  0
LINE
  5
1E2
100
AcDbEntity
  8
0
370
    35
390
0
 62
     7
 48
0.000019
100
AcDbLine
 10
1.706871
 20
5.282279
 30
0.0
 11
1.70666
 21
5.283006
 31
0.0
210
0.0
220
0.0
230
1.0
  0
LINE
  5
1E3
100
AcDbEntity
  8
0
370
    35
390
0
 62
     7
 48
0.000018
100
AcDbLine
 10
1.70666
 20
5.283006
 30
0.0
 11
1.706432
 21
5.283682
 31
0.0
210
0.0
220
0.0
230
1.0
  0
LINE
  5
1E4
100
AcDbEntity
  8
0
370
    35
390
0
 62
     7
 48
0.000017
100
AcDbLine
 10
1.706432
 20
5.283682
 30
0.0
 11
1.706185
 21
5.284307
 31
0.0
210
0.0
220
0.0
230
1.0
  0
LINE
  5
1E5
100
AcDbEntity
  8
0
370
    35
390
0
 62
     7
 48
0.000016
100
AcDbLine
 10
1.706185
 20
5.284307
 30
0.0
 11
1.70592
 21
5.28488
 31
0.0
210
0.0
220
0.0
230
1.0
  0
LINE
  5
1E6
100
AcDbEntity
  8
0
370
    35
390
0
 62
     7
 48
0.000015
100
AcDbLine
 10
1.70592
 20
5.28488
 30
0.0
 11
1.705637
 21
5.285401
 31
0.0
210
0.0
220
0.0
230
1.0
  0
LINE
  5
1E7
100
AcDbEntity
  8
0
370
    35
390
0
 62
     7
 48
0.000014
100
AcDbLine
 10
1.705637
 20
5.285401
 30
0.0
 11
1.705337
 21
5.285872
 31
0.0
210
0.0
220
0.0
230
1.0
  0
LINE
  5
1E8
100
AcDbEntity
  8
0
370
    35
390
0
 62
     7
 48
0.000013
100
AcDbLine
 10
1.705337
 20
5.285872
 30
0.0
 11
1.705019
 21
5.286291
 31
0.0
210
0.0
220
0.0
230
1.0
  0
LINE
  5
1E9
100
AcDbEntity
  8
0
370
    35
390
0
 62
     7
 48
0.000024
100
AcDbLine
 10
1.705019
 20
5.286291
 30
0.0
 11
1.704327
 21
5.286974
 31
0.0
210
0.0
220
0.0
230
1.0
  0
LINE
  5
1EA
100
AcDbEntity
  8
0
370
    35
390
0
 62
     7
 48
0.000023
100
AcDbLine
 10
1.704327
 20
5.286974
 30
0.0
 11
1.703555
 21
5.287458
 31
0.0
210
0.0
220
0.0
230
1.0
  0
LINE
  5
1EB
100
AcDbEntity
  8
0
370
    35
390
0
 62
     7
 48
0.000024
100
AcDbLine
 10
1.703555
 20
5.287458
 30
0.0
 11
1.70264
 21
5.287784
 31
0.0
210
0.0
220
0.0
230
1.0
  0
LINE
  5
1EC
100
AcDbEntity
  8
0
370
    35
390
0
 62
     7
 48
0.000027
100
AcDbLine
 10
1.70264
 20
5.287784
 30
0.0
 11
1.701572
 21
5.287957
 31
0.0
210
0.0
220
0.0
230
1.0
  0
LINE
  5
1ED
100
AcDbEntity
  8
0
370
    35
390
0
 62
     7
 48
0.000015
100
AcDbLine
 10
1.701572
 20
5.287957
 30
0.0
 11
1.700982
 21
5.287987
 31
0.0
210
0.0
220
0.0
230
1.0
  0
LINE
  5
1EE
100
AcDbEntity
  8
0
370
    35
390
0
 62
     7
 48
0.000016
100
AcDbLine
 10
1.700982
 20
5.287987
 30
0.0
 11
1.700353
 21
5.287979
 31
0.0
210
0.0
220
0.0
230
1.0
  0
LINE
  5
1EF
100
AcDbEntity
  8
0
370
    35
390
0
 62
     7
 48
0.000017
100
AcDbLine
 10
1.700353
 20
5.287979
 30
0.0
 11
1.699687
 21
5.287932
 31
0.0
210
0.0
220
0.0
230
1.0
  0
LINE
  5
1F0
100
AcDbEntity
  8
0
370
    35
390
0
 62
     7
 48
0.000018
100
AcDbLine
 10
1.699687
 20
5.287932
 30
0.0
 11
1.698982
 21
5.287848
 31
0.0
210
0.0
220
0.0
230
1.0
  0
LINE
  5
1F1
100
AcDbEntity
  8
0
370
    35
390
0
 62
     7
 48
0.000019
100
AcDbLine
 10
1.698982
 20
5.287848
 30
0.0
 11
1.69824
 21
5.287725
 31
0.0
210
0.0
220
0.0
230
1.0
  0
LINE
  5
1F2
100
AcDbEntity
  8
0
370
    35
390
0
 62
     7
 48
0.000025
100
AcDbLine
 10
1.69824
 20
5.287725
 30
0.0
 11
1.697985
 21
5.288676
 31
0.0
210
0.0
220
0.0
230
1.0
  0
LINE
  5
1F3
100
AcDbEntity
  8
0
370
    35
390
0
 62
     7
 48
0.000022
100
AcDbLine
 10
1.697985
 20
5.288676
 30
0.0
 11
1.69884
 21
5.288804
 31
0.0
210
0.0
220
0.0
230
1.0
  0
LINE
  5
1F4
100
AcDbEntity
  8
0
370
    35
390
0
 62
     7
 48
0.00002
100
AcDbLine
 10
1.69884
 20
5.288804
 30
0.0
 11
1.699651
 21
5.28889
 31
0.0
210
0.0
220
0.0
230
1.0
  0
LINE
  5
1F5
100
AcDbEntity
  8
0
370
    35
390
0
 62
     7
 48
0.000019
100
AcDbLine
 10
1.699651
 20
5.28889
 30
0.0
 11
1.700417
 21
5.288933
 31
0.0
210
0.0
220
0.0
230
1.0
  0
LINE
  5
1F6
100
AcDbEntity
  8
0
370
    35
390
0
 62
     7
 48
0.000018
100
AcDbLine
 10
1.700417
 20
5.288933
 30
0.0
 11
1.701139
 21
5.288935
 31
0.0
210
0.0
220
0.0
230
1.0
  0
LINE
  5
1F7
100
AcDbEntity
  8
0
370
    35
390
0
 62
     7
 48
0.000017
100
AcDbLine
 10
1.701139
 20
5.288935
 30
0.0
 11
1.701816
 21
5.288895
 31
0.0
210
0.0
220
0.0
230
1.0
  0
LINE
  5
1F8
100
AcDbEntity
  8
0
370
    35
390
0
 62
     7
 48
0.000016
100
AcDbLine
 10
1.701816
 20
5.288895
 30
0.0
 11
1.702449
 21
5.288812
 31
0.0
210
0.0
220
0.0
230
1.0
  0
LINE
  5
1F9
100
AcDbEntity
  8
0
370
    35
390
0
 62
     7
 48
0.000015
100
AcDbLine
 10
1.702449
 20
5.288812
 30
0.0
 11
1.703038
 21
5.288687
 31
0.0
210
0.0
220
0.0
230
1.0
  0
LINE
  5
1FA
100
AcDbEntity
  8
0
370
    35
390
0
 62
     7
 48
0.000014
100
AcDbLine
 10
1.703038
 20
5.288687
 30
0.0
 11
1.703582
 21
5.288521
 31
0.0
210
0.0
220
0.0
230
1.0
  0
LINE
  5
1FB
100
AcDbEntity
  8
0
370
    35
390
0
 62
     7
 48
0.000014
100
AcDbLine
 10
1.703582
 20
5.288521
 30
0.0
 11
1.704082
 21
5.288312
 31
0.0
210
0.0
220
0.0
230
1.0
  0
LINE
  5
1FC
100
AcDbEntity
  8
0
370
    35
390
0
 62
     7
 48
0.000026
100
AcDbLine
 10
1.704082
 20
5.288312
 30
0.0
 11
1.704961
 21
5.287761
 31
0.0
210
0.0
220
0.0
230
1.0
  0
LINE
  5
1FD
100
AcDbEntity
  8
0
370
    35
390
0
 62
     7
 48
0.000013
100
AcDbLine
 10
1.704961
 20
5.287761
 30
0.0
 11
1.705362
 21
5.287405
 31
0.0
210
0.0
220
0.0
230
1.0
  0
LINE
  5
1FE
100
AcDbEntity
  8
0
370
    35
390
0
 62
     7
 48
0.000014
100
AcDbLine
 10
1.705362
 20
5.287405
 30
0.0
 11
1.705744
 21
5.286993
 31
0.0
210
0.0
220
0.0
230
1.0
  0
LINE
  5
1FF
100
AcDbEntity
  8
0
370
    35
390
0
 62
     7
 48
0.000015
100
AcDbLine
 10
1.705744
 20
5.286993
 30
0.0
 11
1.706103
 21
5.286524
 31
0.0
210
0.0
220
0.0
230
1.0
  0
LINE
  5
200
100
AcDbEntity
  8
0
370
    35
390
0
 62
     7
 48
0.000016
100
AcDbLine
 10
1.706103
 20
5.286524
 30
0.0
 11
1.706442
 21
5.286
 31
0.0
210
0.0
220
0.0
230
1.0
  0
LINE
  5
201
100
AcDbEntity
  8
0
370
    35
390
0
 62
     7
 48
0.000017
100
AcDbLine
 10
1.706442
 20
5.286
 30
0.0
 11
1.706761
 21
5.285419
 31
0.0
210
0.0
220
0.0
230
1.0
  0
LINE
  5
202
100
AcDbEntity
  8
0
370
    35
390
0
 62
     7
 48
0.000018
100
AcDbLine
 10
1.706761
 20
5.285419
 30
0.0
 11
1.707057
 21
5.284781
 31
0.0
210
0.0
220
0.0
230
1.0
  0
LINE
  5
203
100
AcDbEntity
  8
0
370
    35
390
0
 62
     7
 48
0.000019
100
AcDbLine
 10
1.707057
 20
5.284781
 30
0.0
 11
1.707333
 21
5.284088
 31
0.0
210
0.0
220
0.0
230
1.0
  0
LINE
  5
204
100
AcDbEntity
  8
0
370
    35
390
0
 62
     7
 48
0.00002
100
AcDbLine
 10
1.707333
 20
5.284088
 30
0.0
 11
1.707588
 21
5.283339
 31
0.0
210
0.0
220
0.0
230
1.0
  0
LINE
  5
205
100
AcDbEntity
  8
0
370
    35
390
0
 62
     7
 48
0.000021
100
AcDbLine
 10
1.707588
 20
5.283339
 30
0.0
 11
1.707822
 21
5.282533
 31
0.0
210
0.0
220
0.0
230
1.0
  0
LINE
  5
206
100
AcDbEntity
  8
0
370
    35
390
0
 62
     7
 48
0.000057
100
AcDbLine
 10
1.707822
 20
5.282533
 30
0.0
 11
1.708373
 21
5.28033
 31
0.0
210
0.0
220
0.0
230
1.0
  0
LINE
  5
207
100
AcDbEntity
  8
0
370
    35
390
0
 62
     7
 48
0.000048
100
AcDbLine
 10
1.708373
 20
5.28033
 30
0.0
 11
1.710272
 21
5.280408
 31
0.0
210
0.0
220
0.0
230
1.0
  0
LINE
  5
208
100
AcDbEntity
  8
0
370
    35
390
0
 62
     7
 48
0.000019
100
AcDbLine
 10
1.710272
 20
5.280408
 30
0.0
 11
1.710154
 21
5.281167
 31
0.0
210
0.0
220
0.0
230
1.0
  0
LINE
  5
209
100
AcDbEntity
  8
0
370
    35
390
0
 62
     7
 48
0.000019
100
AcDbLine
 10
1.710154
 20
5.281167
 30
0.0
 11
1.710021
 21
5.281908
 31
0.0
210
0.0
220
0.0
230
1.0
  0
LINE
  5
20A
100
AcDbEntity
  8
0
370
    35
390
0
 62
     7
 48
0.000018
100
AcDbLine
 10
1.710021
 20
5.281908
 30
0.0
 11
1.709875
 21
5.282629
 31
0.0
210
0.0
220
0.0
230
1.0
  0
LINE
  5
20B
100
AcDbEntity
  8
0
370
    35
390
0
 62
     7
 48
0.000018
100
AcDbLine
 10
1.709875
 20
5.282629
 30
0.0
 11
1.709715
 21
5.283331
 31
0.0
210
0.0
220
0.0
230
1.0
  0
LINE
  5
20C
100
AcDbEntity
  8
0
370
    35
390
0
 62
     7
 48
0.000018
100
AcDbLine
 10
1.709715
 20
5.283331
 30
0.0
 11
1.709542
 21
5.284013
 31
0.0
210
0.0
220
0.0
230
1.0
  0
LINE
  5
20D
100
AcDbEntity
  8
0
370
    35
390
0
 62
     7
 48
0.000024
100
AcDbLine
 10
1.709542
 20
5.284013
 30
0.0
 11
1.709277
 21
5.284925
 31
0.0
210
0.0
220
0.0
230
1.0
  0
LINE
  5
20E
100
AcDbEntity
  8
0
370
    35
390
0
 62
     7
 48
0.000022
100
AcDbLine
 10
1.709277
 20
5.284925
 30
0.0
 11
1.708988
 21
5.285774
 31
0.0
210
0.0
220
0.0
230
1.0
  0
LINE
  5
20F
100
AcDbEntity
  8
0
370
    35
390
0
 62
     7
 48
0.000021
100
AcDbLine
 10
1.708988
 20
5.285774
 30
0.0
 11
1.708674
 21
5.28656
 31
0.0
210
0.0
220
0.0
230
1.0
  0
LINE
  5
210
100
AcDbEntity
  8
0
370
    35
390
0
 62
     7
 48
0.00002
100
AcDbLine
 10
1.708674
 20
5.28656
 30
0.0
 11
1.708336
 21
5.287283
 31
0.0
210
0.0
220
0.0
230
1.0
  0
LINE
  5
211
100
AcDbEntity
  8
0
370
    35
390
0
 62
     7
 48
0.000019
100
AcDbLine
 10
1.708336
 20
5.287283
 30
0.0
 11
1.707974
 21
5.287944
 31
0.0
210
0.0
220
0.0
230
1.0
  0
LINE
  5
212
100
AcDbEntity
  8
0
370
    35
390
0
 62
     7
 48
0.000018
100
AcDbLine
 10
1.707974
 20
5.287944
 30
0.0
 11
1.707588
 21
5.288541
 31
0.0
210
0.0
220
0.0
230
1.0
  0
LINE
  5
213
100
AcDbEntity
  8
0
370
    35
390
0
 62
     7
 48
0.000017
100
AcDbLine
 10
1.707588
 20
5.288541
 30
0.0
 11
1.707177
 21
5.289075
 31
0.0
210
0.0
220
0.0
230
1.0
  0
LINE
  5
214
100
AcDbEntity
  8
0
370
    35
390
0
 62
     7
 48
0.000016
100
AcDbLine
 10
1.707177
 20
5.289075
 30
0.0
 11
1.706742
 21
5.289546
 31
0.0
210
0.0
220
0.0
230
1.0
  0
LINE
  5
215
100
AcDbEntity
  8
0
370
    35
390
0
 62
     7
 48
0.000015
100
AcDbLine
 10
1.706742
 20
5.289546
 30
0.0
 11
1.706283
 21
5.289955
 31
0.0
210
0.0
220
0.0
230
1.0
  0
LINE
  5
216
100
AcDbEntity
  8
0
370
    35
390
0
 62
     7
 48
0.000015
100
AcDbLine
 10
1.706283
 20
5.289955
 30
0.0
 11
1.7058
 21
5.2903
 31
0.0
210
0.0
220
0.0
230
1.0
  0
LINE
  5
217
100
AcDbEntity
  8
0
370
    35
390
0
 62
     7
 48
0.000015
100
AcDbLine
 10
1.7058
 20
5.2903
 30
0.0
 11
1.705282
 21
5.290588
 31
0.0
210
0.0
220
0.0
230
1.0
  0
LINE
  5
218
100
AcDbEntity
  8
0
370
    35
390
0
 62
     7
 48
0.000015
100
AcDbLine
 10
1.705282
 20
5.290588
 30
0.0
 11
1.704722
 21
5.290825
 31
0.0
210
0.0
220
0.0
230
1.0
  0
LINE
  5
219
100
AcDbEntity
  8
0
370
    35
390
0
 62
     7
 48
0.000016
100
AcDbLine
 10
1.704722
 20
5.290825
 30
0.0
 11
1.704119
 21
5.29101
 31
0.0
210
0.0
220
0.0
230
1.0
  0
LINE
  5
21A
100
AcDbEntity
  8
0
370
    35
390
0
 62
     7
 48
0.000017
100
AcDbLine
 10
1.704119
 20
5.29101
 30
0.0
 11
1.703473
 21
5.291144
 31
0.0
210
0.0
220
0.0
230
1.0
  0
LINE
  5
21B
100
AcDbEntity
  8
0
370
    35
390
0
 62
     7
 48
0.000017
100
AcDbLine
 10
1.703473
 20
5.291144
 30
0.0
 11
1.702784
 21
5.291226
 31
0.0
210
0.0
220
0.0
230
1.0
  0
LINE
  5
21C
100
AcDbEntity
  8
0
370
    35
390
0
 62
     7
 48
0.000018
100
AcDbLine
 10
1.702784
 20
5.291226
 30
0.0
 11
1.702051
 21
5.291257
 31
0.0
210
0.0
220
0.0
230
1.0
  0
LINE
  5
21D
100
AcDbEntity
  8
0
370
    35
390
0
 62
     7
 48
0.000019
100
AcDbLine
 10
1.702051
 20
5.291257
 30
0.0
 11
1.701276
 21
5.291236
 31
0.0
210
0.0
220
0.0
230
1.0
  0
LINE
  5
21E
100
AcDbEntity
  8
0
370
    35
390
0
 62
     7
 48
0.000021
100
AcDbLine
 10
1.701276
 20
5.291236
 30
0.0
 11
1.700458
 21
5.291164
 31
0.0
210
0.0
220
0.0
230
1.0
  0
LINE
  5
21F
100
AcDbEntity
  8
0
370
    35
390
0
 62
     7
 48
0.000022
100
AcDbLine
 10
1.700458
 20
5.291164
 30
0.0
 11
1.699596
 21
5.29104
 31
0.0
210
0.0
220
0.0
230
1.0
  0
LINE
  5
220
100
AcDbEntity
  8
0
370
    35
390
0
 62
     7
 48
0.000023
100
AcDbLine
 10
1.699596
 20
5.29104
 30
0.0
 11
1.698692
 21
5.290864
 31
0.0
210
0.0
220
0.0
230
1.0
  0
LINE
  5
221
100
AcDbEntity
  8
0
370
    35
390
0
 62
     7
 48
0.000033
100
AcDbLine
 10
1.698692
 20
5.290864
 30
0.0
 11
1.699514
 21
5.291911
 31
0.0
210
0.0
220
0.0
230
1.0
  0
LINE
  5
222
100
AcDbEntity
  8
0
370
    35
390
0
 62
     7
 48
0.000029
100
AcDbLine
 10
1.699514
 20
5.291911
 30
0.0
 11
1.700467
 21
5.292558
 31
0.0
210
0.0
220
0.0
230
1.0
  0
LINE
  5
223
100
AcDbEntity
  8
0
370
    35
390
0
 62
     7
 48
0.00003
100
AcDbLine
 10
1.700467
 20
5.292558
 30
0.0
 11
1.701435
 21
5.293247
 31
0.0
210
0.0
220
0.0
230
1.0
  0
LINE
  5
224
100
AcDbEntity
  8
0
370
    35
390
0
 62
     7
 48
0.000031
100
AcDbLine
 10
1.701435
 20
5.293247
 30
0.0
 11
1.702417
 21
5.293976
 31
0.0
210
0.0
220
0.0
230
1.0
  0
LINE
  5
225
100
AcDbEntity
  8
0
370
    35
390
0
 62
     7
 48
0.000031
100
AcDbLine
 10
1.702417
 20
5.293976
 30
0.0
 11
1.703413
 21
5.294745
 31
0.0
210
0.0
220
0.0
230
1.0
  0
LINE
  5
226
100
AcDbEntity
  8
0
370
    35
390
0
 62
     7
 48
0.000032
100
AcDbLine
 10
1.703413
 20
5.294745
 30
0.0
 11
1.704423
 21
5.295556
 31
0.0
210
0.0
220
0.0
230
1.0
  0
LINE
  5
227
100
AcDbEntity
  8
0
370
    35
390
0
 62
     7
 48
0.000033
100
AcDbLine
 10
1.704423
 20
5.295556
 30
0.0
 11
1.705448
 21
5.296407
 31
0.0
210
0.0
220
0.0
230
1.0
  0
LINE
  5
228
100
AcDbEntity
  8
0
370
    35
390
0
 62
     7
 48
0.000034
100
AcDbLine
 10
1.705448
 20
5.296407
 30
0.0
 11
1.706487
 21
5.297299
 31
0.0
210
0.0
220
0.0
230
1.0
  0
LINE
  5
229
100
AcDbEntity
  8
0
370
    35
390
0
 62
     7
 48
0.000035
100
AcDbLine
 10
1.706487
 20
5.297299
 30
0.0
 11
1.70754
 21
5.298231
 31
0.0
210
0.0
220
0.0
230
1.0
  0
LINE
  5
22A
100
AcDbEntity
  8
0
370
    35
390
0
 62
     7
 48
0.000036
100
AcDbLine
 10
1.70754
 20
5.298231
 30
0.0
 11
1.708606
 21
5.299204
 31
0.0
210
0.0
220
0.0
230
1.0
  0
LINE
  5
22B
100
AcDbEntity
  8
0
370
    35
390
0
 62
     7
 48
0.001134
100
AcDbLine
 10
1.708606
 20
5.299204
 30
0.0
 11
1.72071
 21
5.255496
 31
0.0
210
0.0
220
0.0
230
1.0
  0
LINE
  5
22C
100
AcDbEntity
  8
0
370
    35
390
0
 62
     7
 48
0.000015
100
AcDbLine
 10
1.72071
 20
5.255496
 30
0.0
 11
1.720116
 21
5.25563
 31
0.0
210
0.0
220
0.0
230
1.0
  0
LINE
  5
22D
100
AcDbEntity
  8
0
370
    35
390
0
 62
     7
 48
0.000024
100
AcDbLine
 10
1.718202
 20
5.252898
 30
0.0
 11
1.717294
 21
5.253204
 31
0.0
210
0.0
220
0.0
230
1.0
  0
LINE
  5
22E
100
AcDbEntity
  8
0
370
    35
390
0
 62
     7
 48
0.000026
100
AcDbLine
 10
1.717294
 20
5.253204
 30
0.0
 11
1.7163
 21
5.253492
 31
0.0
210
0.0
220
0.0
230
1.0
  0
LINE
  5
22F
100
AcDbEntity
  8
0
370
    35
390
0
 62
     7
 48
0.000028
100
AcDbLine
 10
1.7163
 20
5.253492
 30
0.0
 11
1.715219
 21
5.253763
 31
0.0
210
0.0
220
0.0
230
1.0
  0
LINE
  5
230
100
AcDbEntity
  8
0
370
    35
390
0
 62
     7
 48
0.00003
100
AcDbLine
 10
1.715219
 20
5.253763
 30
0.0
 11
1.714052
 21
5.254015
 31
0.0
210
0.0
220
0.0
230
1.0
  0
LINE
  5
231
100
AcDbEntity
  8
0
370
    35
390
0
 62
     7
 48
0.000032
100
AcDbLine
 10
1.714052
 20
5.254015
 30
0.0
 11
1.712799
 21
5.254251
 31
0.0
210
0.0
220
0.0
230
1.0
  0
LINE
  5
232
100
AcDbEntity
  8
0
370
    35
390
0
 62
     7
 48
0.000034
100
AcDbLine
 10
1.712799
 20
5.254251
 30
0.0
 11
1.71146
 21
5.254469
 31
0.0
210
0.0
220
0.0
230
1.0
  0
LINE
  5
233
100
AcDbEntity
  8
0
370
    35
390
0
 62
     7
 48
0.000036
100
AcDbLine
 10
1.71146
 20
5.254469
 30
0.0
 11
1.710035
 21
5.254669
 31
0.0
210
0.0
220
0.0
230
1.0
  0
LINE
  5
234
100
AcDbEntity
  8
0
370
    35
390
0
 62
     7
 48
0.000038
100
AcDbLine
 10
1.710035
 20
5.254669
 30
0.0
 11
1.708523
 21
5.254851
 31
0.0
210
0.0
220
0.0
230
1.0
  0
LINE
  5
235
100
AcDbEntity
  8
0
370
    35
390
0
 62
     7
 48
0.00004
100
AcDbLine
 10
1.708523
 20
5.254851
 30
0.0
 11
1.706926
 21
5.255016
 31
0.0
210
0.0
220
0.0
230
1.0
  0
LINE
  5
236
100
AcDbEntity
  8
0
370
    35
390
0
 62
     7
 48
0.000026
100
AcDbLine
 10
1.706926
 20
5.255016
 30
0.0
 11
1.707
 21
5.256055
 31
0.0
210
0.0
220
0.0
230
1.0
  0
LINE
  5
237
100
AcDbEntity
  8
0
370
    35
390
0
 62
     7
 48
0.000049
100
AcDbLine
 10
1.707
 20
5.256055
 30
0.0
 11
1.708971
 21
5.255887
 31
0.0
210
0.0
220
0.0
230
1.0
  0
LINE
  5
238
100
AcDbEntity
  8
0
370
    35
390
0
 62
     7
 48
0.000038
100
AcDbLine
 10
1.708971
 20
5.255887
 30
0.0
 11
1.71049
 21
5.255721
 31
0.0
210
0.0
220
0.0
230
1.0
  0
LINE
  5
239
100
AcDbEntity
  8
0
370
    35
390
0
 62
     7
 48
0.000036
100
AcDbLine
 10
1.71049
 20
5.255721
 30
0.0
 11
1.711916
 21
5.255532
 31
0.0
210
0.0
220
0.0
230
1.0
  0
LINE
  5
23A
100
AcDbEntity
  8
0
370
    35
390
0
 62
     7
 48
0.000034
100
AcDbLine
 10
1.711916
 20
5.255532
 30
0.0
 11
1.713249
 21
5.255323
 31
0.0
210
0.0
220
0.0
230
1.0
  0
LINE
  5
23B
100
AcDbEntity
  8
0
370
    35
390
0
 62
     7
 48
0.000032
100
AcDbLine
 10
1.713249
 20
5.255323
 30
0.0
 11
1.714489
 21
5.255093
 31
0.0
210
0.0
220
0.0
230
1.0
  0
LINE
  5
23C
100
AcDbEntity
  8
0
370
    35
390
0
 62
     7
 48
0.000029
100
AcDbLine
 10
1.714489
 20
5.255093
 30
0.0
 11
1.715635
 21
5.254841
 31
0.0
210
0.0
220
0.0
230
1.0
  0
LINE
  5
23D
100
AcDbEntity
  8
0
370
    35
390
0
 62
     7
 48
0.000027
100
AcDbLine
 10
1.715635
 20
5.254841
 30
0.0
 11
1.716689
 21
5.254569
 31
0.0
210
0.0
220
0.0
230
1.0
  0
LINE
  5
23E
100
AcDbEntity
  8
0
370
    35
390
0
 62
     7
 48
0.000025
100
AcDbLine
 10
1.716689
 20
5.254569
 30
0.0
 11
1.717649
 21
5.254276
 31
0.0
210
0.0
220
0.0
230
1.0
  0
LINE
  5
23F
100
AcDbEntity
  8
0
370
    35
390
0
 62
     7
 48
0.000023
100
AcDbLine
 10
1.717649
 20
5.254276
 30
0.0
 11
1.718517
 21
5.253962
 31
0.0
210
0.0
220
0.0
230
1.0
  0
LINE
  5
240
100
AcDbEntity
  8
0
370
    35
390
0
 62
     7
 48
0.000021
100
AcDbLine
 10
1.718517
 20
5.253962
 30
0.0
 11
1.719291
 21
5.253626
 31
0.0
210
0.0
220
0.0
230
1.0
  0
LINE
  5
241
100
AcDbEntity
  8
0
370
    35
390
0
 62
     7
 48
0.000027
100
AcDbLine
 10
1.719291
 20
5.253626
 30
0.0
 11
1.719024
 21
5.252575
 31
0.0
210
0.0
220
0.0
230
1.0
  0
LINE
  5
242
100
AcDbEntity
  8
0
370
    35
390
0
 62
     7
 48
0.000022
100
AcDbLine
 10
1.719024
 20
5.252575
 30
0.0
 11
1.718202
 21
5.252898
 31
0.0
210
0.0
220
0.0
230
1.0
  0
LINE
  5
243
100
AcDbEntity
  8
0
370
    35
390
0
 62
     7
 48
0.000017
100
AcDbLine
 10
1.710897
 20
5.261475
 30
0.0
 11
1.711049
 21
5.26215
 31
0.0
210
0.0
220
0.0
230
1.0
  0
LINE
  5
244
100
AcDbEntity
  8
0
370
    35
390
0
 62
     7
 48
0.000017
100
AcDbLine
 10
1.711049
 20
5.26215
 30
0.0
 11
1.71116
 21
5.262834
 31
0.0
210
0.0
220
0.0
230
1.0
  0
LINE
  5
245
100
AcDbEntity
  8
0
370
    35
390
0
 62
     7
 48
0.000017
100
AcDbLine
 10
1.71116
 20
5.262834
 30
0.0
 11
1.711229
 21
5.263528
 31
0.0
210
0.0
220
0.0
230
1.0
  0
LINE
  5
246
100
AcDbEntity
  8
0
370
    35
390
0
 62
     7
 48
0.000018
100
AcDbLine
 10
1.711229
 20
5.263528
 30
0.0
 11
1.711256
 21
5.26423
 31
0.0
210
0.0
220
0.0
230
1.0
  0
LINE
  5
247
100
AcDbEntity
  8
0
370
    35
390
0
 62
     7
 48
0.000018
100
AcDbLine
 10
1.711256
 20
5.26423
 30
0.0
 11
1.711242
 21
5.264942
 31
0.0
210
0.0
220
0.0
230
1.0
  0
LINE
  5
248
100
AcDbEntity
  8
0
370
    35
390
0
 62
     7
 48
0.000018
100
AcDbLine
 10
1.711242
 20
5.264942
 30
0.0
 11
1.711186
 21
5.265663
 31
0.0
210
0.0
220
0.0
230
1.0
  0
LINE
  5
249
100
AcDbEntity
  8
0
370
    35
390
0
 62
     7
 48
0.000018
100
AcDbLine
 10
1.711186
 20
5.265663
 30
0.0
 11
1.711088
 21
5.266393
 31
0.0
210
0.0
220
0.0
230
1.0
  0
LINE
  5
24A
100
AcDbEntity
  8
0
370
    35
390
0
 62
     7
 48
0.000019
100
AcDbLine
 10
1.711088
 20
5.266393
 30
0.0
 11
1.710949
 21
5.267133
 31
0.0
210
0.0
220
0.0
230
1.0
  0
LINE
  5
24B
100
AcDbEntity
  8
0
370
    35
390
0
 62
     7
 48
0.000019
100
AcDbLine
 10
1.710949
 20
5.267133
 30
0.0
 11
1.710768
 21
5.267881
 31
0.0
210
0.0
220
0.0
230
1.0
  0
LINE
  5
24C
100
AcDbEntity
  8
0
370
    35
390
0
 62
     7
 48
0.000013
100
AcDbLine
 10
1.710768
 20
5.267881
 30
0.0
 11
1.710621
 21
5.26839
 31
0.0
210
0.0
220
0.0
230
1.0
  0
LINE
  5
24D
100
AcDbEntity
  8
0
370
    35
390
0
 62
     7
 48
0.000014
100
AcDbLine
 10
1.710621
 20
5.26839
 30
0.0
 11
1.710451
 21
5.268906
 31
0.0
210
0.0
220
0.0
230
1.0
  0
LINE
  5
24E
100
AcDbEntity
  8
0
370
    35
390
0
 62
     7
 48
0.000014
100
AcDbLine
 10
1.710451
 20
5.268906
 30
0.0
 11
1.710258
 21
5.269431
 31
0.0
210
0.0
220
0.0
230
1.0
  0
LINE
  5
24F
100
AcDbEntity
  8
0
370
    35
390
0
 62
     7
 48
0.000952
100
AcDbLine
 10
1.710258
 20
5.269431
 30
0.0
 11
1.673478
 21
5.259614
 31
0.0
210
0.0
220
0.0
230
1.0
  0
LINE
  5
250
100
AcDbEntity
  8
0
370
    35
390
0
 62
     7
 48
0.000233
100
AcDbLine
 10
1.673478
 20
5.259614
 30
0.0
 11
1.668162
 21
5.251958
 31
0.0
210
0.0
220
0.0
230
1.0
  0
LINE
  5
251
100
AcDbEntity
  8
0
370
    35
390
0
 62
     7
 48
0.000484
100
AcDbLine
 10
1.668162
 20
5.251958
 30
0.0
 11
1.663155
 21
5.270643
 31
0.0
210
0.0
220
0.0
230
1.0
  0
LINE
  5
252
100
AcDbEntity
  8
0
370
    35
390
0
 62
     7
 48
0.000034
100
AcDbLine
 10
1.663155
 20
5.270643
 30
0.0
 11
1.663917
 21
5.271749
 31
0.0
210
0.0
220
0.0
230
1.0
  0
LINE
  5
253
100
AcDbEntity
  8
0
370
    35
390
0
 62
     7
 48
0.000453
100
AcDbLine
 10
1.663917
 20
5.271749
 30
0.0
 11
1.66861
 21
5.254234
 31
0.0
210
0.0
220
0.0
230
1.0
  0
LINE
  5
254
100
AcDbEntity
  8
0
370
    35
390
0
 62
     7
 48
0.000192
100
AcDbLine
 10
1.66861
 20
5.254234
 30
0.0
 11
1.672892
 21
5.260633
 31
0.0
210
0.0
220
0.0
230
1.0
  0
LINE
  5
255
100
AcDbEntity
  8
0
370
    35
390
0
 62
     7
 48
0.000986
100
AcDbLine
 10
1.672892
 20
5.260633
 30
0.0
 11
1.710994
 21
5.270842
 31
0.0
210
0.0
220
0.0
230
1.0
  0
LINE
  5
256
100
AcDbEntity
  8
0
370
    35
390
0
 62
     7
 48
0.000051
100
AcDbLine
 10
1.710994
 20
5.270842
 30
0.0
 11
1.71156
 21
5.268877
 31
0.0
210
0.0
220
0.0
230
1.0
  0
LINE
  5
257
100
AcDbEntity
  8
0
370
    35
390
0
 62
     7
 48
0.000018
100
AcDbLine
 10
1.71156
 20
5.268877
 30
0.0
 11
1.711738
 21
5.268187
 31
0.0
210
0.0
220
0.0
230
1.0
  0
LINE
  5
258
100
AcDbEntity
  8
0
370
    35
390
0
 62
     7
 48
0.000017
100
AcDbLine
 10
1.711738
 20
5.268187
 30
0.0
 11
1.711895
 21
5.267535
 31
0.0
210
0.0
220
0.0
230
1.0
  0
LINE
  5
259
100
AcDbEntity
  8
0
370
    35
390
0
 62
     7
 48
0.000016
100
AcDbLine
 10
1.711895
 20
5.267535
 30
0.0
 11
1.712029
 21
5.266921
 31
0.0
210
0.0
220
0.0
230
1.0
  0
LINE
  5
25A
100
AcDbEntity
  8
0
370
    35
390
0
 62
     7
 48
0.000015
100
AcDbLine
 10
1.712029
 20
5.266921
 30
0.0
 11
1.712141
 21
5.266346
 31
0.0
210
0.0
220
0.0
230
1.0
  0
LINE
  5
25B
100
AcDbEntity
  8
0
370
    35
390
0
 62
     7
 48
0.000014
100
AcDbLine
 10
1.712141
 20
5.266346
 30
0.0
 11
1.71223
 21
5.265809
 31
0.0
210
0.0
220
0.0
230
1.0
  0
LINE
  5
25C
100
AcDbEntity
  8
0
370
    35
390
0
 62
     7
 48
0.000024
100
AcDbLine
 10
1.71223
 20
5.265809
 30
0.0
 11
1.712341
 21
5.264849
 31
0.0
210
0.0
220
0.0
230
1.0
  0
LINE
  5
25D
100
AcDbEntity
  8
0
370
    35
390
0
 62
     7
 48
0.00002
100
AcDbLine
 10
1.712341
 20
5.264849
 30
0.0
 11
1.712363
 21
5.264043
 31
0.0
210
0.0
220
0.0
230
1.0
  0
LINE
  5
25E
100
AcDbEntity
  8
0
370
    35
390
0
 62
     7
 48
0.000017
100
AcDbLine
 10
1.712363
 20
5.264043
 30
0.0
 11
1.712293
 21
5.263375
 31
0.0
210
0.0
220
0.0
230
1.0
  0
LINE
  5
25F
100
AcDbEntity
  8
0
370
    35
390
0
 62
     7
 48
0.000016
100
AcDbLine
 10
1.712293
 20
5.263375
 30
0.0
 11
1.712121
 21
5.262752
 31
0.0
210
0.0
220
0.0
230
1.0
  0
LINE
  5
260
100
AcDbEntity
  8
0
370
    35
390
0
 62
     7
 48
0.000016
100
AcDbLine
 10
1.712121
 20
5.262752
 30
0.0
 11
1.711846
 21
5.262159
 31
0.0
210
0.0
220
0.0
230
1.0
  0
LINE
  5
261
100
AcDbEntity
  8
0
370
    35
390
0
 62
     7
 48
0.000017
100
AcDbLine
 10
1.711846
 20
5.262159
 30
0.0
 11
1.711467
 21
5.261597
 31
0.0
210
0.0
220
0.0
230
1.0
  0
LINE
  5
262
100
AcDbEntity
  8
0
370
    35
390
0
 62
     7
 48
0.000018
100
AcDbLine
 10
1.711467
 20
5.261597
 30
0.0
 11
1.710984
 21
5.261065
 31
0.0
210
0.0
220
0.0
230
1.0
  0
LINE
  5
263
100
AcDbEntity
  8
0
370
    35
390
0
 62
     7
 48
0.000009
100
AcDbLine
 10
1.710984
 20
5.261065
 30
0.0
 11
1.710703
 21
5.26081
 31
0.0
210
0.0
220
0.0
230
1.0
  0
LINE
  5
264
100
AcDbEntity
  8
0
370
    35
390
0
 62
     7
 48
0.000017
100
AcDbLine
 10
1.710703
 20
5.26081
 30
0.0
 11
1.710897
 21
5.261475
 31
0.0
210
0.0
220
0.0
230
1.0
  0
LINE
  5
265
100
AcDbEntity
  8
0
370
    35
390
0
 62
     7
 48
0.000019
100
AcDbLine
 10
1.731782
 20
5.214176
 30
0.0
 11
1.731077
 21
5.21446
 31
0.0
210
0.0
220
0.0
230
1.0
  0
LINE
  5
266
100
AcDbEntity
  8
0
370
    35
390
0
 62
     7
 48
0.000018
100
AcDbLine
 10
1.731077
 20
5.21446
 30
0.0
 11
1.730404
 21
5.214724
 31
0.0
210
0.0
220
0.0
230
1.0
  0
LINE
  5
267
100
AcDbEntity
  8
0
370
    35
390
0
 62
     7
 48
0.000017
100
AcDbLine
 10
1.730404
 20
5.214724
 30
0.0
 11
1.729765
 21
5.214969
 31
0.0
210
0.0
220
0.0
230
1.0
  0
LINE
  5
268
100
AcDbEntity
  8
0
370
    35
390
0
 62
     7
 48
0.000016
100
AcDbLine
 10
1.729765
 20
5.214969
 30
0.0
 11
1.729157
 21
5.215194
 31
0.0
210
0.0
220
0.0
230
1.0
  0
LINE
  5
269
100
AcDbEntity
  8
0
370
    35
390
0
 62
     7
 48
0.000015
100
AcDbLine
 10
1.729157
 20
5.215194
 30
0.0
 11
1.728583
 21
5.215401
 31
0.0
210
0.0
220
0.0
230
1.0
  0
LINE
  5
26A
100
AcDbEntity
  8
0
370
    35
390
0
 62
     7
 48
0.000014
100
AcDbLine
 10
1.728583
 20
5.215401
 30
0.0
 11
1.728041
 21
5.215589
 31
0.0
210
0.0
220
0.0
230
1.0
  0
LINE
  5
26B
100
AcDbEntity
  8
0
370
    35
390
0
 62
     7
 48
0.000013
100
AcDbLine
 10
1.728041
 20
5.215589
 30
0.0
 11
1.727531
 21
5.215758
 31
0.0
210
0.0
220
0.0
230
1.0
  0
LINE
  5
26C
100
AcDbEntity
  8
0
370
    35
390
0
 62
     7
 48
0.000024
100
AcDbLine
 10
1.727531
 20
5.215758
 30
0.0
 11
1.726609
 21
5.216037
 31
0.0
210
0.0
220
0.0
230
1.0
  0
LINE
  5
26D
100
AcDbEntity
  8
0
370
    35
390
0
 62
     7
 48
0.000021
100
AcDbLine
 10
1.726609
 20
5.216037
 30
0.0
 11
1.72578
 21
5.21625
 31
0.0
210
0.0
220
0.0
230
1.0
  0
LINE
  5
26E
100
AcDbEntity
  8
0
370
    35
390
0
 62
     7
 48
0.000025
100
AcDbLine
 10
1.72578
 20
5.21625
 30
0.0
 11
1.72481
 21
5.216451
 31
0.0
210
0.0
220
0.0
230
1.0
  0
LINE
  5
26F
100
AcDbEntity
  8
0
370
    35
390
0
 62
     7
 48
0.000014
100
AcDbLine
 10
1.72481
 20
5.216451
 30
0.0
 11
1.724259
 21
5.216551
 31
0.0
210
0.0
220
0.0
230
1.0
  0
LINE
  5
270
100
AcDbEntity
  8
0
370
    35
390
0
 62
     7
 48
0.000015
100
AcDbLine
 10
1.724259
 20
5.216551
 30
0.0
 11
1.723662
 21
5.21665
 31
0.0
210
0.0
220
0.0
230
1.0
  0
LINE
  5
271
100
AcDbEntity
  8
0
370
    35
390
0
 62
     7
 48
0.000016
100
AcDbLine
 10
1.723662
 20
5.21665
 30
0.0
 11
1.723022
 21
5.216749
 31
0.0
210
0.0
220
0.0
230
1.0
  0
LINE
  5
272
100
AcDbEntity
  8
0
370
    35
390
0
 62
     7
 48
0.000017
100
AcDbLine
 10
1.723022
 20
5.216749
 30
0.0
 11
1.722337
 21
5.216847
 31
0.0
210
0.0
220
0.0
230
1.0
  0
LINE
  5
273
100
AcDbEntity
  8
0
370
    35
390
0
 62
     7
 48
0.000018
100
AcDbLine
 10
1.722337
 20
5.216847
 30
0.0
 11
1.721607
 21
5.216944
 31
0.0
210
0.0
220
0.0
230
1.0
  0
LINE
  5
274
100
AcDbEntity
  8
0
370
    35
390
0
 62
     7
 48
0.000019
100
AcDbLine
 10
1.721607
 20
5.216944
 30
0.0
 11
1.720834
 21
5.217041
 31
0.0
210
0.0
220
0.0
230
1.0
  0
LINE
  5
275
100
AcDbEntity
  8
0
370
    35
390
0
 62
     7
 48
0.000021
100
AcDbLine
 10
1.720834
 20
5.217041
 30
0.0
 11
1.720015
 21
5.217137
 31
0.0
210
0.0
220
0.0
230
1.0
  0
LINE
  5
276
100
AcDbEntity
  8
0
370
    35
390
0
 62
     7
 48
0.00002
100
AcDbLine
 10
1.720015
 20
5.217137
 30
0.0
 11
1.719205
 21
5.217234
 31
0.0
210
0.0
220
0.0
230
1.0
  0
LINE
  5
277
100
AcDbEntity
  8
0
370
    35
390
0
 62
     7
 48
0.000028
100
AcDbLine
 10
1.719205
 20
5.217234
 30
0.0
 11
1.720035
 21
5.217973
 31
0.0
210
0.0
220
0.0
230
1.0
  0
LINE
  5
278
100
AcDbEntity
  8
0
370
    35
390
0
 62
     7
 48
0.000026
100
AcDbLine
 10
1.720035
 20
5.217973
 30
0.0
 11
1.720796
 21
5.218692
 31
0.0
210
0.0
220
0.0
230
1.0
  0
LINE
  5
279
100
AcDbEntity
  8
0
370
    35
390
0
 62
     7
 48
0.000025
100
AcDbLine
 10
1.720796
 20
5.218692
 30
0.0
 11
1.721486
 21
5.219392
 31
0.0
210
0.0
220
0.0
230
1.0
  0
LINE
  5
27A
100
AcDbEntity
  8
0
370
    35
390
0
 62
     7
 48
0.000023
100
AcDbLine
 10
1.721486
 20
5.219392
 30
0.0
 11
1.722107
 21
5.220071
 31
0.0
210
0.0
220
0.0
230
1.0
  0
LINE
  5
27B
100
AcDbEntity
  8
0
370
    35
390
0
 62
     7
 48
0.000021
100
AcDbLine
 10
1.722107
 20
5.220071
 30
0.0
 11
1.722658
 21
5.220731
 31
0.0
210
0.0
220
0.0
230
1.0
  0
LINE
  5
27C
100
AcDbEntity
  8
0
370
    35
390
0
 62
     7
 48
0.00002
100
AcDbLine
 10
1.722658
 20
5.220731
 30
0.0
 11
1.723138
 21
5.221371
 31
0.0
210
0.0
220
0.0
230
1.0
  0
LINE
  5
27D
100
AcDbEntity
  8
0
370
    35
390
0
 62
     7
 48
0.000019
100
AcDbLine
 10
1.723138
 20
5.221371
 30
0.0
 11
1.723549
 21
5.22199
 31
0.0
210
0.0
220
0.0
230
1.0
  0
LINE
  5
27E
100
AcDbEntity
  8
0
370
    35
390
0
 62
     7
 48
0.000017
100
AcDbLine
 10
1.723549
 20
5.22199
 30
0.0
 11
1.72389
 21
5.22259
 31
0.0
210
0.0
220
0.0
230
1.0
  0
LINE
  5
27F
100
AcDbEntity
  8
0
370
    35
390
0
 62
     7
 48
0.000016
100
AcDbLine
 10
1.72389
 20
5.22259
 30
0.0
 11
1.724161
 21
5.22317
 31
0.0
210
0.0
220
0.0
230
1.0
  0
LINE
  5
280
100
AcDbEntity
  8
0
370
    35
390
0
 62
     7
 48
0.000015
100
AcDbLine
 10
1.724161
 20
5.22317
 30
0.0
 11
1.724362
 21
5.22373
 31
0.0
210
0.0
220
0.0
230
1.0
  0
LINE
  5
281
100
AcDbEntity
  8
0
370
    35
390
0
 62
     7
 48
0.000015
100
AcDbLine
 10
1.724362
 20
5.22373
 30
0.0
 11
1.724505
 21
5.224308
 31
0.0
210
0.0
220
0.0
230
1.0
  0
LINE
  5
282
100
AcDbEntity
  8
0
370
    35
390
0
 62
     7
 48
0.000016
100
AcDbLine
 10
1.724505
 20
5.224308
 30
0.0
 11
1.724601
 21
5.224944
 31
0.0
210
0.0
220
0.0
230
1.0
  0
LINE
  5
283
100
AcDbEntity
  8
0
370
    35
390
0
 62
     7
 48
0.000017
100
AcDbLine
 10
1.724601
 20
5.224944
 30
0.0
 11
1.724651
 21
5.225636
 31
0.0
210
0.0
220
0.0
230
1.0
  0
LINE
  5
284
100
AcDbEntity
  8
0
370
    35
390
0
 62
     7
 48
0.000019
100
AcDbLine
 10
1.724651
 20
5.225636
 30
0.0
 11
1.724654
 21
5.226385
 31
0.0
210
0.0
220
0.0
230
1.0
  0
LINE
  5
285
100
AcDbEntity
  8
0
370
    35
390
0
 62
     7
 48
0.00002
100
AcDbLine
 10
1.724654
 20
5.226385
 30
0.0
 11
1.72461
 21
5.227192
 31
0.0
210
0.0
220
0.0
230
1.0
  0
LINE
  5
286
100
AcDbEntity
  8
0
370
    35
390
0
 62
     7
 48
0.000022
100
AcDbLine
 10
1.72461
 20
5.227192
 30
0.0
 11
1.72452
 21
5.228055
 31
0.0
210
0.0
220
0.0
230
1.0
  0
LINE
  5
287
100
AcDbEntity
  8
0
370
    35
390
0
 62
     7
 48
0.000023
100
AcDbLine
 10
1.72452
 20
5.228055
 30
0.0
 11
1.724383
 21
5.228975
 31
0.0
210
0.0
220
0.0
230
1.0
  0
LINE
  5
288
100
AcDbEntity
  8
0
370
    35
390
0
 62
     7
 48
0.000025
100
AcDbLine
 10
1.724383
 20
5.228975
 30
0.0
 11
1.7242
 21
5.229951
 31
0.0
210
0.0
220
0.0
230
1.0
  0
LINE
  5
289
100
AcDbEntity
  8
0
370
    35
390
0
 62
     7
 48
0.000026
100
AcDbLine
 10
1.7242
 20
5.229951
 30
0.0
 11
1.72397
 21
5.230985
 31
0.0
210
0.0
220
0.0
230
1.0
  0
LINE
  5
28A
100
AcDbEntity
  8
0
370
    35
390
0
 62
     7
 48
0.000028
100
AcDbLine
 10
1.72397
 20
5.230985
 30
0.0
 11
1.723694
 21
5.232075
 31
0.0
210
0.0
220
0.0
230
1.0
  0
LINE
  5
28B
100
AcDbEntity
  8
0
370
    35
390
0
 62
     7
 48
0.000054
100
AcDbLine
 10
1.723694
 20
5.232075
 30
0.0
 11
1.723099
 21
5.23415
 31
0.0
210
0.0
220
0.0
230
1.0
  0
LINE
  5
28C
100
AcDbEntity
  8
0
370
    35
390
0
 62
     7
 48
0.000092
100
AcDbLine
 10
1.723099
 20
5.23415
 30
0.0
 11
1.722185
 21
5.237706
 31
0.0
210
0.0
220
0.0
230
1.0
  0
LINE
  5
28D
100
AcDbEntity
  8
0
370
    35
390
0
 62
     7
 48
0.000035
100
AcDbLine
 10
1.722185
 20
5.237706
 30
0.0
 11
1.721859
 21
5.239069
 31
0.0
210
0.0
220
0.0
230
1.0
  0
LINE
  5
28E
100
AcDbEntity
  8
0
370
    35
390
0
 62
     7
 48
0.000443
100
AcDbLine
 10
1.721859
 20
5.239069
 30
0.0
 11
1.704746
 21
5.234484
 31
0.0
210
0.0
220
0.0
230
1.0
  0
LINE
  5
28F
100
AcDbEntity
  8
0
370
    35
390
0
 62
     7
 48
0.000058
100
AcDbLine
 10
1.704746
 20
5.234484
 30
0.0
 11
1.705344
 21
5.232253
 31
0.0
210
0.0
220
0.0
230
1.0
  0
LINE
  5
290
100
AcDbEntity
  8
0
370
    35
390
0
 62
     7
 48
0.000391
100
AcDbLine
 10
1.705344
 20
5.232253
 30
0.0
 11
1.720445
 21
5.236299
 31
0.0
210
0.0
220
0.0
230
1.0
  0
LINE
  5
291
100
AcDbEntity
  8
0
370
    35
390
0
 62
     7
 48
0.000027
100
AcDbLine
 10
1.720445
 20
5.236299
 30
0.0
 11
1.720766
 21
5.235249
 31
0.0
210
0.0
220
0.0
230
1.0
  0
LINE
  5
292
100
AcDbEntity
  8
0
370
    35
390
0
 62
     7
 48
0.000024
100
AcDbLine
 10
1.720766
 20
5.235249
 30
0.0
 11
1.721052
 21
5.234341
 31
0.0
210
0.0
220
0.0
230
1.0
  0
LINE
  5
293
100
AcDbEntity
  8
0
370
    35
390
0
 62
     7
 48
0.000024
100
AcDbLine
 10
1.721052
 20
5.234341
 30
0.0
 11
1.721335
 21
5.233408
 31
0.0
210
0.0
220
0.0
230
1.0
  0
LINE
  5
294
100
AcDbEntity
  8
0
370
    35
390
0
 62
     7
 48
0.000025
100
AcDbLine
 10
1.721335
 20
5.233408
 30
0.0
 11
1.721615
 21
5.232448
 31
0.0
210
0.0
220
0.0
230
1.0
  0
LINE
  5
295
100
AcDbEntity
  8
0
370
    35
390
0
 62
     7
 48
0.000026
100
AcDbLine
 10
1.721615
 20
5.232448
 30
0.0
 11
1.721894
 21
5.231463
 31
0.0
210
0.0
220
0.0
230
1.0
  0
LINE
  5
296
100
AcDbEntity
  8
0
370
    35
390
0
 62
     7
 48
0.000026
100
AcDbLine
 10
1.721894
 20
5.231463
 30
0.0
 11
1.722169
 21
5.230451
 31
0.0
210
0.0
220
0.0
230
1.0
  0
LINE
  5
297
100
AcDbEntity
  8
0
370
    35
390
0
 62
     7
 48
0.000037
100
AcDbLine
 10
1.722169
 20
5.230451
 30
0.0
 11
1.722515
 21
5.229005
 31
0.0
210
0.0
220
0.0
230
1.0
  0
LINE
  5
298
100
AcDbEntity
  8
0
370
    35
390
0
 62
     7
 48
0.000034
100
AcDbLine
 10
1.722515
 20
5.229005
 30
0.0
 11
1.722754
 21
5.22765
 31
0.0
210
0.0
220
0.0
230
1.0
  0
LINE
  5
299
100
AcDbEntity
  8
0
370
    35
390
0
 62
     7
 48
0.000032
100
AcDbLine
 10
1.722754
 20
5.22765
 30
0.0
 11
1.722885
 21
5.226386
 31
0.0
210
0.0
220
0.0
230
1.0
  0
LINE
  5
29A
100
AcDbEntity
  8
0
370
    35
390
0
 62
     7
 48
0.000029
100
AcDbLine
 10
1.722885
 20
5.226386
 30
0.0
 11
1.722908
 21
5.225213
 31
0.0
210
0.0
220
0.0
230
1.0
  0
LINE
  5
29B
100
AcDbEntity
  8
0
370
    35
390
0
 62
     7
 48
0.000027
100
AcDbLine
 10
1.722908
 20
5.225213
 30
0.0
 11
1.722824
 21
5.224131
 31
0.0
210
0.0
220
0.0
230
1.0
  0
LINE
  5
29C
100
AcDbEntity
  8
0
370
    35
390
0
 62
     7
 48
0.000025
100
AcDbLine
 10
1.722824
 20
5.224131
 30
0.0
 11
1.722633
 21
5.22314
 31
0.0
210
0.0
220
0.0
230
1.0
  0
LINE
  5
29D
100
AcDbEntity
  8
0
370
    35
390
0
 62
     7
 48
0.000024
100
AcDbLine
 10
1.722633
 20
5.22314
 30
0.0
 11
1.722333
 21
5.222241
 31
0.0
210
0.0
220
0.0
230
1.0
  0
LINE
  5
29E
100
AcDbEntity
  8
0
370
    35
390
0
 62
     7
 48
0.000023
100
AcDbLine
 10
1.722333
 20
5.222241
 30
0.0
 11
1.721927
 21
5.221433
 31
0.0
210
0.0
220
0.0
230
1.0
  0
LINE
  5
29F
100
AcDbEntity
  8
0
370
    35
390
0
 62
     7
 48
0.000022
100
AcDbLine
 10
1.721927
 20
5.221433
 30
0.0
 11
1.721413
 21
5.220715
 31
0.0
210
0.0
220
0.0
230
1.0
  0
LINE
  5
2A0
100
AcDbEntity
  8
0
370
    35
390
0
 62
     7
 48
0.000022
100
AcDbLine
 10
1.721413
 20
5.220715
 30
0.0
 11
1.720791
 21
5.220089
 31
0.0
210
0.0
220
0.0
230
1.0
  0
LINE
  5
2A1
100
AcDbEntity
  8
0
370
    35
390
0
 62
     7
 48
0.000025
100
AcDbLine
 10
1.720791
 20
5.220089
 30
0.0
 11
1.721239
 21
5.22099
 31
0.0
210
0.0
220
0.0
230
1.0
  0
LINE
  5
2A2
100
AcDbEntity
  8
0
370
    35
390
0
 62
     7
 48
0.000024
100
AcDbLine
 10
1.721239
 20
5.22099
 30
0.0
 11
1.721591
 21
5.221893
 31
0.0
210
0.0
220
0.0
230
1.0
  0
LINE
  5
2A3
100
AcDbEntity
  8
0
370
    35
390
0
 62
     7
 48
0.000023
100
AcDbLine
 10
1.721591
 20
5.221893
 30
0.0
 11
1.721846
 21
5.222796
 31
0.0
210
0.0
220
0.0
230
1.0
  0
LINE
  5
2A4
100
AcDbEntity
  8
0
370
    35
390
0
 62
     7
 48
0.000023
100
AcDbLine
 10
1.721846
 20
5.222796
 30
0.0
 11
1.722006
 21
5.2237
 31
0.0
210
0.0
220
0.0
230
1.0
  0
LINE
  5
2A5
100
AcDbEntity
  8
0
370
    35
390
0
 62
     7
 48
0.000023
100
AcDbLine
 10
1.722006
 20
5.2237
 30
0.0
 11
1.72207
 21
5.224605
 31
0.0
210
0.0
220
0.0
230
1.0
  0
LINE
  5
2A6
100
AcDbEntity
  8
0
370
    35
390
0
 62
     7
 48
0.000025
100
AcDbLine
 10
1.72207
 20
5.224605
 30
0.0
 11
1.722037
 21
5.225596
 31
0.0
210
0.0
220
0.0
230
1.0
  0
LINE
  5
2A7
100
AcDbEntity
  8
0
370
    35
390
0
 62
     7
 48
0.000014
100
AcDbLine
 10
1.722037
 20
5.225596
 30
0.0
 11
1.721985
 21
5.226155
 31
0.0
210
0.0
220
0.0
230
1.0
  0
LINE
  5
2A8
100
AcDbEntity
  8
0
370
    35
390
0
 62
     7
 48
0.000015
100
AcDbLine
 10
1.721985
 20
5.226155
 30
0.0
 11
1.721907
 21
5.226756
 31
0.0
210
0.0
220
0.0
230
1.0
  0
LINE
  5
2A9
100
AcDbEntity
  8
0
370
    35
390
0
 62
     7
 48
0.000016
100
AcDbLine
 10
1.721907
 20
5.226756
 30
0.0
 11
1.721806
 21
5.2274
 31
0.0
210
0.0
220
0.0
230
1.0
  0
LINE
  5
2AA
100
AcDbEntity
  8
0
370
    35
390
0
 62
     7
 48
0.000017
100
AcDbLine
 10
1.721806
 20
5.2274
 30
0.0
 11
1.72168
 21
5.228087
 31
0.0
210
0.0
220
0.0
230
1.0
  0
LINE
  5
2AB
100
AcDbEntity
  8
0
370
    35
390
0
 62
     7
 48
0.000019
100
AcDbLine
 10
1.72168
 20
5.228087
 30
0.0
 11
1.721531
 21
5.228816
 31
0.0
210
0.0
220
0.0
230
1.0
  0
LINE
  5
2AC
100
AcDbEntity
  8
0
370
    35
390
0
 62
     7
 48
0.00002
100
AcDbLine
 10
1.721531
 20
5.228816
 30
0.0
 11
1.721356
 21
5.229587
 31
0.0
210
0.0
220
0.0
230
1.0
  0
LINE
  5
2AD
100
AcDbEntity
  8
0
370
    35
390
0
 62
     7
 48
0.000021
100
AcDbLine
 10
1.721356
 20
5.229587
 30
0.0
 11
1.721157
 21
5.230401
 31
0.0
210
0.0
220
0.0
230
1.0
  0
LINE
  5
2AE
100
AcDbEntity
  8
0
370
    35
390
0
 62
     7
 48
0.000022
100
AcDbLine
 10
1.721157
 20
5.230401
 30
0.0
 11
1.720934
 21
5.231257
 31
0.0
210
0.0
220
0.0
230
1.0
  0
LINE
  5
2AF
100
AcDbEntity
  8
0
370
    35
390
0
 62
     7
 48
0.000017
100
AcDbLine
 10
1.720934
 20
5.231257
 30
0.0
 11
1.72075
 21
5.231915
 31
0.0
210
0.0
220
0.0
230
1.0
  0
LINE
  5
2B0
100
AcDbEntity
  8
0
370
    35
390
0
 62
     7
 48
0.000019
100
AcDbLine
 10
1.72075
 20
5.231915
 30
0.0
 11
1.720535
 21
5.23263
 31
0.0
210
0.0
220
0.0
230
1.0
  0
LINE
  5
2B1
100
AcDbEntity
  8
0
370
    35
390
0
 62
     7
 48
0.00002
100
AcDbLine
 10
1.720535
 20
5.23263
 30
0.0
 11
1.720289
 21
5.233403
 31
0.0
210
0.0
220
0.0
230
1.0
  0
LINE
  5
2B2
100
AcDbEntity
  8
0
370
    35
390
0
 62
     7
 48
0.000022
100
AcDbLine
 10
1.720289
 20
5.233403
 30
0.0
 11
1.720012
 21
5.234233
 31
0.0
210
0.0
220
0.0
230
1.0
  0
LINE
  5
2B3
100
AcDbEntity
  8
0
370
    35
390
0
 62
     7
 48
0.000024
100
AcDbLine
 10
1.720012
 20
5.234233
 30
0.0
 11
1.719703
 21
5.235121
 31
0.0
210
0.0
220
0.0
230
1.0
  0
LINE
  5
2B4
100
AcDbEntity
  8
0
370
    35
390
0
 62
     7
 48
0.000365
100
AcDbLine
 10
1.719703
 20
5.235121
 30
0.0
 11
1.705589
 21
5.231339
 31
0.0
210
0.0
220
0.0
230
1.0
  0
LINE
  5
2B5
100
AcDbEntity
  8
0
370
    35
390
0
 62
     7
 48
0.000143
100
AcDbLine
 10
1.705589
 20
5.231339
 30
0.0
 11
1.707068
 21
5.225818
 31
0.0
210
0.0
220
0.0
230
1.0
  0
LINE
  5
2B6
100
AcDbEntity
  8
0
370
    35
390
0
 62
     7
 48
0.00022
100
AcDbLine
 10
1.707068
 20
5.225818
 30
0.0
 11
1.714815
 21
5.221623
 31
0.0
210
0.0
220
0.0
230
1.0
  0
LINE
  5
2B7
100
AcDbEntity
  8
0
370
    35
390
0
 62
     7
 48
0.000397
100
AcDbLine
 10
1.714815
 20
5.221623
 30
0.0
 11
1.699494
 21
5.217518
 31
0.0
210
0.0
220
0.0
230
1.0
  0
LINE
  5
2B8
100
AcDbEntity
  8
0
370
    35
390
0
 62
     7
 48
0.000224
100
AcDbLine
 10
1.699494
 20
5.217518
 30
0.0
 11
1.703918
 21
5.225287
 31
0.0
210
0.0
220
0.0
230
1.0
  0
LINE
  5
2B9
100
AcDbEntity
  8
0
370
    35
390
0
 62
     7
 48
0.000217
100
AcDbLine
 10
1.703918
 20
5.225287
 30
0.0
 11
1.701674
 21
5.233661
 31
0.0
210
0.0
220
0.0
230
1.0
  0
LINE
  5
2BA
100
AcDbEntity
  8
0
370
    35
390
0
 62
     7
 48
0.000477
100
AcDbLine
 10
1.701674
 20
5.233661
 30
0.0
 11
1.683245
 21
5.228722
 31
0.0
210
0.0
220
0.0
230
1.0
  0
LINE
  5
2BB
100
AcDbEntity
  8
0
370
    35
390
0
 62
     7
 48
0.000173
100
AcDbLine
 10
1.683245
 20
5.228722
 30
0.0
 11
1.679746
 21
5.222768
 31
0.0
210
0.0
220
0.0
230
1.0
  0
LINE
  5
2BC
100
AcDbEntity
  8
0
370
    35
390
0
 62
     7
 48
0.000465
100
AcDbLine
 10
1.679746
 20
5.222768
 30
0.0
 11
1.674935
 21
5.240722
 31
0.0
210
0.0
220
0.0
230
1.0
  0
LINE
  5
2BD
100
AcDbEntity
  8
0
370
    35
390
0
 62
     7
 48
0.000197
100
AcDbLine
 10
1.674935
 20
5.240722
 30
0.0
 11
1.681285
 21
5.236036
 31
0.0
210
0.0
220
0.0
230
1.0
  0
LINE
  5
2BE
100
AcDbEntity
  8
0
370
    35
390
0
 62
     7
 48
0.000407
100
AcDbLine
 10
1.681285
 20
5.236036
 30
0.0
 11
1.697009
 21
5.240249
 31
0.0
210
0.0
220
0.0
230
1.0
  0
LINE
  5
2BF
100
AcDbEntity
  8
0
370
    35
390
0
 62
     7
 48
0.000014
100
AcDbLine
 10
1.697009
 20
5.240249
 30
0.0
 11
1.696839
 21
5.240799
 31
0.0
210
0.0
220
0.0
230
1.0
  0
LINE
  5
2C0
100
AcDbEntity
  8
0
370
    35
390
0
 62
     7
 48
0.000014
100
AcDbLine
 10
1.696839
 20
5.240799
 30
0.0
 11
1.69663
 21
5.241324
 31
0.0
210
0.0
220
0.0
230
1.0
  0
LINE
  5
2C1
100
AcDbEntity
  8
0
370
    35
390
0
 62
     7
 48
0.000014
100
AcDbLine
 10
1.69663
 20
5.241324
 30
0.0
 11
1.696382
 21
5.241824
 31
0.0
210
0.0
220
0.0
230
1.0
  0
LINE
  5
2C2
100
AcDbEntity
  8
0
370
    35
390
0
 62
     7
 48
0.000014
100
AcDbLine
 10
1.696382
 20
5.241824
 30
0.0
 11
1.696096
 21
5.242299
 31
0.0
210
0.0
220
0.0
230
1.0
  0
LINE
  5
2C3
100
AcDbEntity
  8
0
370
    35
390
0
 62
     7
 48
0.000014
100
AcDbLine
 10
1.696096
 20
5.242299
 30
0.0
 11
1.695771
 21
5.242749
 31
0.0
210
0.0
220
0.0
230
1.0
  0
LINE
  5
2C4
100
AcDbEntity
  8
0
370
    35
390
0
 62
     7
 48
0.000014
100
AcDbLine
 10
1.695771
 20
5.242749
 30
0.0
 11
1.695407
 21
5.243172
 31
0.0
210
0.0
220
0.0
230
1.0
  0
LINE
  5
2C5
100
AcDbEntity
  8
0
370
    35
390
0
 62
     7
 48
0.000014
100
AcDbLine
 10
1.695407
 20
5.243172
 30
0.0
 11
1.695005
 21
5.243572
 31
0.0
210
0.0
220
0.0
230
1.0
  0
LINE
  5
2C6
100
AcDbEntity
  8
0
370
    35
390
0
 62
     7
 48
0.000014
100
AcDbLine
 10
1.695005
 20
5.243572
 30
0.0
 11
1.694564
 21
5.243945
 31
0.0
210
0.0
220
0.0
230
1.0
  0
LINE
  5
2C7
100
AcDbEntity
  8
0
370
    35
390
0
 62
     7
 48
0.000015
100
AcDbLine
 10
1.694564
 20
5.243945
 30
0.0
 11
1.694084
 21
5.244294
 31
0.0
210
0.0
220
0.0
230
1.0
  0
LINE
  5
2C8
100
AcDbEntity
  8
0
370
    35
390
0
 62
     7
 48
0.000015
100
AcDbLine
 10
1.694084
 20
5.244294
 30
0.0
 11
1.693565
 21
5.244617
 31
0.0
210
0.0
220
0.0
230
1.0
  0
LINE
  5
2C9
100
AcDbEntity
  8
0
370
    35
390
0
 62
     7
 48
0.000027
100
AcDbLine
 10
1.693565
 20
5.244617
 30
0.0
 11
1.694147
 21
5.245518
 31
0.0
210
0.0
220
0.0
230
1.0
  0
LINE
  5
2CA
100
AcDbEntity
  8
0
370
    35
390
0
 62
     7
 48
0.000016
100
AcDbLine
 10
1.694147
 20
5.245518
 30
0.0
 11
1.694709
 21
5.245199
 31
0.0
210
0.0
220
0.0
230
1.0
  0
LINE
  5
2CB
100
AcDbEntity
  8
0
370
    35
390
0
 62
     7
 48
0.000016
100
AcDbLine
 10
1.694709
 20
5.245199
 30
0.0
 11
1.695232
 21
5.244839
 31
0.0
210
0.0
220
0.0
230
1.0
  0
LINE
  5
2CC
100
AcDbEntity
  8
0
370
    35
390
0
 62
     7
 48
0.000016
100
AcDbLine
 10
1.695232
 20
5.244839
 30
0.0
 11
1.695715
 21
5.24444
 31
0.0
210
0.0
220
0.0
230
1.0
  0
LINE
  5
2CD
100
AcDbEntity
  8
0
370
    35
390
0
 62
     7
 48
0.000016
100
AcDbLine
 10
1.695715
 20
5.24444
 30
0.0
 11
1.696159
 21
5.244
 31
0.0
210
0.0
220
0.0
230
1.0
  0
LINE
  5
2CE
100
AcDbEntity
  8
0
370
    35
390
0
 62
     7
 48
0.000016
100
AcDbLine
 10
1.696159
 20
5.244
 30
0.0
 11
1.696564
 21
5.243519
 31
0.0
210
0.0
220
0.0
230
1.0
  0
LINE
  5
2CF
100
AcDbEntity
  8
0
370
    35
390
0
 62
     7
 48
0.000016
100
AcDbLine
 10
1.696564
 20
5.243519
 30
0.0
 11
1.696929
 21
5.242999
 31
0.0
210
0.0
220
0.0
230
1.0
  0
LINE
  5
2D0
100
AcDbEntity
  8
0
370
    35
390
0
 62
     7
 48
0.000016
100
AcDbLine
 10
1.696929
 20
5.242999
 30
0.0
 11
1.697255
 21
5.242438
 31
0.0
210
0.0
220
0.0
230
1.0
  0
LINE
  5
2D1
100
AcDbEntity
  8
0
370
    35
390
0
 62
     7
 48
0.000017
100
AcDbLine
 10
1.697255
 20
5.242438
 30
0.0
 11
1.697541
 21
5.241836
 31
0.0
210
0.0
220
0.0
230
1.0
  0
LINE
  5
2D2
100
AcDbEntity
  8
0
370
    35
390
0
 62
     7
 48
0.000017
100
AcDbLine
 10
1.697541
 20
5.241836
 30
0.0
 11
1.697789
 21
5.241195
 31
0.0
210
0.0
220
0.0
230
1.0
  0
LINE
  5
2D3
100
AcDbEntity
  8
0
370
    35
390
0
 62
     7
 48
0.000018
100
AcDbLine
 10
1.697789
 20
5.241195
 30
0.0
 11
1.697996
 21
5.240513
 31
0.0
210
0.0
220
0.0
230
1.0
  0
LINE
  5
2D4
100
AcDbEntity
  8
0
370
    35
390
0
 62
     7
 48
0.000044
100
AcDbLine
 10
1.697996
 20
5.240513
 30
0.0
 11
1.699715
 21
5.240974
 31
0.0
210
0.0
220
0.0
230
1.0
  0
LINE
  5
2D5
100
AcDbEntity
  8
0
370
    35
390
0
 62
     7
 48
0.000014
100
AcDbLine
 10
1.699715
 20
5.240974
 30
0.0
 11
1.699616
 21
5.24153
 31
0.0
210
0.0
220
0.0
230
1.0
  0
LINE
  5
2D6
100
AcDbEntity
  8
0
370
    35
390
0
 62
     7
 48
0.000014
100
AcDbLine
 10
1.699616
 20
5.24153
 30
0.0
 11
1.699494
 21
5.24209
 31
0.0
210
0.0
220
0.0
230
1.0
  0
LINE
  5
2D7
100
AcDbEntity
  8
0
370
    35
390
0
 62
     7
 48
0.000017
100
AcDbLine
 10
1.699494
 20
5.24209
 30
0.0
 11
1.699286
 21
5.242754
 31
0.0
210
0.0
220
0.0
230
1.0
  0
LINE
  5
2D8
100
AcDbEntity
  8
0
370
    35
390
0
 62
     7
 48
0.000017
100
AcDbLine
 10
1.699286
 20
5.242754
 30
0.0
 11
1.699028
 21
5.243384
 31
0.0
210
0.0
220
0.0
230
1.0
  0
LINE
  5
2D9
100
AcDbEntity
  8
0
370
    35
390
0
 62
     7
 48
0.000017
100
AcDbLine
 10
1.699028
 20
5.243384
 30
0.0
 11
1.698719
 21
5.243982
 31
0.0
210
0.0
220
0.0
230
1.0
  0
LINE
  5
2DA
100
AcDbEntity
  8
0
370
    35
390
0
 62
     7
 48
0.000017
100
AcDbLine
 10
1.698719
 20
5.243982
 30
0.0
 11
1.69836
 21
5.244546
 31
0.0
210
0.0
220
0.0
230
1.0
  0
LINE
  5
2DB
100
AcDbEntity
  8
0
370
    35
390
0
 62
     7
 48
0.000017
100
AcDbLine
 10
1.69836
 20
5.244546
 30
0.0
 11
1.697949
 21
5.245076
 31
0.0
210
0.0
220
0.0
230
1.0
  0
LINE
  5
2DC
100
AcDbEntity
  8
0
370
    35
390
0
 62
     7
 48
0.000017
100
AcDbLine
 10
1.697949
 20
5.245076
 30
0.0
 11
1.697489
 21
5.245574
 31
0.0
210
0.0
220
0.0
230
1.0
  0
LINE
  5
2DD
100
AcDbEntity
  8
0
370
    35
390
0
 62
     7
 48
0.000017
100
AcDbLine
 10
1.697489
 20
5.245574
 30
0.0
 11
1.696977
 21
5.246038
 31
0.0
210
0.0
220
0.0
230
1.0
  0
LINE
  5
2DE
100
AcDbEntity
  8
0
370
    35
390
0
 62
     7
 48
0.000018
100
AcDbLine
 10
1.696977
 20
5.246038
 30
0.0
 11
1.696414
 21
5.24647
 31
0.0
210
0.0
220
0.0
230
1.0
  0
LINE
  5
2DF
100
AcDbEntity
  8
0
370
    35
390
0
 62
     7
 48
0.000018
100
AcDbLine
 10
1.696414
 20
5.24647
 30
0.0
 11
1.695801
 21
5.246868
 31
0.0
210
0.0
220
0.0
230
1.0
  0
LINE
  5
2E0
100
AcDbEntity
  8
0
370
    35
390
0
 62
     7
 48
0.000019
100
AcDbLine
 10
1.695801
 20
5.246868
 30
0.0
 11
1.695138
 21
5.247233
 31
0.0
210
0.0
220
0.0
230
1.0
  0
LINE
  5
2E1
100
AcDbEntity
  8
0
370
    35
390
0
 62
     7
 48
0.000017
100
AcDbLine
 10
1.695138
 20
5.247233
 30
0.0
 11
1.695654
 21
5.247645
 31
0.0
210
0.0
220
0.0
230
1.0
  0
LINE
  5
2E2
100
AcDbEntity
  8
0
370
    35
390
0
 62
     7
 48
0.000025
100
AcDbLine
 10
1.695654
 20
5.247645
 30
0.0
 11
1.696661
 21
5.24752
 31
0.0
210
0.0
220
0.0
230
1.0
  0
LINE
  5
2E3
100
AcDbEntity
  8
0
370
    35
390
0
 62
     7
 48
0.000024
100
AcDbLine
 10
1.696661
 20
5.24752
 30
0.0
 11
1.697601
 21
5.247293
 31
0.0
210
0.0
220
0.0
230
1.0
  0
LINE
  5
2E4
100
AcDbEntity
  8
0
370
    35
390
0
 62
     7
 48
0.000023
100
AcDbLine
 10
1.697601
 20
5.247293
 30
0.0
 11
1.698478
 21
5.246963
 31
0.0
210
0.0
220
0.0
230
1.0
  0
LINE
  5
2E5
100
AcDbEntity
  8
0
370
    35
390
0
 62
     7
 48
0.000023
100
AcDbLine
 10
1.698478
 20
5.246963
 30
0.0
 11
1.699289
 21
5.246531
 31
0.0
210
0.0
220
0.0
230
1.0
  0
LINE
  5
2E6
100
AcDbEntity
  8
0
370
    35
390
0
 62
     7
 48
0.000023
100
AcDbLine
 10
1.699289
 20
5.246531
 30
0.0
 11
1.700035
 21
5.245997
 31
0.0
210
0.0
220
0.0
230
1.0
  0
LINE
  5
2E7
100
AcDbEntity
  8
0
370
    35
390
0
 62
     7
 48
0.000023
100
AcDbLine
 10
1.700035
 20
5.245997
 30
0.0
 11
1.700715
 21
5.245362
 31
0.0
210
0.0
220
0.0
230
1.0
  0
LINE
  5
2E8
100
AcDbEntity
  8
0
370
    35
390
0
 62
     7
 48
0.000024
100
AcDbLine
 10
1.700715
 20
5.245362
 30
0.0
 11
1.70133
 21
5.244624
 31
0.0
210
0.0
220
0.0
230
1.0
  0
LINE
  5
2E9
100
AcDbEntity
  8
0
370
    35
390
0
 62
     7
 48
0.000025
100
AcDbLine
 10
1.70133
 20
5.244624
 30
0.0
 11
1.701881
 21
5.243783
 31
0.0
210
0.0
220
0.0
230
1.0
  0
LINE
  5
2EA
100
AcDbEntity
  8
0
370
    35
390
0
 62
     7
 48
0.000026
100
AcDbLine
 10
1.701881
 20
5.243783
 30
0.0
 11
1.702366
 21
5.242841
 31
0.0
210
0.0
220
0.0
230
1.0
  0
LINE
  5
2EB
100
AcDbEntity
  8
0
370
    35
390
0
 62
     7
 48
0.000028
100
AcDbLine
 10
1.702366
 20
5.242841
 30
0.0
 11
1.702786
 21
5.241797
 31
0.0
210
0.0
220
0.0
230
1.0
  0
LINE
  5
2EC
100
AcDbEntity
  8
0
370
    35
390
0
 62
     7
 48
0.000399
100
AcDbLine
 10
1.702786
 20
5.241797
 30
0.0
 11
1.718217
 21
5.245931
 31
0.0
210
0.0
220
0.0
230
1.0
  0
LINE
  5
2ED
100
AcDbEntity
  8
0
370
    35
390
0
 62
     7
 48
0.000177
100
AcDbLine
 10
1.718217
 20
5.245931
 30
0.0
 11
1.721612
 21
5.252132
 31
0.0
210
0.0
220
0.0
230
1.0
  0
LINE
  5
2EE
100
AcDbEntity
  8
0
370
    35
390
0
 62
     7
 48
0.000982
100
AcDbLine
 10
1.721612
 20
5.252132
 30
0.0
 11
1.731782
 21
5.214176
 31
0.0
210
0.0
220
0.0
230
1.0
  0
LINE
  5
2EF
100
AcDbEntity
  8
0
370
    35
390
0
 62
     7
 48
0.000039
100
AcDbLine
 10
1.728815
 20
5.211482
 30
0.0
 11
1.727375
 21
5.212093
 31
0.0
210
0.0
220
0.0
230
1.0
  0
LINE
  5
2F0
100
AcDbEntity
  8
0
370
    35
390
0
 62
     7
 48
0.000037
100
AcDbLine
 10
1.727375
 20
5.212093
 30
0.0
 11
1.725977
 21
5.212631
 31
0.0
210
0.0
220
0.0
230
1.0
  0
LINE
  5
2F1
100
AcDbEntity
  8
0
370
    35
390
0
 62
     7
 48
0.000036
100
AcDbLine
 10
1.725977
 20
5.212631
 30
0.0
 11
1.72462
 21
5.213098
 31
0.0
210
0.0
220
0.0
230
1.0
  0
LINE
  5
2F2
100
AcDbEntity
  8
0
370
    35
390
0
 62
     7
 48
0.000034
100
AcDbLine
 10
1.72462
 20
5.213098
 30
0.0
 11
1.723304
 21
5.213492
 31
0.0
210
0.0
220
0.0
230
1.0
  0
LINE
  5
2F3
100
AcDbEntity
  8
0
370
    35
390
0
 62
     7
 48
0.000033
100
AcDbLine
 10
1.723304
 20
5.213492
 30
0.0
 11
1.722029
 21
5.213814
 31
0.0
210
0.0
220
0.0
230
1.0
  0
LINE
  5
2F4
100
AcDbEntity
  8
0
370
    35
390
0
 62
     7
 48
0.000031
100
AcDbLine
 10
1.722029
 20
5.213814
 30
0.0
 11
1.720796
 21
5.214065
 31
0.0
210
0.0
220
0.0
230
1.0
  0
LINE
  5
2F5
100
AcDbEntity
  8
0
370
    35
390
0
 62
     7
 48
0.00003
100
AcDbLine
 10
1.720796
 20
5.214065
 30
0.0
 11
1.719604
 21
5.214243
 31
0.0
210
0.0
220
0.0
230
1.0
  0
LINE
  5
2F6
100
AcDbEntity
  8
0
370
    35
390
0
 62
     7
 48
0.000029
100
AcDbLine
 10
1.719604
 20
5.214243
 30
0.0
 11
1.718452
 21
5.214349
 31
0.0
210
0.0
220
0.0
230
1.0
  0
LINE
  5
2F7
100
AcDbEntity
  8
0
370
    35
390
0
 62
     7
 48
0.000028
100
AcDbLine
 10
1.718452
 20
5.214349
 30
0.0
 11
1.717343
 21
5.214383
 31
0.0
210
0.0
220
0.0
230
1.0
  0
LINE
  5
2F8
100
AcDbEntity
  8
0
370
    35
390
0
 62
     7
 48
0.000024
100
AcDbLine
 10
1.717343
 20
5.214383
 30
0.0
 11
1.717649
 21
5.215288
 31
0.0
210
0.0
220
0.0
230
1.0
  0
LINE
  5
2F9
100
AcDbEntity
  8
0
370
    35
390
0
 62
     7
 48
0.000031
100
AcDbLine
 10
1.717649
 20
5.215288
 30
0.0
 11
1.718881
 21
5.215279
 31
0.0
210
0.0
220
0.0
230
1.0
  0
LINE
  5
2FA
100
AcDbEntity
  8
0
370
    35
390
0
 62
     7
 48
0.000031
100
AcDbLine
 10
1.718881
 20
5.215279
 30
0.0
 11
1.720129
 21
5.21519
 31
0.0
210
0.0
220
0.0
230
1.0
  0
LINE
  5
2FB
100
AcDbEntity
  8
0
370
    35
390
0
 62
     7
 48
0.000032
100
AcDbLine
 10
1.720129
 20
5.21519
 30
0.0
 11
1.721395
 21
5.215021
 31
0.0
210
0.0
220
0.0
230
1.0
  0
LINE
  5
2FC
100
AcDbEntity
  8
0
370
    35
390
0
 62
     7
 48
0.000033
100
AcDbLine
 10
1.721395
 20
5.215021
 30
0.0
 11
1.722678
 21
5.214774
 31
0.0
210
0.0
220
0.0
230
1.0
  0
LINE
  5
2FD
100
AcDbEntity
  8
0
370
    35
390
0
 62
     7
 48
0.000034
100
AcDbLine
 10
1.722678
 20
5.214774
 30
0.0
 11
1.723979
 21
5.214447
 31
0.0
210
0.0
220
0.0
230
1.0
  0
LINE
  5
2FE
100
AcDbEntity
  8
0
370
    35
390
0
 62
     7
 48
0.000034
100
AcDbLine
 10
1.723979
 20
5.214447
 30
0.0
 11
1.725296
 21
5.214041
 31
0.0
210
0.0
220
0.0
230
1.0
  0
LINE
  5
2FF
100
AcDbEntity
  8
0
370
    35
390
0
 62
     7
 48
0.000036
100
AcDbLine
 10
1.725296
 20
5.214041
 30
0.0
 11
1.726631
 21
5.213556
 31
0.0
210
0.0
220
0.0
230
1.0
  0
LINE
  5
300
100
AcDbEntity
  8
0
370
    35
390
0
 62
     7
 48
0.000037
100
AcDbLine
 10
1.726631
 20
5.213556
 30
0.0
 11
1.727984
 21
5.212991
 31
0.0
210
0.0
220
0.0
230
1.0
  0
LINE
  5
301
100
AcDbEntity
  8
0
370
    35
390
0
 62
     7
 48
0.000038
100
AcDbLine
 10
1.727984
 20
5.212991
 30
0.0
 11
1.729354
 21
5.212347
 31
0.0
210
0.0
220
0.0
230
1.0
  0
LINE
  5
302
100
AcDbEntity
  8
0
370
    35
390
0
 62
     7
 48
0.000039
100
AcDbLine
 10
1.729354
 20
5.212347
 30
0.0
 11
1.730741
 21
5.211624
 31
0.0
210
0.0
220
0.0
230
1.0
  0
LINE
  5
303
100
AcDbEntity
  8
0
370
    35
390
0
 62
     7
 48
0.000023
100
AcDbLine
 10
1.730741
 20
5.211624
 30
0.0
 11
1.730296
 21
5.2108
 31
0.0
210
0.0
220
0.0
230
1.0
  0
LINE
  5
304
100
AcDbEntity
  8
0
370
    35
390
0
 62
     7
 48
0.000041
100
AcDbLine
 10
1.730296
 20
5.2108
 30
0.0
 11
1.728815
 21
5.211482
 31
0.0
210
0.0
220
0.0
230
1.0
  0
LINE
  5
305
100
AcDbEntity
  8
0
370
    35
390
0
 62
     7
 48
0.000028
100
AcDbLine
 10
1.698454
 20
5.214378
 30
0.0
 11
1.698748
 21
5.215476
 31
0.0
210
0.0
220
0.0
230
1.0
  0
LINE
  5
306
100
AcDbEntity
  8
0
370
    35
390
0
 62
     7
 48
0.000409
100
AcDbLine
 10
1.698748
 20
5.215476
 30
0.0
 11
1.714545
 21
5.219708
 31
0.0
210
0.0
220
0.0
230
1.0
  0
LINE
  5
307
100
AcDbEntity
  8
0
370
    35
390
0
 62
     7
 48
0.000028
100
AcDbLine
 10
1.714545
 20
5.219708
 30
0.0
 11
1.714251
 21
5.218611
 31
0.0
210
0.0
220
0.0
230
1.0
  0
LINE
  5
308
100
AcDbEntity
  8
0
370
    35
390
0
 62
     7
 48
0.000409
100
AcDbLine
 10
1.714251
 20
5.218611
 30
0.0
 11
1.698454
 21
5.214378
 31
0.0
210
0.0
220
0.0
230
1.0
  0
LINE
  5
309
100
AcDbEntity
  8
0
370
    35
390
0
 62
     7
 48
0.000405
100
AcDbLine
 10
1.699445
 20
5.229693
 30
0.0
 11
1.683795
 21
5.2255
 31
0.0
210
0.0
220
0.0
230
1.0
  0
LINE
  5
30A
100
AcDbEntity
  8
0
370
    35
390
0
 62
     7
 48
0.000265
100
AcDbLine
 10
1.683795
 20
5.2255
 30
0.0
 11
1.677548
 21
5.216928
 31
0.0
210
0.0
220
0.0
230
1.0
  0
LINE
  5
30B
100
AcDbEntity
  8
0
370
    35
390
0
 62
     7
 48
0.000548
100
AcDbLine
 10
1.677548
 20
5.216928
 30
0.0
 11
1.671875
 21
5.2381
 31
0.0
210
0.0
220
0.0
230
1.0
  0
LINE
  5
30C
100
AcDbEntity
  8
0
370
    35
390
0
 62
     7
 48
0.000035
100
AcDbLine
 10
1.671875
 20
5.2381
 30
0.0
 11
1.672618
 21
5.239278
 31
0.0
210
0.0
220
0.0
230
1.0
  0
LINE
  5
30D
100
AcDbEntity
  8
0
370
    35
390
0
 62
     7
 48
0.000519
100
AcDbLine
 10
1.672618
 20
5.239278
 30
0.0
 11
1.677987
 21
5.21924
 31
0.0
210
0.0
220
0.0
230
1.0
  0
LINE
  5
30E
100
AcDbEntity
  8
0
370
    35
390
0
 62
     7
 48
0.000218
100
AcDbLine
 10
1.677987
 20
5.21924
 30
0.0
 11
1.683111
 21
5.226296
 31
0.0
210
0.0
220
0.0
230
1.0
  0
LINE
  5
30F
100
AcDbEntity
  8
0
370
    35
390
0
 62
     7
 48
0.000442
100
AcDbLine
 10
1.683111
 20
5.226296
 30
0.0
 11
1.700188
 21
5.230871
 31
0.0
210
0.0
220
0.0
230
1.0
  0
LINE
  5
310
100
AcDbEntity
  8
0
370
    35
390
0
 62
     7
 48
0.00019
100
AcDbLine
 10
1.700188
 20
5.230871
 30
0.0
 11
1.702157
 21
5.223522
 31
0.0
210
0.0
220
0.0
230
1.0
  0
LINE
  5
311
100
AcDbEntity
  8
0
370
    35
390
0
 62
     7
 48
0.000037
100
AcDbLine
 10
1.702157
 20
5.223522
 30
0.0
 11
1.701454
 21
5.222197
 31
0.0
210
0.0
220
0.0
230
1.0
  0
LINE
  5
312
100
AcDbEntity
  8
0
370
    35
390
0
 62
     7
 48
0.000194
100
AcDbLine
 10
1.701454
 20
5.222197
 30
0.0
 11
1.699445
 21
5.229693
 31
0.0
210
0.0
220
0.0
230
1.0
  0
CIRCLE
  5
313
100
AcDbEntity
  8
0
370
    35
390
0
 62
     7
 48
0.03937
100
AcDbCircle
 10
1.770471
 20
5.268856
 30
0.0
 40
0.00525
210
0.0
220
0.0
230
1.0
  0
CIRCLE
  5
314
100
AcDbEntity
  8
0
370
    35
390
0
 62
     7
 48
0.03937
100
AcDbCircle
 10
1.715714
 20
5.174015
 30
0.0
 40
0.00525
210
0.0
220
0.0
230
1.0
  0
CIRCLE
  5
315
100
AcDbEntity
  8
0
370
    35
390
0
 62
     7
 48
0.03937
100
AcDbCircle
 10
1.762735
 20
5.210095
 30
0.0
 40
0.00525
210
0.0
220
0.0
230
1.0
  0
CIRCLE
  5
316
100
AcDbEntity
  8
0
370
    35
390
0
 62
     7
 48
0.03937
100
AcDbCircle
 10
1.620873
 20
5.228772
 30
0.0
 40
0.00525
210
0.0
220
0.0
230
1.0
  0
CIRCLE
  5
317
100
AcDbEntity
  8
0
370
    35
390
0
 62
     7
 48
0.03937
100
AcDbCircle
 10
1.656953
 20
5.181751
 30
0.0
 40
0.00525
210
0.0
220
0.0
230
1.0
  0
CIRCLE
  5
318
100
AcDbEntity
  8
0
370
    35
390
0
 62
     7
 48
0.03937
100
AcDbCircle
 10
1.675629
 20
5.323613
 30
0.0
 40
0.00525
210
0.0
220
0.0
230
1.0
  0
CIRCLE
  5
319
100
AcDbEntity
  8
0
370
    35
390
0
 62
     7
 48
0.03937
100
AcDbCircle
 10
1.73439
 20
5.315877
 30
0.0
 40
0.00525
210
0.0
220
0.0
230
1.0
  0
CIRCLE
  5
31A
100
AcDbEntity
  8
0
370
    35
390
0
 62
     7
 48
0.03937
100
AcDbCircle
 10
1.628609
 20
5.287533
 30
0.0
 40
0.00525
210
0.0
220
0.0
230
1.0
  0
LINE
  5
31B
100
AcDbEntity
  8
0
370
    35
390
0
 62
     7
 48
0.014175
100
AcDbLine
 10
1.303345
 20
2.196914
 30
0.0
 11
1.303345
 21
1.629914
 31
0.0
210
0.0
220
0.0
230
1.0
  0
LINE
  5
31C
100
AcDbEntity
  8
0
370
    35
390
0
 62
     7
 48
0.00385
100
AcDbLine
 10
1.457345
 20
2.196914
 30
0.0
 11
1.303345
 21
2.196914
 31
0.0
210
0.0
220
0.0
230
1.0
  0
LINE
  5
31D
100
AcDbEntity
  8
0
370
    35
390
0
 62
     7
 48
0.014175
100
AcDbLine
 10
1.457345
 20
2.196914
 30
0.0
 11
1.457345
 21
1.629914
 31
0.0
210
0.0
220
0.0
230
1.0
  0
LINE
  5
31E
100
AcDbEntity
  8
0
370
    35
390
0
 62
     7
 48
0.00385
100
AcDbLine
 10
1.457345
 20
1.629914
 30
0.0
 11
1.303345
 21
1.629914
 31
0.0
210
0.0
220
0.0
230
1.0
  0
LINE
  5
31F
100
AcDbEntity
  8
0
370
    35
390
0
 62
     7
 48
0.000536
100
AcDbLine
 10
1.457345
 20
2.196914
 30
0.0
 11
1.478768
 21
2.196914
 31
0.0
210
0.0
220
0.0
230
1.0
  0
LINE
  5
320
100
AcDbEntity
  8
0
370
    35
390
0
 62
     7
 48
0.008214
100
AcDbLine
 10
1.478768
 20
2.196914
 30
0.0
 11
1.807345
 21
2.196914
 31
0.0
210
0.0
220
0.0
230
1.0
  0
LINE
  5
321
100
AcDbEntity
  8
0
370
    35
390
0
 62
     7
 48
0.03937
100
AcDbLine
 10
5.174345
 20
2.196914
 30
0.0
 11
1.807345
 21
2.196914
 31
0.0
210
0.0
220
0.0
230
1.0
  0
LINE
  5
322
100
AcDbEntity
  8
0
370
    35
390
0
 62
     7
 48
0.000536
100
AcDbLine
 10
5.174345
 20
2.196914
 30
0.0
 11
5.195768
 21
2.196914
 31
0.0
210
0.0
220
0.0
230
1.0
  0
LINE
  5
323
100
AcDbEntity
  8
0
370
    35
390
0
 62
     7
 48
0.008214
100
AcDbLine
 10
5.195768
 20
2.196914
 30
0.0
 11
5.524345
 21
2.196914
 31
0.0
210
0.0
220
0.0
230
1.0
  0
LINE
  5
324
100
AcDbEntity
  8
0
370
    35
390
0
 62
     7
 48
0.00385
100
AcDbLine
 10
5.678345
 20
2.196914
 30
0.0
 11
5.524345
 21
2.196914
 31
0.0
210
0.0
220
0.0
230
1.0
  0
LINE
  5
325
100
AcDbEntity
  8
0
370
    35
390
0
 62
     7
 48
0.008214
100
AcDbLine
 10
1.478768
 20
1.629914
 30
0.0
 11
1.807345
 21
1.629914
 31
0.0
210
0.0
220
0.0
230
1.0
  0
LINE
  5
326
100
AcDbEntity
  8
0
370
    35
390
0
 62
     7
 48
0.000536
100
AcDbLine
 10
1.457345
 20
1.629914
 30
0.0
 11
1.478768
 21
1.629914
 31
0.0
210
0.0
220
0.0
230
1.0
  0
LINE
  5
327
100
AcDbEntity
  8
0
370
    35
390
0
 62
     7
 48
0.00385
100
AcDbLine
 10
5.678345
 20
1.629914
 30
0.0
 11
5.524345
 21
1.629914
 31
0.0
210
0.0
220
0.0
230
1.0
  0
LINE
  5
328
100
AcDbEntity
  8
0
370
    35
390
0
 62
     7
 48
0.008214
100
AcDbLine
 10
5.195768
 20
1.629914
 30
0.0
 11
5.524345
 21
1.629914
 31
0.0
210
0.0
220
0.0
230
1.0
  0
LINE
  5
329
100
AcDbEntity
  8
0
370
    35
390
0
 62
     7
 48
0.000536
100
AcDbLine
 10
5.174345
 20
1.629914
 30
0.0
 11
5.195768
 21
1.629914
 31
0.0
210
0.0
220
0.0
230
1.0
  0
LINE
  5
32A
100
AcDbEntity
  8
0
370
    35
390
0
 62
     7
 48
0.0049
100
AcDbLine
 10
5.174345
 20
1.629914
 30
0.0
 11
4.978345
 21
1.629914
 31
0.0
210
0.0
220
0.0
230
1.0
  0
LINE
  5
32B
100
AcDbEntity
  8
0
370
    35
390
0
 62
     7
 48
0.0049
100
AcDbLine
 10
2.003345
 20
1.629914
 30
0.0
 11
1.807345
 21
1.629914
 31
0.0
210
0.0
220
0.0
230
1.0
  0
LINE
  5
32C
100
AcDbEntity
  8
0
370
    35
390
0
 62
     7
 48
0.014175
100
AcDbLine
 10
5.678345
 20
2.196914
 30
0.0
 11
5.678345
 21
1.629914
 31
0.0
210
0.0
220
0.0
230
1.0
  0
LINE
  5
32D
100
AcDbEntity
  8
0
370
    35
390
0
 62
     7
 48
0.014175
100
AcDbLine
 10
5.524345
 20
2.196914
 30
0.0
 11
5.524345
 21
1.629914
 31
0.0
210
0.0
220
0.0
230
1.0
  0
LINE
  5
32E
100
AcDbEntity
  8
0
370
    35
390
0
 62
     7
 48
0.014175
100
AcDbLine
 10
5.174345
 20
2.196914
 30
0.0
 11
5.174345
 21
1.629914
 31
0.0
210
0.0
220
0.0
230
1.0
  0
LINE
  5
32F
100
AcDbEntity
  8
0
370
    35
390
0
 62
     7
 48
0.014175
100
AcDbLine
 10
1.807345
 20
2.196914
 30
0.0
 11
1.807345
 21
1.629914
 31
0.0
210
0.0
220
0.0
230
1.0
  0
LINE
  5
330
100
AcDbEntity
  8
0
370
    35
390
0
 62
     7
 48
0.002188
100
AcDbLine
 10
4.978345
 20
1.629914
 30
0.0
 11
4.978345
 21
1.542414
 31
0.0
210
0.0
220
0.0
230
1.0
  0
LINE
  5
331
100
AcDbEntity
  8
0
370
    35
390
0
 62
     7
 48
0.002188
100
AcDbLine
 10
2.003345
 20
1.629914
 30
0.0
 11
2.003345
 21
1.542414
 31
0.0
210
0.0
220
0.0
230
1.0
  0
LINE
  5
332
100
AcDbEntity
  8
0
370
    35
390
0
 62
     7
 48
0.03937
100
AcDbLine
 10
4.978345
 20
1.542414
 30
0.0
 11
2.003345
 21
1.542414
 31
0.0
210
0.0
220
0.0
230
1.0
  0
ELLIPSE
  5
333
100
AcDbEntity
  8
0
370
    35
390
0
 62
     7
 48
0.03937
100
AcDbEllipse
 10
8.05053
 20
6.764371
 30
0.0
 11
-0.078342813281746
 21
0.1564845155513686
 31
0.0
210
0.0
220
0.0
230
1.0
 40
0.61435
 41
6.2831457069479271
 42
9.4247383605377149
  0
ELLIPSE
  5
334
100
AcDbEntity
  8
0
370
    35
390
0
 62
     7
 48
0.03937
100
AcDbEllipse
 10
8.05053
 20
6.764371
 30
0.0
 11
-0.078342813281746
 21
0.1564845155513686
 31
0.0
210
0.0
220
0.0
230
1.0
 40
0.61435
 41
3.1415530533581308
 42
6.0332283506741389
  0
ELLIPSE
  5
335
100
AcDbEntity
  8
0
370
    35
390
0
 62
     7
 48
0.03937
100
AcDbEllipse
 10
8.05053
 20
6.764371
 30
0.0
 11
-0.078342813281746
 21
0.1564845155513686
 31
0.0
210
0.0
220
0.0
230
1.0
 40
0.61435
 41
6.0332283506741424
 42
6.2831457069479262
  0
ELLIPSE
  5
336
100
AcDbEntity
  8
0
370
    35
390
0
 62
     7
 48
0.03937
100
AcDbEllipse
 10
7.963421
 20
5.199957
 30
0.0
 11
-0.9792851660218176
 21
1.9560564443921096
 31
0.0
210
0.0
220
0.0
230
1.0
 40
0.61435
 41
0.0000319502384754
 42
3.1416246038282658
  0
ELLIPSE
  5
337
100
AcDbEntity
  8
0
370
    35
390
0
 62
     7
 48
0.03937
100
AcDbEllipse
 10
7.963421
 20
5.199957
 30
0.0
 11
-0.9792851660218176
 21
1.9560564443921096
 31
0.0
210
0.0
220
0.0
230
1.0
 40
0.61435
 41
3.1416246038282654
 42
4.4624320238792432
  0
ELLIPSE
  5
338
100
AcDbEntity
  8
0
370
    35
390
0
 62
     7
 48
0.03937
100
AcDbEllipse
 10
8.363469
 20
5.400238
 30
0.0
 11
-0.979285166021815
 21
1.9560564443921113
 31
0.0
210
0.0
220
0.0
230
1.0
 40
0.61435
 41
3.1416246038282654
 42
4.4624320238792432
  0
ELLIPSE
  5
339
100
AcDbEntity
  8
0
370
    35
390
0
 62
     7
 48
0.03937
100
AcDbEllipse
 10
7.963421
 20
5.199957
 30
0.0
 11
-0.9792851660218176
 21
1.9560564443921096
 31
0.0
210
0.0
220
0.0
230
1.0
 40
0.61435
 41
4.4624320238792432
 42
6.2832172574180616
  0
ELLIPSE
  5
33A
100
AcDbEntity
  8
0
370
    35
390
0
 62
     7
 48
0.03937
100
AcDbEllipse
 10
8.363469
 20
5.400238
 30
0.0
 11
-0.979285166021815
 21
1.9560564443921113
 31
0.0
210
0.0
220
0.0
230
1.0
 40
0.61435
 41
4.4624320238792432
 42
6.2832172574180616
  0
ELLIPSE
  5
33B
100
AcDbEntity
  8
0
370
    35
390
0
 62
     7
 48
0.03937
100
AcDbEllipse
 10
7.901685
 20
5.169049
 30
0.0
 11
-0.6659139128948366
 21
1.3301183821866343
 31
0.0
210
0.0
220
0.0
230
1.0
 40
0.61435
 41
3.1416246038282702
 42
6.283217257418058
  0
ELLIPSE
  5
33C
100
AcDbEntity
  8
0
370
    35
390
0
 62
     7
 48
0.03937
100
AcDbEllipse
 10
7.901685
 20
5.169049
 30
0.0
 11
-0.6659139128948366
 21
1.3301183821866343
 31
0.0
210
0.0
220
0.0
230
1.0
 40
0.61435
 41
0.0000319502384744
 42
1.3208393702894488
  0
ELLIPSE
  5
33D
100
AcDbEntity
  8
0
370
    35
390
0
 62
     7
 48
0.03937
100
AcDbEllipse
 10
7.901685
 20
5.169049
 30
0.0
 11
-0.6659139128948366
 21
1.3301183821866343
 31
0.0
210
0.0
220
0.0
230
1.0
 40
0.61435
 41
1.3208393702894488
 42
3.1416246038282698
  0
ELLIPSE
  5
33E
100
AcDbEntity
  8
0
370
    35
390
0
 62
     7
 48
0.03937
100
AcDbEllipse
 10
7.963421
 20
5.199957
 30
0.0
 11
-0.6659139128948359
 21
1.3301183821866347
 31
0.0
210
0.0
220
0.0
230
1.0
 40
0.61435
 41
3.1416246038282698
 42
4.4624320238792397
  0
ELLIPSE
  5
33F
100
AcDbEntity
  8
0
370
    35
390
0
 62
     7
 48
0.03937
100
AcDbEllipse
 10
7.963421
 20
5.199957
 30
0.0
 11
-0.6659139128948359
 21
1.3301183821866347
 31
0.0
210
0.0
220
0.0
230
1.0
 40
0.61435
 41
4.4624320238792441
 42
6.2832172574180625
  0
ELLIPSE
  5
340
100
AcDbEntity
  8
0
370
    35
390
0
 62
     7
 48
0.03937
100
AcDbEllipse
 10
7.38178
 20
6.934144
 30
0.0
 11
-0.0783428132817468
 21
0.1564845155513681
 31
0.0
210
0.0
220
0.0
230
1.0
 40
0.61435
 41
3.1415285462046842
 42
6.2831211997944854
  0
ELLIPSE
  5
341
100
AcDbEntity
  8
0
370
    35
390
0
 62
     7
 48
0.03937
100
AcDbEllipse
 10
7.38178
 20
6.934144
 30
0.0
 11
-0.0783428132817443
 21
0.1564845155513694
 31
0.0
210
0.0
220
0.0
230
1.0
 40
0.61435
 41
6.2831211997944818
 42
6.5568271262724398
  0
ELLIPSE
  5
342
100
AcDbEntity
  8
0
370
    35
390
0
 62
     7
 48
0.03937
100
AcDbEllipse
 10
7.38178
 20
6.934144
 30
0.0
 11
-0.0783428132817468
 21
0.1564845155513681
 31
0.0
210
0.0
220
0.0
230
1.0
 40
0.61435
 41
0.2736418190928538
 42
3.1415285462046842
  0
ELLIPSE
  5
343
100
AcDbEntity
  8
0
370
    35
390
0
 62
     7
 48
0.03937
100
AcDbEllipse
 10
6.868881
 20
6.639243
 30
0.0
 11
-0.0783428132817443
 21
0.1564845155513693
 31
0.0
210
0.0
220
0.0
230
1.0
 40
0.61435
 41
3.1416317778961083
 42
6.2832244314859045
  0
ELLIPSE
  5
344
100
AcDbEntity
  8
0
370
    35
390
0
 62
     7
 48
0.03937
100
AcDbEllipse
 10
6.868881
 20
6.639243
 30
0.0
 11
-0.0783428132817443
 21
0.1564845155513693
 31
0.0
210
0.0
220
0.0
230
1.0
 40
0.61435
 41
0.0000391243063186
 42
0.7972405946911528
  0
ELLIPSE
  5
345
100
AcDbEntity
  8
0
370
    35
390
0
 62
     7
 48
0.03937
100
AcDbEllipse
 10
6.868881
 20
6.639243
 30
0.0
 11
-0.0783428132817443
 21
0.1564845155513693
 31
0.0
210
0.0
220
0.0
230
1.0
 40
0.61435
 41
0.7972405946911528
 42
3.1416317778961083
  0
ELLIPSE
  5
346
100
AcDbEntity
  8
0
370
    35
390
0
 62
     7
 48
0.03937
100
AcDbEllipse
 10
6.649263
 20
5.958686
 30
0.0
 11
-0.0783428132817456
 21
0.1564845155513688
 31
0.0
210
0.0
220
0.0
230
1.0
 40
0.61435
 41
3.1416246038282671
 42
6.2832172574180607
  0
ELLIPSE
  5
347
100
AcDbEntity
  8
0
370
    35
390
0
 62
     7
 48
0.03937
100
AcDbEllipse
 10
6.649263
 20
5.958686
 30
0.0
 11
-0.0783428132817462
 21
0.1564845155513685
 31
0.0
210
0.0
220
0.0
230
1.0
 40
0.61435
 41
0.0000319502384737
 42
1.3208393702894519
  0
ELLIPSE
  5
348
100
AcDbEntity
  8
0
370
    35
390
0
 62
     7
 48
0.03937
100
AcDbEllipse
 10
6.649263
 20
5.958686
 30
0.0
 11
-0.0783428132817456
 21
0.1564845155513688
 31
0.0
210
0.0
220
0.0
230
1.0
 40
0.61435
 41
1.3208393702894488
 42
3.1416246038282667
  0
ELLIPSE
  5
349
100
AcDbEntity
  8
0
370
    35
390
0
 62
     7
 48
0.03937
100
AcDbEllipse
 10
6.781772
 20
5.074829
 30
0.0
 11
-0.0783428132817468
 21
0.1564845155513681
 31
0.0
210
0.0
220
0.0
230
1.0
 40
0.61435
 41
3.1415285462046865
 42
6.2831211997944747
  0
ELLIPSE
  5
34A
100
AcDbEntity
  8
0
370
    35
390
0
 62
     7
 48
0.03937
100
AcDbEllipse
 10
6.781772
 20
5.074829
 30
0.0
 11
-0.0783428132817462
 21
0.1564845155513685
 31
0.0
210
0.0
220
0.0
230
1.0
 40
0.61435
 41
6.2831211997944774
 42
8.1276234530673381
  0
ELLIPSE
  5
34B
100
AcDbEntity
  8
0
370
    35
390
0
 62
     7
 48
0.03937
100
AcDbEllipse
 10
6.781772
 20
5.074829
 30
0.0
 11
-0.0783428132817468
 21
0.1564845155513681
 31
0.0
210
0.0
220
0.0
230
1.0
 40
0.61435
 41
1.8444381458877503
 42
3.141528546204686
  0
ELLIPSE
  5
34C
100
AcDbEntity
  8
0
370
    35
390
0
 62
     7
 48
0.03937
100
AcDbEllipse
 10
7.230903
 20
4.2245
 30
0.0
 11
-0.0783428132817443
 21
0.1564845155513694
 31
0.0
210
0.0
220
0.0
230
1.0
 40
0.61435
 41
3.1415295459029782
 42
6.2831221994927731
  0
ELLIPSE
  5
34D
100
AcDbEntity
  8
0
370
    35
390
0
 62
     7
 48
0.03937
100
AcDbEllipse
 10
7.230903
 20
4.2245
 30
0.0
 11
-0.0783428132817456
 21
0.1564845155513688
 31
0.0
210
0.0
220
0.0
230
1.0
 40
0.61435
 41
6.2831221994927722
 42
8.6512222286656346
  0
ELLIPSE
  5
34E
100
AcDbEntity
  8
0
370
    35
390
0
 62
     7
 48
0.03937
100
AcDbEllipse
 10
7.230903
 20
4.2245
 30
0.0
 11
-0.0783428132817443
 21
0.1564845155513694
 31
0.0
210
0.0
220
0.0
230
1.0
 40
0.61435
 41
2.3680369214860484
 42
3.1415295459029777
  0
ELLIPSE
  5
34F
100
AcDbEntity
  8
0
370
    35
390
0
 62
     7
 48
0.03937
100
AcDbEllipse
 10
7.876312
 20
3.635543
 30
0.0
 11
-0.078342813281746
 21
0.1564845155513686
 31
0.0
210
0.0
220
0.0
230
1.0
 40
0.61435
 41
3.1415530533581304
 42
6.2831457069479271
  0
ELLIPSE
  5
350
100
AcDbEntity
  8
0
370
    35
390
0
 62
     7
 48
0.03937
100
AcDbEllipse
 10
7.876312
 20
3.635543
 30
0.0
 11
-0.0783428132817458
 21
0.1564845155513686
 31
0.0
210
0.0
220
0.0
230
1.0
 40
0.61435
 41
6.2831457069479235
 42
9.1748210042639347
  0
ELLIPSE
  5
351
100
AcDbEntity
  8
0
370
    35
390
0
 62
     7
 48
0.03937
100
AcDbEllipse
 10
7.876312
 20
3.635543
 30
0.0
 11
-0.078342813281746
 21
0.1564845155513686
 31
0.0
210
0.0
220
0.0
230
1.0
 40
0.61435
 41
2.8916356970843484
 42
3.14155305335813
  0
ELLIPSE
  5
352
100
AcDbEntity
  8
0
370
    35
390
0
 62
     7
 48
0.03937
100
AcDbEllipse
 10
8.545062
 20
3.46577
 30
0.0
 11
-0.0783428132817467
 21
0.156484515551368
 31
0.0
210
0.0
220
0.0
230
1.0
 40
0.61435
 41
6.2831211997944783
 42
9.4247138533842651
  0
ELLIPSE
  5
353
100
AcDbEntity
  8
0
370
    35
390
0
 62
     7
 48
0.03937
100
AcDbEllipse
 10
8.545062
 20
3.46577
 30
0.0
 11
-0.0783428132817467
 21
0.156484515551368
 31
0.0
210
0.0
220
0.0
230
1.0
 40
0.61435
 41
3.141528546204686
 42
3.4152344726826454
  0
ELLIPSE
  5
354
100
AcDbEntity
  8
0
370
    35
390
0
 62
     7
 48
0.03937
100
AcDbEllipse
 10
8.545062
 20
3.46577
 30
0.0
 11
-0.0783428132817467
 21
0.156484515551368
 31
0.0
210
0.0
220
0.0
230
1.0
 40
0.61435
 41
3.4152344726826454
 42
6.2831211997944783
  0
ELLIPSE
  5
355
100
AcDbEntity
  8
0
370
    35
390
0
 62
     7
 48
0.03937
100
AcDbEllipse
 10
9.057961
 20
3.760671
 30
0.0
 11
-0.0783428132817469
 21
0.1564845155513683
 31
0.0
210
0.0
220
0.0
230
1.0
 40
0.61435
 41
0.0000391243063167
 42
3.1416317778961078
  0
ELLIPSE
  5
356
100
AcDbEntity
  8
0
370
    35
390
0
 62
     7
 48
0.03937
100
AcDbEllipse
 10
9.057961
 20
3.760671
 30
0.0
 11
-0.0783428132817469
 21
0.1564845155513683
 31
0.0
210
0.0
220
0.0
230
1.0
 40
0.61435
 41
3.1416317778961091
 42
3.9388332482809383
  0
ELLIPSE
  5
357
100
AcDbEntity
  8
0
370
    35
390
0
 62
     7
 48
0.03937
100
AcDbEllipse
 10
9.057961
 20
3.760671
 30
0.0
 11
-0.0783428132817469
 21
0.1564845155513683
 31
0.0
210
0.0
220
0.0
230
1.0
 40
0.61435
 41
3.9388332482809436
 42
6.2832244314859027
  0
ELLIPSE
  5
358
100
AcDbEntity
  8
0
370
    35
390
0
 62
     7
 48
0.03937
100
AcDbEllipse
 10
9.277579
 20
4.441228
 30
0.0
 11
-0.0783428132817436
 21
0.1564845155513698
 31
0.0
210
0.0
220
0.0
230
1.0
 40
0.61435
 41
0.000031950238477
 42
3.1416246038282667
  0
ELLIPSE
  5
359
100
AcDbEntity
  8
0
370
    35
390
0
 62
     7
 48
0.03937
100
AcDbEllipse
 10
9.277579
 20
4.441228
 30
0.0
 11
-0.0783428132817436
 21
0.1564845155513698
 31
0.0
210
0.0
220
0.0
230
1.0
 40
0.61435
 41
3.1416246038282671
 42
4.4624320238792432
  0
ELLIPSE
  5
35A
100
AcDbEntity
  8
0
370
    35
390
0
 62
     7
 48
0.03937
100
AcDbEllipse
 10
9.277579
 20
4.441228
 30
0.0
 11
-0.0783428132817436
 21
0.1564845155513698
 31
0.0
210
0.0
220
0.0
230
1.0
 40
0.61435
 41
4.462432023879245
 42
6.2832172574180634
  0
ELLIPSE
  5
35B
100
AcDbEntity
  8
0
370
    35
390
0
 62
     7
 48
0.03937
100
AcDbEllipse
 10
9.145069
 20
5.325085
 30
0.0
 11
-0.0783428132817417
 21
0.1564845155513706
 31
0.0
210
0.0
220
0.0
230
1.0
 40
0.61435
 41
6.28312119979448
 42
9.424713853384274
  0
ELLIPSE
  5
35C
100
AcDbEntity
  8
0
370
    35
390
0
 62
     7
 48
0.03937
100
AcDbEllipse
 10
9.145069
 20
5.325085
 30
0.0
 11
-0.0783428132817417
 21
0.1564845155513706
 31
0.0
210
0.0
220
0.0
230
1.0
 40
0.61435
 41
3.141528546204686
 42
4.9860307994775432
  0
ELLIPSE
  5
35D
100
AcDbEntity
  8
0
370
    35
390
0
 62
     7
 48
0.03937
100
AcDbEllipse
 10
9.145069
 20
5.325085
 30
0.0
 11
-0.0783428132817417
 21
0.1564845155513706
 31
0.0
210
0.0
220
0.0
230
1.0
 40
0.61435
 41
4.9860307994775432
 42
6.28312119979448
  0
ELLIPSE
  5
35E
100
AcDbEntity
  8
0
370
    35
390
0
 62
     7
 48
0.03937
100
AcDbEllipse
 10
8.695938
 20
6.175414
 30
0.0
 11
-0.0783428132817455
 21
0.1564845155513686
 31
0.0
210
0.0
220
0.0
230
1.0
 40
0.61435
 41
6.2831221994927704
 42
9.4247148530825609
  0
ELLIPSE
  5
35F
100
AcDbEntity
  8
0
370
    35
390
0
 62
     7
 48
0.03937
100
AcDbEllipse
 10
8.695938
 20
6.175414
 30
0.0
 11
-0.0783428132817467
 21
0.156484515551368
 31
0.0
210
0.0
220
0.0
230
1.0
 40
0.61435
 41
3.1415295459029777
 42
5.5096295750758371
  0
ELLIPSE
  5
360
100
AcDbEntity
  8
0
370
    35
390
0
 62
     7
 48
0.03937
100
AcDbEllipse
 10
8.695938
 20
6.175414
 30
0.0
 11
-0.0783428132817455
 21
0.1564845155513686
 31
0.0
210
0.0
220
0.0
230
1.0
 40
0.61435
 41
5.5096295750758388
 42
6.2831221994927704
  0
LINE
  5
361
100
AcDbEntity
  8
0
370
    35
390
0
 62
     7
 48
0.011185
100
AcDbLine
 10
9.342792
 20
3.444201
 30
0.0
 11
8.942744
 21
3.24392
 31
0.0
210
0.0
220
0.0
230
1.0
  0
LINE
  5
362
100
AcDbEntity
  8
0
370
    35
390
0
 62
     7
 48
0.011185
100
AcDbLine
 10
7.384145
 20
7.356275
 30
0.0
 11
6.984097
 21
7.155994
 31
0.0
210
0.0
220
0.0
230
1.0
  0
LINE
  5
363
100
AcDbEntity
  8
0
370
    35
390
0
 62
     7
 48
0.001726
100
AcDbLine
 10
8.629361
 20
3.869852
 30
0.0
 11
8.567625
 21
3.838944
 31
0.0
210
0.0
220
0.0
230
1.0
  0
LINE
  5
364
100
AcDbEntity
  8
0
370
    35
390
0
 62
     7
 48
0.001726
100
AcDbLine
 10
7.297481
 20
6.530062
 30
0.0
 11
7.235745
 21
6.499155
 31
0.0
210
0.0
220
0.0
230
1.0
  0
INSERT
  5
531
100
AcDbEntity
  8
0
370
     0
390
0
100
AcDbBlockReference
  2
BLOCK1
 10
0.0
 20
0.0
 30
0.0
210
0.0
220
0.0
230
1.0
  0
INSERT
  5
532
100
AcDbEntity
  8
0
370
     0
390
0
100
AcDbBlockReference
  2
BLOCK2
 10
0.0
 20
0.0
 30
0.0
210
0.0
220
0.0
230
1.0
  0
INSERT
  5
533
100
AcDbEntity
  8
0
370
     0
390
0
100
AcDbBlockReference
  2
BLOCK3
 10
0.0
 20
0.0
 30
0.0
210
0.0
220
0.0
230
1.0
  0
INSERT
  5
534
100
AcDbEntity
  8
0
370
     0
390
0
100
AcDbBlockReference
  2
BLOCK4
 10
0.0
 20
0.0
 30
0.0
210
0.0
220
0.0
230
1.0
  0
INSERT
  5
535
100
AcDbEntity
  8
0
370
     0
390
0
100
AcDbBlockReference
  2
BLOCK5
 10
0.0
 20
0.0
 30
0.0
210
0.0
220
0.0
230
1.0
  0
INSERT
  5
536
100
AcDbEntity
  8
0
370
     0
390
0
100
AcDbBlockReference
  2
BLOCK6
 10
0.0
 20
0.0
 30
0.0
210
0.0
220
0.0
230
1.0
  0
INSERT
  5
537
100
AcDbEntity
  8
0
370
     0
390
0
100
AcDbBlockReference
  2
BLOCK7
 10
3.490845
 20
5.729829
 30
0.0
 41
0.35
 42
0.35
 43
0.35
210
0.0
220
0.0
230
1.0
  0
INSERT
  5
538
100
AcDbEntity
  8
0
370
     0
390
0
100
AcDbBlockReference
  2
BLOCK8
 10
3.490845
 20
5.729829
 30
0.0
 41
0.35
 42
0.35
 43
0.35
210
0.0
220
0.0
230
1.0
  0
INSERT
  5
539
100
AcDbEntity
  8
0
370
     0
390
0
100
AcDbBlockReference
  2
BLOCK9
 10
3.490845
 20
5.729829
 30
0.0
 41
0.35
 42
0.35
 43
0.35
210
0.0
220
0.0
230
1.0
  0
INSERT
  5
53A
100
AcDbEntity
  8
0
370
     0
390
0
100
AcDbBlockReference
  2
BLOCK10
 10
3.490845
 20
5.729829
 30
0.0
 41
0.35
 42
0.35
 43
0.35
210
0.0
220
0.0
230
1.0
  0
INSERT
  5
53B
100
AcDbEntity
  8
0
370
     0
390
0
100
AcDbBlockReference
  2
BLOCK11
 10
3.490845
 20
5.729829
 30
0.0
 41
0.35
 42
0.35
 43
0.35
210
0.0
220
0.0
230
1.0
  0
INSERT
  5
53C
100
AcDbEntity
  8
0
370
     0
390
0
100
AcDbBlockReference
  2
BLOCK12
 10
3.490845
 20
5.729829
 30
0.0
 41
0.35
 42
0.35
 43
0.35
210
0.0
220
0.0
230
1.0
  0
INSERT
  5
53D
100
AcDbEntity
  8
0
370
     0
390
0
100
AcDbBlockReference
  2
BLOCK13
 10
3.490845
 20
5.729829
 30
0.0
 41
0.35
 42
0.35
 43
0.35
210
0.0
220
0.0
230
1.0
  0
INSERT
  5
53E
100
AcDbEntity
  8
0
370
     0
390
0
100
AcDbBlockReference
  2
BLOCK14
 10
3.490845
 20
5.729829
 30
0.0
 41
0.35
 42
0.35
 43
0.35
210
0.0
220
0.0
230
1.0
  0
INSERT
  5
53F
100
AcDbEntity
  8
0
370
     0
390
0
100
AcDbBlockReference
  2
BLOCK15
 10
3.490845
 20
1.629914
 30
0.0
 41
0.35
 42
0.35
 43
0.35
210
0.0
220
0.0
230
1.0
  0
INSERT
  5
540
100
AcDbEntity
  8
0
370
     0
390
0
100
AcDbBlockReference
  2
BLOCK16
 10
3.490845
 20
1.629914
 30
0.0
 41
0.35
 42
0.35
 43
0.35
210
0.0
220
0.0
230
1.0
  0
INSERT
  5
541
100
AcDbEntity
  8
0
370
     0
390
0
100
AcDbBlockReference
  2
BLOCK17
 10
3.490845
 20
1.629914
 30
0.0
 41
0.35
 42
0.35
 43
0.35
210
0.0
220
0.0
230
1.0
  0
INSERT
  5
542
100
AcDbEntity
  8
0
370
     0
390
0
100
AcDbBlockReference
  2
BLOCK18
 10
3.490845
 20
1.629914
 30
0.0
 41
0.35
 42
0.35
 43
0.35
210
0.0
220
0.0
230
1.0
  0
INSERT
  5
543
100
AcDbEntity
  8
0
370
     0
390
0
100
AcDbBlockReference
  2
BLOCK19
 10
3.490845
 20
1.629914
 30
0.0
 41
0.35
 42
0.35
 43
0.35
210
0.0
220
0.0
230
1.0
  0
INSERT
  5
544
100
AcDbEntity
  8
0
370
     0
390
0
100
AcDbBlockReference
  2
BLOCK20
 10
3.490845
 20
1.629914
 30
0.0
 41
0.35
 42
0.35
 43
0.35
210
0.0
220
0.0
230
1.0
  0
ENDSEC
  0
SECTION
  2
OBJECTS
  0
DICTIONARY
  5
19
100
AcDbDictionary
280
     0
281
     1
  3
ACAD_GROUP
350
1A
  3
ACAD_MLINESTYLE
350
1B
  3
ACAD_LAYOUT
350
1E
  3
ACAD_PLOTSETTINGS
350
22
  3
ACAD_PLOTSTYLENAME
350
1F
  3
ACAD_WIPEOUT_VARS
350
23
  0
DICTIONARY
  5
1A
102
{ACAD_REACTORS
330
19
102
}
100
AcDbDictionary
280
     0
281
     1
  0
DICTIONARY
  5
1B
102
{ACAD_REACTORS
330
19
102
}
100
AcDbDictionary
280
     0
281
     1
  3
Standard
350
1C
  0
MLINESTYLE
  5
1C
102
{ACAD_REACTORS
330
1B
102
}
100
AcDbMlineStyle
  2
Standard
 70
     0
  3

 62
     0
 51
90.0
 52
90.0
 71
     2
 49
0.5
 62
   256
  6
ByLayer
 49
-0.5
 62
   256
  6
ByLayer
  0
ACDBDICTIONARYWDFLT
  5
1F
102
{ACAD_REACTORS
330
19
102
}
100
AcDbDictionary
281
     1
  3
Normal
350
1D
100
AcDbDictionaryWithDefault
340
1D
  0
ACDBPLACEHOLDER
  5
1D
102
{ACAD_REACTORS
330
1F
102
}
  0
LAYOUT
  5
20
102
{ACAD_REACTORS
330
1E
102
}
100
AcDbPlotSettings
  1

  2

  4

  6

 40
0.0
 41
0.0
 42
0.0
 43
0.0
 44
0.0
 45
0.0
 46
0.0
 47
0.0
 48
0.0
 49
0.0
140
0.0
141
0.0
142
1.0
143
1.0
 70
  1024
 72
     0
 73
     0
 74
     0
  7

 75
     0
147
1.0
148
0.0
149
0.0
100
AcDbLayout
  1
Model
 70
     0
 71
     0
 10
0.0
 20
0.0
 11
0.0
 21
0.0
 12
0.0
 22
0.0
 32
0.0
 14
0.0
 24
0.0
 34
0.0
 15
0.0
 25
0.0
 35
0.0
146
0.0
 13
0.0
 23
0.0
 33
0.0
 16
0.0
 26
0.0
 36
0.0
 17
0.0
 27
0.0
 37
0.0
 76
     0
330
A
331
0
345
0
346
0
  0
LAYOUT
  5
21
102
{ACAD_REACTORS
330
1E
102
}
100
AcDbPlotSettings
  1

  2

  4

  6

 40
0.0
 41
0.0
 42
0.0
 43
0.0
 44
0.0
 45
0.0
 46
0.0
 47
0.0
 48
0.0
 49
0.0
140
0.0
141
0.0
142
1.0
143
1.0
 70
     0
 72
     0
 73
     0
 74
     0
  7

 75
     0
147
1.0
148
0.0
149
0.0
100
AcDbLayout
  1
Layout1
 70
     0
 71
     0
 10
0.0
 20
0.0
 11
0.0
 21
0.0
 12
0.0
 22
0.0
 32
0.0
 14
0.0
 24
0.0
 34
0.0
 15
0.0
 25
0.0
 35
0.0
146
0.0
 13
0.0
 23
0.0
 33
0.0
 16
0.0
 26
0.0
 36
0.0
 17
0.0
 27
0.0
 37
0.0
 76
     0
330
B
331
0
345
0
346
0
  0
DICTIONARY
  5
1E
102
{ACAD_REACTORS
330
19
102
}
100
AcDbDictionary
280
     0
281
     1
  3
Layout1
350
21
  3
Model
350
20
  0
DICTIONARY
  5
22
102
{ACAD_REACTORS
330
19
102
}
100
AcDbDictionary
280
     0
281
     1
  0
WIPEOUTVARIABLES
  5
23
100
AcDbWipeoutVariables
 70
     1
  0
ENDSEC
  0
EOF
