  0
SECTION
  2
HEADER
  9
$ACADVER
  1
AC1015
  9
$ACADMAINTVER
 70
     6
  9
$DWGCODEPAGE
  3
ANSI_1252
  9
$INSBASE
 10
0.0
 20
0.0
 30
0.0
  9
$EXTMIN
 10
0.0
 20
0.0
 30
0.0
  9
$EXTMAX
 10
43.690159
 20
6.718979
 30
2.0
  9
$LIMMIN
 10
0.0
 20
0.0
  9
$LIMMAX
 10
17.0
 20
11.0
  9
$ORTHOMODE
 70
     0
  9
$REGENMODE
 70
     1
  9
$FILLMODE
 70
     1
  9
$QTEXTMODE
 70
     0
  9
$MIRRTEXT
 70
     1
  9
$LTSCALE
 40
1.0
  9
$ATTMODE
 70
     1
  9
$TEXTSIZE
 40
0.2
  9
$TRACEWID
 40
0.05
  9
$TEXTSTYLE
  7
STANDARD
  9
$CLAYER
  8
0
  9
$CELTYPE
  6
ByLayer
  9
$CECOLOR
 62
   256
  9
$CELTSCALE
 40
1.0
  9
$DISPSILH
 70
     0
  9
$DIMSCALE
 40
1.0
  9
$DIMASZ
 40
0.18
  9
$DIMEXO
 40
0.0625
  9
$DIMDLI
 40
0.38
  9
$DIMRND
 40
0.0
  9
$DIMDLE
 40
0.0
  9
$DIMEXE
 40
0.18
  9
$DIMTP
 40
0.0
  9
$DIMTM
 40
0.0
  9
$DIMTXT
 40
0.18
  9
$DIMCEN
 40
0.09
  9
$DIMTSZ
 40
0.0
  9
$DIMTOL
 70
     0
  9
$DIMLIM
 70
     0
  9
$DIMTIH
 70
     1
  9
$DIMTOH
 70
     1
  9
$DIMSE1
 70
     0
  9
$DIMSE2
 70
     0
  9
$DIMTAD
 70
     0
  9
$DIMZIN
 70
     0
  9
$DIMBLK
  1

  9
$DIMASO
 70
     1
  9
$DIMSHO
 70
     1
  9
$DIMPOST
  1

  9
$DIMAPOST
  1

  9
$DIMALT
 70
     0
  9
$DIMALTD
 70
     2
  9
$DIMALTF
 40
25.4
  9
$DIMLFAC
 40
1.0
  9
$DIMTOFL
 70
     0
  9
$DIMTVP
 40
0.0
  9
$DIMTIX
 70
     0
  9
$DIMSOXD
 70
     0
  9
$DIMSAH
 70
     0
  9
$DIMBLK1
  1

  9
$DIMBLK2
  1

  9
$DIMSTYLE
  2
STANDARD
  9
$DIMCLRD
 70
     0
  9
$DIMCLRE
 70
     0
  9
$DIMCLRT
 70
     0
  9
$DIMTFAC
 40
1.0
  9
$DIMGAP
 40
0.09
  9
$DIMJUST
 70
     0
  9
$DIMSD1
 70
     0
  9
$DIMSD2
 70
     0
  9
$DIMTOLJ
 70
     1
  9
$DIMTZIN
 70
     0
  9
$DIMALTZ
 70
     0
  9
$DIMALTTZ
 70
     0
  9
$DIMUPT
 70
     0
  9
$DIMDEC
 70
     4
  9
$DIMTDEC
 70
     4
  9
$DIMALTU
 70
     2
  9
$DIMALTTD
 70
     2
  9
$DIMTXSTY
  7
STANDARD
  9
$DIMAUNIT
 70
     0
  9
$DIMADEC
 70
     0
  9
$DIMALTRND
 40
0.0
  9
$DIMAZIN
 70
     0
  9
$DIMDSEP
 70
    46
  9
$DIMATFIT
 70
     0
  9
$DIMFRAC
 70
     0
  9
$DIMLDRBLK
  1

  9
$DIMLUNIT
 70
     2
  9
$DIMLWD
 70
    -2
  9
$DIMLWE
 70
    -2
  9
$DIMTMOVE
 70
     0
  9
$LUNITS
 70
     2
  9
$LUPREC
 70
     4
  9
$SKETCHINC
 40
0.1
  9
$FILLETRAD
 40
0.125
  9
$AUNITS
 70
     0
  9
$AUPREC
 70
     0
  9
$MENU
  1
.
  9
$ELEVATION
 40
0.0
  9
$PELEVATION
 40
0.0
  9
$THICKNESS
 40
0.0
  9
$LIMCHECK
 70
     0
  9
$CHAMFERA
 40
0.125
  9
$CHAMFERB
 40
0.125
  9
$CHAMFERC
 40
0.0
  9
$CHAMFERD
 40
0.0
  9
$SKPOLY
 70
     0
  9
$TDCREATE
 40
0.000000000
  9
$TDUCREATE
 40
0.000000000
  9
$TDUPDATE
 40
0.000000000
  9
$TDUUPDATE
 40
0.000000000
  9
$TDINDWG
 40
0.0000000000
  9
$TDUSRTIMER
 40
0.0000000000
  9
$USRTIMER
 70
     1
  9
$ANGBASE
 50
0.0
  9
$ANGDIR
 70
     0
  9
$PDMODE
 70
     0
  9
$PDSIZE
 40
0.0
  9
$PLINEWID
 40
0.0
  9
$SPLFRAME
 70
     0
  9
$SPLINETYPE
 70
     6
  9
$SPLINESEGS
 70
     8
  9
$HANDSEED
  5
718
  9
$SURFTAB1
 70
     6
  9
$SURFTAB2
 70
     6
  9
$SURFTYPE
 70
     6
  9
$SURFU
 70
     6
  9
$SURFV
 70
     6
  9
$UCSBASE
  2

  9
$UCSNAME
  2

  9
$UCSORG
 10
0.0
 20
0.0
 30
0.0
  9
$UCSXDIR
 10
1.0
 20
0.0
 30
0.0
  9
$UCSYDIR
 10
0.0
 20
1.0
 30
0.0
  9
$UCSORTHOREF
  2

  9
$UCSORTHOVIEW
 70
     1
  9
$UCSORGTOP
 10
0.0
 20
0.0
 30
0.0
  9
$UCSORGBOTTOM
 10
0.0
 20
0.0
 30
0.0
  9
$UCSORGLEFT
 10
0.0
 20
0.0
 30
0.0
  9
$UCSORGRIGHT
 10
0.0
 20
0.0
 30
0.0
  9
$UCSORGFRONT
 10
0.0
 20
0.0
 30
0.0
  9
$UCSORGBACK
 10
0.0
 20
0.0
 30
0.0
  9
$PUCSBASE
  2

  9
$PUCSNAME
  2

  9
$PUCSORG
 10
0.0
 20
0.0
 30
0.0
  9
$PUCSXDIR
 10
1.0
 20
0.0
 30
0.0
  9
$PUCSYDIR
 10
0.0
 20
1.0
 30
0.0
  9
$PUCSORTHOREF
  2

  9
$PUCSORTHOVIEW
 70
     0
  9
$PUCSORGTOP
 10
0.0
 20
0.0
 30
0.0
  9
$PUCSORGBOTTOM
 10
0.0
 20
0.0
 30
0.0
  9
$PUCSORGLEFT
 10
0.0
 20
0.0
 30
0.0
  9
$PUCSORGRIGHT
 10
0.0
 20
0.0
 30
0.0
  9
$PUCSORGFRONT
 10
0.0
 20
0.0
 30
0.0
  9
$PUCSORGBACK
 10
0.0
 20
0.0
 30
0.0
  9
$USERI1
 70
     0
  9
$USERI2
 70
     0
  9
$USERI3
 70
     0
  9
$USERI4
 70
     0
  9
$USERI5
 70
     0
  9
$USERR1
 40
0.0
  9
$USERR2
 40
0.0
  9
$USERR3
 40
0.0
  9
$USERR4
 40
0.0
  9
$USERR5
 40
0.0
  9
$WORLDVIEW
 70
     1
  9
$SHADEDGE
 70
     3
  9
$SHADEDIF
 70
    70
  9
$TILEMODE
 70
     1
  9
$MAXACTVP
 70
    48
  9
$PINSBASE
 10
0.0
 20
0.0
 30
0.0
  9
$PLIMCHECK
 70
     0
  9
$PEXTMIN
 10
0.0
 20
0.0
 30
0.0
  9
$PEXTMAX
 10
43.690159
 20
6.718979
 30
2.0
  9
$PLIMMIN
 10
0.0
 20
0.0
  9
$PLIMMAX
 10
12.0
 20
9.0
  9
$UNITMODE
 70
     0
  9
$VISRETAIN
 70
     0
  9
$PLINEGEN
 70
     0
  9
$PSLTSCALE
 70
     1
  9
$TREEDEPTH
 70
  3020
  9
$CMLSTYLE
  2
Standard
  9
$CMLJUST
 70
     0
  9
$CMLSCALE
 40
1.0
  9
$PROXYGRAPHICS
 70
     1
  9
$MEASUREMENT
 70
     0
  9
$CELWEIGHT
370
    -1
  9
$ENDCAPS
280
     0
  9
$JOINSTYLE
280
     0
  9
$LWDISPLAY
290
     0
  9
$INSUNITS
 70
     0
  9
$HYPERLINKBASE
  1

  9
$STYLESHEET
  1

  9
$XEDIT
290
     1
  9
$CEPSNTYPE
380
     0
  9
$PSTYLEMODE
290
     0
  9
$FINGERPRINTGUID
  2

  9
$VERSIONGUID
  2

  9
$EXTNAMES
290
     0
  9
$PSVPSCALE
 40
0.0
  0
ENDSEC
  0
SECTION
  2
CLASSES
  0
CLASS
  1
LWPOLYLINE
  2
AcDbPolyline
  3
AutoCAD 2000
 90
        0
280
     0
281
     1
  0
CLASS
  1
IMAGE
  2
AcDbRasterImage
  3
ISM
 90
      127
280
     0
281
     1
  0
CLASS
  1
OLE2FRAME
  2
AcDbOle2Frame
  3
AutoCAD 2000
 90
        0
280
     0
281
     1
  0
CLASS
  1
HATCH
  2
AcDbHatch
  3
AutoCAD 2000
 90
        0
280
     0
281
     1
  0
CLASS
  1
DICTIONARYVAR
  2
AcDbDictionaryVar
  3
AutoCAD 2000
 90
        0
280
     0
281
     0
  0
CLASS
  1
RASTERVARIABLES
  2
AcDbRasterVariables
  3
ISM
 90
        0
280
     0
281
     0
  0
CLASS
  1
IMAGEDEF
  2
AcDbRasterImageDef
  3
ISM
 90
        0
280
     0
281
     0
  0
CLASS
  1
IMAGEDEF_REACTOR
  2
AcDbRasterImageDefReactor
  3
ISM
 90
        1
280
     0
281
     0
  0
CLASS
  1
IDBUFFER
  2
AcDbIdBuffer
  3
AutoCAD 2000
 90
        0
280
     0
281
     0
  0
CLASS
  1
SPATIAL_FILTER
  2
AcDbSpatialFilter
  3
AutoCAD 2000
 90
        0
280
     0
281
     0
  0
CLASS
  1
XRECORD
  2
AcDbXrecord
  3
AutoCAD 2000
 90
        0
280
     0
281
     0
  0
CLASS
  1
SORTENTSTABLE
  2
AcDbSortentsTable
  3
AutoCAD 2000
 90
        0
280
     0
281
     0
  0
CLASS
  1
LAYER_INDEX
  2
AcDbLayerIndex
  3
AutoCAD 2000
 90
        0
280
     0
281
     0
  0
CLASS
  1
SPATIAL_INDEX
  2
AcDbSpatialIndex
  3
AutoCAD 2000
 90
        0
280
     0
281
     0
  0
CLASS
  1
OBJECT_PTR
  2
CAseDLPNTableRecord
  3
"ASE-LPNTableRecord"
 90
        1
280
     0
281
     0
  0
CLASS
  1
LAYOUT
  2
AcDbLayout
  3
AutoCAD 2000
 90
        0
280
     0
281
     0
  0
CLASS
  1
PLOTSETTINGS
  2
AcDbPlotSettings
  3
AutoCAD 2000
 90
        0
280
     0
281
     0
  0
CLASS
  1
ACDBDICTIONARYWDFLT
  2
AcDbDictionaryWithDefault
  3
AutoCAD 2000
 90
        0
280
     0
281
     0
  0
CLASS
  1
ACDBPLACEHOLDER
  2
AcDbPlaceHolder
  3
AutoCAD 2000
 90
        0
280
     0
281
     0
  0
CLASS
  1
VBA_PROJECT
  2
AcDbVbaProject
  3
acadvba
 90
        0
280
     0
281
     0
  0
CLASS
  1
WIPEOUT
  2
AcDbWipeout
  3
WipeOut|AutoCAD Express Tool|expresstools@autodesk.com
 90
      127
280
     0
281
     1
  0
CLASS
  1
WIPEOUTVARIABLES
  2
AcDbWipeoutVariables
  3
WipeOut|AutoCAD Express Tool|expresstools@autodesk.com
 90
        0
280
     0
281
     0
  0
CLASS
  1
RTEXT
  2
RText
  3
RText|AutoCAD Express Tool|expresstools@autodesk.com
 90
        0
280
     0
281
     1
  0
CLASS
  1
ARCALIGNEDTEXT
  2
AcDbArcAlignedText
  3
ATEXT|AutoCAD Express Tool|expresstools@autodesk.com
 90
        0
280
     0
281
     1
  0
ENDSEC
  0
SECTION
  2
TABLES
  0
TABLE
  2
VPORT
  5
7
100
AcDbSymbolTable
 70
     1
  0
VPORT
  5
15
100
AcDbSymbolTableRecord
100
AcDbViewportTableRecord
  2
*ACTIVE
 70
     0
 10
0.0
 20
0.0
 11
1.0
 21
1.0
 12
6.591288
 22
4.579184
 13
0.0
 23
0.0
 14
1.0
 24
1.0
 15
0.0
 25
0.0
 16
0.0
 26
0.0
 36
1.0
 17
0.0
 27
0.0
 37
0.0
 40
9.158369
 41
0.688564
 42
50.0
 43
0.0
 44
0.0
 50
0.0
 51
0.0
 71
     0
 72
   100
 73
     1
 74
     1
 75
     0
 76
     0
 77
     0
 78
     0
281
     0
 65
     0
110
0.0
120
0.0
130
0.0
111
1.0
121
0.0
131
0.0
112
0.0
122
1.0
132
0.0
345
0
346
0
 79
     0
146
0.0
  0
ENDTAB
  0
TABLE
  2
LTYPE
  5
4
100
AcDbSymbolTable
 70
     4
  0
LTYPE
  5
11
100
AcDbSymbolTableRecord
100
AcDbLinetypeTableRecord
  2
ByBlock
 70
    64
  3

 72
    65
 73
     0
 40
0.0
  0
LTYPE
  5
12
100
AcDbSymbolTableRecord
100
AcDbLinetypeTableRecord
  2
ByLayer
 70
    64
  3

 72
    65
 73
     0
 40
0.0
  0
LTYPE
  5
13
100
AcDbSymbolTableRecord
100
AcDbLinetypeTableRecord
  2
Continuous
 70
    64
  3
Solid line
 72
    65
 73
     0
 40
0.0
  0
LTYPE
  5
24
100
AcDbSymbolTableRecord
100
AcDbLinetypeTableRecord
  2
DASHDOT
 70
     0
  3
 __ . __ . __ . __ . __ . __ . __ . 
 72
    65
 73
     4
 40
18.5
 49
12.0
 74
     0
 49
-3.0
 74
     0
 49
0.5
 74
     0
 49
-3.0
 74
     0
  0
ENDTAB
  0
TABLE
  2
LAYER
  5
2
100
AcDbSymbolTable
 70
     2
  0
LAYER
  5
14
100
AcDbSymbolTableRecord
100
AcDbLayerTableRecord
  2
0
 70
     0
 62
     7
  6
Continuous
290
     1
370
    13
390
1D
  0
LAYER
  5
25
100
AcDbSymbolTableRecord
100
AcDbLayerTableRecord
  2
1
 70
     0
 62
     7
  6
Continuous
290
     1
370
    13
390
1D
  0
ENDTAB
  0
TABLE
  2
STYLE
  5
3
100
AcDbSymbolTable
 70
     2
  0
STYLE
  5
17
100
AcDbSymbolTableRecord
100
AcDbTextStyleTableRecord
  2
STANDARD
 70
     0
 40
0.0
 41
1.0
 50
0.0
 71
     0
 42
0.0
  3
isocp.shx
  4

  0
STYLE
  5
26
100
AcDbSymbolTableRecord
100
AcDbTextStyleTableRecord
  2
GDT
 70
     0
 40
0.0
 41
1.0
 50
0.0
 71
     0
 42
0.0
  3
gdt.shx
  4

  0
ENDTAB
  0
TABLE
  2
VIEW
  5
5
100
AcDbSymbolTable
 70
     0
  0
ENDTAB
  0
TABLE
  2
UCS
  5
6
100
AcDbSymbolTable
 70
     0
  0
ENDTAB
  0
TABLE
  2
APPID
  5
8
100
AcDbSymbolTable
 70
     1
  0
APPID
  5
16
100
AcDbSymbolTableRecord
100
AcDbRegAppTableRecord
  2
ACAD
 70
     0
  0
ENDTAB
  0
TABLE
  2
DIMSTYLE
  5
9
100
AcDbSymbolTable
 70
     1
100
AcDbDimStyleTable
 71
     0
  0
DIMSTYLE
105
18
100
AcDbSymbolTableRecord
100
AcDbDimStyleTableRecord
  2
STANDARD
 70
     0
  3

  4

 40
1.0
 41
0.18
 42
0.0625
 43
0.38
 44
0.18
 45
0.0
 46
0.0
 47
0.0
 48
0.0
 71
     0
 72
     0
 73
     1
 74
     1
 75
     0
 76
     0
 77
     0
 78
     0
 79
     0
140
0.18
141
0.09
142
0.0
143
25.4
144
1.0
145
0.0
146
1.0
147
0.09
148
0.0
170
     0
171
     2
172
     0
173
     0
174
     0
175
     0
176
     0
177
     0
178
     0
179
     0
271
     4
272
     4
273
     2
274
     2
275
     0
276
     0
277
     2
278
    46
279
     0
280
     0
281
     0
282
     0
283
     1
284
     0
285
     0
286
     0
288
     0
289
     0
340
0
341
0
342
0
343
0
344
0
371
    -2
372
    -2
  0
ENDTAB
  0
TABLE
  2
BLOCK_RECORD
  5
1
100
AcDbSymbolTable
 70
    18
  0
BLOCK_RECORD
  5
A
100
AcDbSymbolTableRecord
100
AcDbBlockTableRecord
  2
*MODEL_SPACE
340
20
  0
BLOCK_RECORD
  5
B
100
AcDbSymbolTableRecord
100
AcDbBlockTableRecord
  2
*PAPER_SPACE
340
21
  0
BLOCK_RECORD
  5
56A
100
AcDbSymbolTableRecord
100
AcDbBlockTableRecord
  2
BLOCK1
340
0
102
{BLKREFS
331
706
102
}
  0
BLOCK_RECORD
  5
56B
100
AcDbSymbolTableRecord
100
AcDbBlockTableRecord
  2
BLOCK2
340
0
102
{BLKREFS
331
707
102
}
  0
BLOCK_RECORD
  5
56C
100
AcDbSymbolTableRecord
100
AcDbBlockTableRecord
  2
BLOCK3
340
0
102
{BLKREFS
331
708
102
}
  0
BLOCK_RECORD
  5
56D
100
AcDbSymbolTableRecord
100
AcDbBlockTableRecord
  2
BLOCK4
340
0
102
{BLKREFS
331
709
102
}
  0
BLOCK_RECORD
  5
56E
100
AcDbSymbolTableRecord
100
AcDbBlockTableRecord
  2
BLOCK5
340
0
102
{BLKREFS
331
70A
102
}
  0
BLOCK_RECORD
  5
56F
100
AcDbSymbolTableRecord
100
AcDbBlockTableRecord
  2
BLOCK6
340
0
102
{BLKREFS
331
70B
102
}
  0
BLOCK_RECORD
  5
570
100
AcDbSymbolTableRecord
100
AcDbBlockTableRecord
  2
BLOCK7
340
0
102
{BLKREFS
331
70C
102
}
  0
BLOCK_RECORD
  5
571
100
AcDbSymbolTableRecord
100
AcDbBlockTableRecord
  2
BLOCK8
340
0
102
{BLKREFS
331
70D
102
}
  0
BLOCK_RECORD
  5
572
100
AcDbSymbolTableRecord
100
AcDbBlockTableRecord
  2
BLOCK9
340
0
102
{BLKREFS
331
70E
102
}
  0
BLOCK_RECORD
  5
573
100
AcDbSymbolTableRecord
100
AcDbBlockTableRecord
  2
BLOCK10
340
0
102
{BLKREFS
331
70F
102
}
  0
BLOCK_RECORD
  5
574
100
AcDbSymbolTableRecord
100
AcDbBlockTableRecord
  2
BLOCK11
340
0
102
{BLKREFS
331
710
102
}
  0
BLOCK_RECORD
  5
575
100
AcDbSymbolTableRecord
100
AcDbBlockTableRecord
  2
BLOCK12
340
0
102
{BLKREFS
331
711
102
}
  0
BLOCK_RECORD
  5
576
100
AcDbSymbolTableRecord
100
AcDbBlockTableRecord
  2
BLOCK13
340
0
102
{BLKREFS
331
712
102
}
  0
BLOCK_RECORD
  5
577
100
AcDbSymbolTableRecord
100
AcDbBlockTableRecord
  2
BLOCK14
340
0
102
{BLKREFS
331
713
102
}
  0
BLOCK_RECORD
  5
578
100
AcDbSymbolTableRecord
100
AcDbBlockTableRecord
  2
BLOCK15
340
0
102
{BLKREFS
331
714
102
}
  0
BLOCK_RECORD
  5
579
100
AcDbSymbolTableRecord
100
AcDbBlockTableRecord
  2
BLOCK16
340
0
102
{BLKREFS
331
715
102
}
  0
BLOCK_RECORD
  5
57A
100
AcDbSymbolTableRecord
100
AcDbBlockTableRecord
  2
BLOCK17
340
0
102
{BLKREFS
331
716
102
}
  0
BLOCK_RECORD
  5
57B
100
AcDbSymbolTableRecord
100
AcDbBlockTableRecord
  2
BLOCK18
340
0
102
{BLKREFS
331
717
102
}
  0
ENDTAB
  0
ENDSEC
  0
SECTION
  2
BLOCKS
  0
BLOCK
  5
D
100
AcDbEntity
  8
0
390
0
100
AcDbBlockBegin
  2
*MODEL_SPACE
 70
     0
 10
0.0
 20
0.0
 30
0.0
  3
*MODEL_SPACE
  1

  0
ENDBLK
  5
E
100
AcDbEntity
  8
0
390
0
100
AcDbBlockEnd
  0
BLOCK
  5
F
100
AcDbEntity
 67
     1
  8
0
390
0
100
AcDbBlockBegin
  2
*PAPER_SPACE
 70
     0
 10
0.0
 20
0.0
 30
0.0
  3
*PAPER_SPACE
  1

  0
ENDBLK
  5
10
100
AcDbEntity
 67
     1
  8
0
390
0
100
AcDbBlockEnd
  0
BLOCK
  5
57C
100
AcDbEntity
  8
0
370
     0
390
0
100
AcDbBlockBegin
  2
BLOCK1
 70
     0
 10
0.0
 20
0.0
 30
0.0
  3
BLOCK1
  1

  0
TEXT
  5
57D
100
AcDbEntity
  8
0
370
    13
390
0
 62
     7
 48
0.03937
100
AcDbText
 10
8.235154
 20
0.858248
 30
0.0
 40
0.1
  1
600-BLIND-FF
 72
     5
 11
9.451918
 21
0.858248
 31
0.0
100
AcDbText
  0
TEXT
  5
57E
100
AcDbEntity
  8
0
370
    13
390
0
 62
     7
 48
0.03937
100
AcDbText
 10
9.453442
 20
0.858248
 30
0.0
 40
0.1
  1
-
 72
     5
 11
9.553442
 21
0.858248
 31
0.0
100
AcDbText
  0
TEXT
  5
57F
100
AcDbEntity
  8
0
370
    13
390
0
 62
     7
 48
0.03937
100
AcDbText
 10
9.554966
 20
0.858248
 30
0.0
 40
0.1
  1
FLANGE
 72
     5
 11
10.162585
 21
0.858248
 31
0.0
100
AcDbText
  0
ENDBLK
  5
580
100
AcDbEntity
  8
0
390
0
100
AcDbBlockEnd
  0
BLOCK
  5
581
100
AcDbEntity
  8
0
370
     0
390
0
100
AcDbBlockBegin
  2
BLOCK2
 70
     0
 10
0.0
 20
0.0
 30
0.0
  3
BLOCK2
  1

  0
TEXT
  5
582
100
AcDbEntity
  8
0
370
    13
390
0
 62
     7
 48
0.03937
100
AcDbText
 10
8.593215
 20
1.055967
 30
0.0
 40
0.1
  1
5
 72
     5
 11
8.693215
 21
1.055967
 31
0.0
100
AcDbText
  0
TEXT
  5
583
100
AcDbEntity
  8
0
370
    13
390
0
 62
     7
 48
0.03937
100
AcDbText
 10
8.694739
 20
1.055967
 30
0.0
 40
0.1
  1
" NOM. PIPE
 72
     5
 11
9.809979
 21
1.055967
 31
0.0
100
AcDbText
  0
ENDBLK
  5
584
100
AcDbEntity
  8
0
390
0
100
AcDbBlockEnd
  0
BLOCK
  5
585
100
AcDbEntity
  8
0
370
     0
390
0
100
AcDbBlockBegin
  2
BLOCK3
 70
     0
 10
0.0
 20
0.0
 30
0.0
  3
BLOCK3
  1

  0
TEXT
  5
586
100
AcDbEntity
  8
0
370
    13
390
0
 62
     7
 48
0.03937
100
AcDbText
 10
10.093103
 20
0.689966
 30
0.0
 40
0.06
  1
PO Box 2889
 72
     5
 11
10.730818
 21
0.689966
 31
0.0
100
AcDbText
  0
TEXT
  5
587
100
AcDbEntity
  8
0
370
    13
390
0
 62
     7
 48
0.03937
100
AcDbText
 10
9.686702
 20
0.589966
 30
0.0
 40
0.06
  1
Pearland, TX 77588
 72
     5
 11
10.730818
 21
0.589966
 31
0.0
100
AcDbText
  0
TEXT
  5
588
100
AcDbEntity
  8
0
370
    13
390
0
 62
     7
 48
0.03937
100
AcDbText
 10
9.802816
 20
0.489966
 30
0.0
 40
0.06
  1
PH: 800-826-3801
 72
     5
 11
10.730818
 21
0.489966
 31
0.0
100
AcDbText
  0
TEXT
  5
589
100
AcDbEntity
  8
0
370
    13
390
0
 62
     7
 48
0.03937
100
AcDbText
 10
9.744759
 20
0.389966
 30
0.0
 40
0.06
  1
FAX: 281-484-8730
 72
     5
 11
10.730818
 21
0.389966
 31
0.0
100
AcDbText
  0
TEXT
  5
58A
100
AcDbEntity
  8
0
370
    13
390
0
 62
     7
 48
0.03937
100
AcDbText
 10
9.628644
 20
0.289966
 30
0.0
 40
0.06
  1
www.texasflange.com
 72
     5
 11
10.730818
 21
0.289966
 31
0.0
100
AcDbText
  0
ENDBLK
  5
58B
100
AcDbEntity
  8
0
390
0
100
AcDbBlockEnd
  0
BLOCK
  5
58C
100
AcDbEntity
  8
0
370
     0
390
0
100
AcDbBlockBegin
  2
BLOCK4
 70
     0
 10
0.0
 20
0.0
 30
0.0
  3
BLOCK4
  1

  0
TEXT
  5
58D
100
AcDbEntity
  8
0
370
    13
390
0
 62
     7
 48
0.03937
100
AcDbText
 10
8.289209
 20
0.587871
 30
0.0
 40
0.2
  1
Texas
 72
     5
 11
9.383692
 21
0.587871
 31
0.0
100
AcDbText
  0
TEXT
  5
58E
100
AcDbEntity
  8
0
370
    13
390
0
 62
     7
 48
0.03937
100
AcDbText
 10
8.289209
 20
0.327871
 30
0.0
 40
0.2
  1
Flange
 72
     5
 11
9.608945
 21
0.327871
 31
0.0
100
AcDbText
  0
ENDBLK
  5
58F
100
AcDbEntity
  8
0
390
0
100
AcDbBlockEnd
  0
BLOCK
  5
590
100
AcDbEntity
  8
0
370
     0
390
0
100
AcDbBlockBegin
  2
BLOCK5
 70
     0
 10
0.0
 20
0.0
 30
0.0
  3
BLOCK5
  1

  0
LINE
  5
591
100
AcDbEntity
  8
0
370
     5
390
0
 62
     7
 48
0.00324
100
AcDbLine
 10
8.029831
 20
0.605292
 30
0.0
 11
7.900255
 21
0.604209
 31
0.0
210
0.0
220
0.0
230
1.0
  0
LINE
  5
592
100
AcDbEntity
  8
0
370
     5
390
0
 62
     7
 48
0.000103
100
AcDbLine
 10
7.900255
 20
0.604209
 30
0.0
 11
7.902151
 21
0.600546
 31
0.0
210
0.0
220
0.0
230
1.0
  0
LINE
  5
593
100
AcDbEntity
  8
0
370
     5
390
0
 62
     7
 48
0.0001
100
AcDbLine
 10
7.902151
 20
0.600546
 30
0.0
 11
7.903945
 21
0.596951
 31
0.0
210
0.0
220
0.0
230
1.0
  0
LINE
  5
594
100
AcDbEntity
  8
0
370
     5
390
0
 62
     7
 48
0.000098
100
AcDbLine
 10
7.903945
 20
0.596951
 30
0.0
 11
7.905638
 21
0.593424
 31
0.0
210
0.0
220
0.0
230
1.0
  0
LINE
  5
595
100
AcDbEntity
  8
0
370
     5
390
0
 62
     7
 48
0.000095
100
AcDbLine
 10
7.905638
 20
0.593424
 30
0.0
 11
7.907229
 21
0.589967
 31
0.0
210
0.0
220
0.0
230
1.0
  0
LINE
  5
596
100
AcDbEntity
  8
0
370
     5
390
0
 62
     7
 48
0.000093
100
AcDbLine
 10
7.907229
 20
0.589967
 30
0.0
 11
7.908719
 21
0.58658
 31
0.0
210
0.0
220
0.0
230
1.0
  0
LINE
  5
597
100
AcDbEntity
  8
0
370
     5
390
0
 62
     7
 48
0.00009
100
AcDbLine
 10
7.908719
 20
0.58658
 30
0.0
 11
7.910106
 21
0.583262
 31
0.0
210
0.0
220
0.0
230
1.0
  0
LINE
  5
598
100
AcDbEntity
  8
0
370
     5
390
0
 62
     7
 48
0.000087
100
AcDbLine
 10
7.910106
 20
0.583262
 30
0.0
 11
7.911392
 21
0.580013
 31
0.0
210
0.0
220
0.0
230
1.0
  0
LINE
  5
599
100
AcDbEntity
  8
0
370
     5
390
0
 62
     7
 48
0.000085
100
AcDbLine
 10
7.911392
 20
0.580013
 30
0.0
 11
7.912577
 21
0.576833
 31
0.0
210
0.0
220
0.0
230
1.0
  0
LINE
  5
59A
100
AcDbEntity
  8
0
370
     5
390
0
 62
     7
 48
0.000082
100
AcDbLine
 10
7.912577
 20
0.576833
 30
0.0
 11
7.913659
 21
0.573722
 31
0.0
210
0.0
220
0.0
230
1.0
  0
LINE
  5
59B
100
AcDbEntity
  8
0
370
     5
390
0
 62
     7
 48
0.000095
100
AcDbLine
 10
7.913659
 20
0.573722
 30
0.0
 11
7.915938
 21
0.570681
 31
0.0
210
0.0
220
0.0
230
1.0
  0
LINE
  5
59C
100
AcDbEntity
  8
0
370
     5
390
0
 62
     7
 48
0.000066
100
AcDbLine
 10
7.915938
 20
0.570681
 30
0.0
 11
7.916123
 21
0.573306
 31
0.0
210
0.0
220
0.0
230
1.0
  0
LINE
  5
59D
100
AcDbEntity
  8
0
370
     5
390
0
 62
     7
 48
0.000062
100
AcDbLine
 10
7.916123
 20
0.573306
 30
0.0
 11
7.916418
 21
0.575775
 31
0.0
210
0.0
220
0.0
230
1.0
  0
LINE
  5
59E
100
AcDbEntity
  8
0
370
     5
390
0
 62
     7
 48
0.000059
100
AcDbLine
 10
7.916418
 20
0.575775
 30
0.0
 11
7.916824
 21
0.578087
 31
0.0
210
0.0
220
0.0
230
1.0
  0
LINE
  5
59F
100
AcDbEntity
  8
0
370
     5
390
0
 62
     7
 48
0.000055
100
AcDbLine
 10
7.916824
 20
0.578087
 30
0.0
 11
7.917339
 21
0.580242
 31
0.0
210
0.0
220
0.0
230
1.0
  0
LINE
  5
5A0
100
AcDbEntity
  8
0
370
     5
390
0
 62
     7
 48
0.000052
100
AcDbLine
 10
7.917339
 20
0.580242
 30
0.0
 11
7.917966
 21
0.58224
 31
0.0
210
0.0
220
0.0
230
1.0
  0
LINE
  5
5A1
100
AcDbEntity
  8
0
370
     5
390
0
 62
     7
 48
0.00005
100
AcDbLine
 10
7.917966
 20
0.58224
 30
0.0
 11
7.918703
 21
0.584081
 31
0.0
210
0.0
220
0.0
230
1.0
  0
LINE
  5
5A2
100
AcDbEntity
  8
0
370
     5
390
0
 62
     7
 48
0.000047
100
AcDbLine
 10
7.918703
 20
0.584081
 30
0.0
 11
7.919549
 21
0.585767
 31
0.0
210
0.0
220
0.0
230
1.0
  0
LINE
  5
5A3
100
AcDbEntity
  8
0
370
     5
390
0
 62
     7
 48
0.000045
100
AcDbLine
 10
7.919549
 20
0.585767
 30
0.0
 11
7.920506
 21
0.587294
 31
0.0
210
0.0
220
0.0
230
1.0
  0
LINE
  5
5A4
100
AcDbEntity
  8
0
370
     5
390
0
 62
     7
 48
0.000043
100
AcDbLine
 10
7.920506
 20
0.587294
 30
0.0
 11
7.921574
 21
0.588665
 31
0.0
210
0.0
220
0.0
230
1.0
  0
LINE
  5
5A5
100
AcDbEntity
  8
0
370
     5
390
0
 62
     7
 48
0.000042
100
AcDbLine
 10
7.921574
 20
0.588665
 30
0.0
 11
7.922751
 21
0.58988
 31
0.0
210
0.0
220
0.0
230
1.0
  0
LINE
  5
5A6
100
AcDbEntity
  8
0
370
     5
390
0
 62
     7
 48
0.000042
100
AcDbLine
 10
7.922751
 20
0.58988
 30
0.0
 11
7.924063
 21
0.590958
 31
0.0
210
0.0
220
0.0
230
1.0
  0
LINE
  5
5A7
100
AcDbEntity
  8
0
370
     5
390
0
 62
     7
 48
0.000044
100
AcDbLine
 10
7.924063
 20
0.590958
 30
0.0
 11
7.92553
 21
0.591923
 31
0.0
210
0.0
220
0.0
230
1.0
  0
LINE
  5
5A8
100
AcDbEntity
  8
0
370
     5
390
0
 62
     7
 48
0.000046
100
AcDbLine
 10
7.92553
 20
0.591923
 30
0.0
 11
7.927152
 21
0.592775
 31
0.0
210
0.0
220
0.0
230
1.0
  0
LINE
  5
5A9
100
AcDbEntity
  8
0
370
     5
390
0
 62
     7
 48
0.000048
100
AcDbLine
 10
7.927152
 20
0.592775
 30
0.0
 11
7.92893
 21
0.593513
 31
0.0
210
0.0
220
0.0
230
1.0
  0
LINE
  5
5AA
100
AcDbEntity
  8
0
370
     5
390
0
 62
     7
 48
0.000051
100
AcDbLine
 10
7.92893
 20
0.593513
 30
0.0
 11
7.930864
 21
0.594138
 31
0.0
210
0.0
220
0.0
230
1.0
  0
LINE
  5
5AB
100
AcDbEntity
  8
0
370
     5
390
0
 62
     7
 48
0.000054
100
AcDbLine
 10
7.930864
 20
0.594138
 30
0.0
 11
7.932953
 21
0.594648
 31
0.0
210
0.0
220
0.0
230
1.0
  0
LINE
  5
5AC
100
AcDbEntity
  8
0
370
     5
390
0
 62
     7
 48
0.000057
100
AcDbLine
 10
7.932953
 20
0.594648
 30
0.0
 11
7.9352
 21
0.595046
 31
0.0
210
0.0
220
0.0
230
1.0
  0
LINE
  5
5AD
100
AcDbEntity
  8
0
370
     5
390
0
 62
     7
 48
0.00006
100
AcDbLine
 10
7.9352
 20
0.595046
 30
0.0
 11
7.9376
 21
0.595331
 31
0.0
210
0.0
220
0.0
230
1.0
  0
LINE
  5
5AE
100
AcDbEntity
  8
0
370
     5
390
0
 62
     7
 48
0.000064
100
AcDbLine
 10
7.9376
 20
0.595331
 30
0.0
 11
7.940158
 21
0.5955
 31
0.0
210
0.0
220
0.0
230
1.0
  0
LINE
  5
5AF
100
AcDbEntity
  8
0
370
     5
390
0
 62
     7
 48
0.000068
100
AcDbLine
 10
7.940158
 20
0.5955
 30
0.0
 11
7.94287
 21
0.595557
 31
0.0
210
0.0
220
0.0
230
1.0
  0
LINE
  5
5B0
100
AcDbEntity
  8
0
370
     5
390
0
 62
     7
 48
0.00005
100
AcDbLine
 10
7.94287
 20
0.595557
 30
0.0
 11
7.944881
 21
0.595532
 31
0.0
210
0.0
220
0.0
230
1.0
  0
LINE
  5
5B1
100
AcDbEntity
  8
0
370
     5
390
0
 62
     7
 48
0.000051
100
AcDbLine
 10
7.944881
 20
0.595532
 30
0.0
 11
7.946936
 21
0.595454
 31
0.0
210
0.0
220
0.0
230
1.0
  0
LINE
  5
5B2
100
AcDbEntity
  8
0
370
     5
390
0
 62
     7
 48
0.000053
100
AcDbLine
 10
7.946936
 20
0.595454
 30
0.0
 11
7.949034
 21
0.595323
 31
0.0
210
0.0
220
0.0
230
1.0
  0
LINE
  5
5B3
100
AcDbEntity
  8
0
370
     5
390
0
 62
     7
 48
0.000054
100
AcDbLine
 10
7.949034
 20
0.595323
 30
0.0
 11
7.951177
 21
0.595142
 31
0.0
210
0.0
220
0.0
230
1.0
  0
LINE
  5
5B4
100
AcDbEntity
  8
0
370
     5
390
0
 62
     7
 48
0.000055
100
AcDbLine
 10
7.951177
 20
0.595142
 30
0.0
 11
7.953361
 21
0.594908
 31
0.0
210
0.0
220
0.0
230
1.0
  0
LINE
  5
5B5
100
AcDbEntity
  8
0
370
     5
390
0
 62
     7
 48
0.000136
100
AcDbLine
 10
7.953361
 20
0.594908
 30
0.0
 11
7.952171
 21
0.589608
 31
0.0
210
0.0
220
0.0
230
1.0
  0
LINE
  5
5B6
100
AcDbEntity
  8
0
370
     5
390
0
 62
     7
 48
0.000162
100
AcDbLine
 10
7.952171
 20
0.589608
 30
0.0
 11
7.945682
 21
0.589716
 31
0.0
210
0.0
220
0.0
230
1.0
  0
LINE
  5
5B7
100
AcDbEntity
  8
0
370
     5
390
0
 62
     7
 48
0.00006
100
AcDbLine
 10
7.945682
 20
0.589716
 30
0.0
 11
7.943286
 21
0.589667
 31
0.0
210
0.0
220
0.0
230
1.0
  0
LINE
  5
5B8
100
AcDbEntity
  8
0
370
     5
390
0
 62
     7
 48
0.000057
100
AcDbLine
 10
7.943286
 20
0.589667
 30
0.0
 11
7.941029
 21
0.589518
 31
0.0
210
0.0
220
0.0
230
1.0
  0
LINE
  5
5B9
100
AcDbEntity
  8
0
370
     5
390
0
 62
     7
 48
0.000053
100
AcDbLine
 10
7.941029
 20
0.589518
 30
0.0
 11
7.938912
 21
0.589269
 31
0.0
210
0.0
220
0.0
230
1.0
  0
LINE
  5
5BA
100
AcDbEntity
  8
0
370
     5
390
0
 62
     7
 48
0.00005
100
AcDbLine
 10
7.938912
 20
0.589269
 30
0.0
 11
7.936934
 21
0.588921
 31
0.0
210
0.0
220
0.0
230
1.0
  0
LINE
  5
5BB
100
AcDbEntity
  8
0
370
     5
390
0
 62
     7
 48
0.000047
100
AcDbLine
 10
7.936934
 20
0.588921
 30
0.0
 11
7.935095
 21
0.588473
 31
0.0
210
0.0
220
0.0
230
1.0
  0
LINE
  5
5BC
100
AcDbEntity
  8
0
370
     5
390
0
 62
     7
 48
0.000045
100
AcDbLine
 10
7.935095
 20
0.588473
 30
0.0
 11
7.933397
 21
0.587925
 31
0.0
210
0.0
220
0.0
230
1.0
  0
LINE
  5
5BD
100
AcDbEntity
  8
0
370
     5
390
0
 62
     7
 48
0.000042
100
AcDbLine
 10
7.933397
 20
0.587925
 30
0.0
 11
7.931839
 21
0.587279
 31
0.0
210
0.0
220
0.0
230
1.0
  0
LINE
  5
5BE
100
AcDbEntity
  8
0
370
     5
390
0
 62
     7
 48
0.00004
100
AcDbLine
 10
7.931839
 20
0.587279
 30
0.0
 11
7.930418
 21
0.586532
 31
0.0
210
0.0
220
0.0
230
1.0
  0
LINE
  5
5BF
100
AcDbEntity
  8
0
370
     5
390
0
 62
     7
 48
0.000038
100
AcDbLine
 10
7.930418
 20
0.586532
 30
0.0
 11
7.929138
 21
0.585687
 31
0.0
210
0.0
220
0.0
230
1.0
  0
LINE
  5
5C0
100
AcDbEntity
  8
0
370
     5
390
0
 62
     7
 48
0.000074
100
AcDbLine
 10
7.929138
 20
0.585687
 30
0.0
 11
7.926968
 21
0.58367
 31
0.0
210
0.0
220
0.0
230
1.0
  0
LINE
  5
5C1
100
AcDbEntity
  8
0
370
     5
390
0
 62
     7
 48
0.000039
100
AcDbLine
 10
7.926968
 20
0.58367
 30
0.0
 11
7.926023
 21
0.582444
 31
0.0
210
0.0
220
0.0
230
1.0
  0
LINE
  5
5C2
100
AcDbEntity
  8
0
370
     5
390
0
 62
     7
 48
0.000041
100
AcDbLine
 10
7.926023
 20
0.582444
 30
0.0
 11
7.92516
 21
0.581064
 31
0.0
210
0.0
220
0.0
230
1.0
  0
LINE
  5
5C3
100
AcDbEntity
  8
0
370
     5
390
0
 62
     7
 48
0.000043
100
AcDbLine
 10
7.92516
 20
0.581064
 30
0.0
 11
7.924381
 21
0.579533
 31
0.0
210
0.0
220
0.0
230
1.0
  0
LINE
  5
5C4
100
AcDbEntity
  8
0
370
     5
390
0
 62
     7
 48
0.000046
100
AcDbLine
 10
7.924381
 20
0.579533
 30
0.0
 11
7.923684
 21
0.577847
 31
0.0
210
0.0
220
0.0
230
1.0
  0
LINE
  5
5C5
100
AcDbEntity
  8
0
370
     5
390
0
 62
     7
 48
0.000048
100
AcDbLine
 10
7.923684
 20
0.577847
 30
0.0
 11
7.923073
 21
0.576006
 31
0.0
210
0.0
220
0.0
230
1.0
  0
LINE
  5
5C6
100
AcDbEntity
  8
0
370
     5
390
0
 62
     7
 48
0.000052
100
AcDbLine
 10
7.923073
 20
0.576006
 30
0.0
 11
7.922543
 21
0.574013
 31
0.0
210
0.0
220
0.0
230
1.0
  0
LINE
  5
5C7
100
AcDbEntity
  8
0
370
     5
390
0
 62
     7
 48
0.000055
100
AcDbLine
 10
7.922543
 20
0.574013
 30
0.0
 11
7.922096
 21
0.571866
 31
0.0
210
0.0
220
0.0
230
1.0
  0
LINE
  5
5C8
100
AcDbEntity
  8
0
370
     5
390
0
 62
     7
 48
0.000058
100
AcDbLine
 10
7.922096
 20
0.571866
 30
0.0
 11
7.921734
 21
0.569565
 31
0.0
210
0.0
220
0.0
230
1.0
  0
LINE
  5
5C9
100
AcDbEntity
  8
0
370
     5
390
0
 62
     7
 48
0.000062
100
AcDbLine
 10
7.921734
 20
0.569565
 30
0.0
 11
7.921454
 21
0.567111
 31
0.0
210
0.0
220
0.0
230
1.0
  0
LINE
  5
5CA
100
AcDbEntity
  8
0
370
     5
390
0
 62
     7
 48
0.00007
100
AcDbLine
 10
7.921454
 20
0.567111
 30
0.0
 11
7.924266
 21
0.567111
 31
0.0
210
0.0
220
0.0
230
1.0
  0
LINE
  5
5CB
100
AcDbEntity
  8
0
370
     5
390
0
 62
     7
 48
0.000054
100
AcDbLine
 10
7.924266
 20
0.567111
 30
0.0
 11
7.924478
 21
0.569252
 31
0.0
210
0.0
220
0.0
230
1.0
  0
LINE
  5
5CC
100
AcDbEntity
  8
0
370
     5
390
0
 62
     7
 48
0.000051
100
AcDbLine
 10
7.924478
 20
0.569252
 30
0.0
 11
7.924766
 21
0.571259
 31
0.0
210
0.0
220
0.0
230
1.0
  0
LINE
  5
5CD
100
AcDbEntity
  8
0
370
     5
390
0
 62
     7
 48
0.000048
100
AcDbLine
 10
7.924766
 20
0.571259
 30
0.0
 11
7.92513
 21
0.573132
 31
0.0
210
0.0
220
0.0
230
1.0
  0
LINE
  5
5CE
100
AcDbEntity
  8
0
370
     5
390
0
 62
     7
 48
0.000045
100
AcDbLine
 10
7.92513
 20
0.573132
 30
0.0
 11
7.925573
 21
0.574872
 31
0.0
210
0.0
220
0.0
230
1.0
  0
LINE
  5
5CF
100
AcDbEntity
  8
0
370
     5
390
0
 62
     7
 48
0.000042
100
AcDbLine
 10
7.925573
 20
0.574872
 30
0.0
 11
7.926092
 21
0.57648
 31
0.0
210
0.0
220
0.0
230
1.0
  0
LINE
  5
5D0
100
AcDbEntity
  8
0
370
     5
390
0
 62
     7
 48
0.000077
100
AcDbLine
 10
7.926092
 20
0.57648
 30
0.0
 11
7.92736
 21
0.579297
 31
0.0
210
0.0
220
0.0
230
1.0
  0
LINE
  5
5D1
100
AcDbEntity
  8
0
370
     5
390
0
 62
     7
 48
0.000069
100
AcDbLine
 10
7.92736
 20
0.579297
 30
0.0
 11
7.928935
 21
0.581582
 31
0.0
210
0.0
220
0.0
230
1.0
  0
LINE
  5
5D2
100
AcDbEntity
  8
0
370
     5
390
0
 62
     7
 48
0.000065
100
AcDbLine
 10
7.928935
 20
0.581582
 30
0.0
 11
7.930843
 21
0.583356
 31
0.0
210
0.0
220
0.0
230
1.0
  0
LINE
  5
5D3
100
AcDbEntity
  8
0
370
     5
390
0
 62
     7
 48
0.000069
100
AcDbLine
 10
7.930843
 20
0.583356
 30
0.0
 11
7.93324
 21
0.584759
 31
0.0
210
0.0
220
0.0
230
1.0
  0
LINE
  5
5D4
100
AcDbEntity
  8
0
370
     5
390
0
 62
     7
 48
0.000038
100
AcDbLine
 10
7.93324
 20
0.584759
 30
0.0
 11
7.93463
 21
0.585327
 31
0.0
210
0.0
220
0.0
230
1.0
  0
LINE
  5
5D5
100
AcDbEntity
  8
0
370
     5
390
0
 62
     7
 48
0.00004
100
AcDbLine
 10
7.93463
 20
0.585327
 30
0.0
 11
7.936151
 21
0.585809
 31
0.0
210
0.0
220
0.0
230
1.0
  0
LINE
  5
5D6
100
AcDbEntity
  8
0
370
     5
390
0
 62
     7
 48
0.000042
100
AcDbLine
 10
7.936151
 20
0.585809
 30
0.0
 11
7.937799
 21
0.586203
 31
0.0
210
0.0
220
0.0
230
1.0
  0
LINE
  5
5D7
100
AcDbEntity
  8
0
370
     5
390
0
 62
     7
 48
0.000045
100
AcDbLine
 10
7.937799
 20
0.586203
 30
0.0
 11
7.939577
 21
0.586511
 31
0.0
210
0.0
220
0.0
230
1.0
  0
LINE
  5
5D8
100
AcDbEntity
  8
0
370
     5
390
0
 62
     7
 48
0.000048
100
AcDbLine
 10
7.939577
 20
0.586511
 30
0.0
 11
7.941484
 21
0.58673
 31
0.0
210
0.0
220
0.0
230
1.0
  0
LINE
  5
5D9
100
AcDbEntity
  8
0
370
     5
390
0
 62
     7
 48
0.000051
100
AcDbLine
 10
7.941484
 20
0.58673
 30
0.0
 11
7.943519
 21
0.58686
 31
0.0
210
0.0
220
0.0
230
1.0
  0
LINE
  5
5DA
100
AcDbEntity
  8
0
370
     5
390
0
 62
     7
 48
0.000054
100
AcDbLine
 10
7.943519
 20
0.58686
 30
0.0
 11
7.945682
 21
0.586905
 31
0.0
210
0.0
220
0.0
230
1.0
  0
LINE
  5
5DB
100
AcDbEntity
  8
0
370
     5
390
0
 62
     7
 48
0.000192
100
AcDbLine
 10
7.945682
 20
0.586905
 30
0.0
 11
7.953361
 21
0.586796
 31
0.0
210
0.0
220
0.0
230
1.0
  0
LINE
  5
5DC
100
AcDbEntity
  8
0
370
     5
390
0
 62
     7
 48
0.00269
100
AcDbLine
 10
7.953361
 20
0.586796
 30
0.0
 11
7.953361
 21
0.479178
 31
0.0
210
0.0
220
0.0
230
1.0
  0
LINE
  5
5DD
100
AcDbEntity
  8
0
370
     5
390
0
 62
     7
 48
0.000493
100
AcDbLine
 10
7.953361
 20
0.479178
 30
0.0
 11
7.93822
 21
0.466523
 31
0.0
210
0.0
220
0.0
230
1.0
  0
LINE
  5
5DE
100
AcDbEntity
  8
0
370
     5
390
0
 62
     7
 48
0.001236
100
AcDbLine
 10
7.93822
 20
0.466523
 30
0.0
 11
7.987647
 21
0.466523
 31
0.0
210
0.0
220
0.0
230
1.0
  0
LINE
  5
5DF
100
AcDbEntity
  8
0
370
     5
390
0
 62
     7
 48
0.000434
100
AcDbLine
 10
7.987647
 20
0.466523
 30
0.0
 11
7.974885
 21
0.478313
 31
0.0
210
0.0
220
0.0
230
1.0
  0
LINE
  5
5E0
100
AcDbEntity
  8
0
370
     5
390
0
 62
     7
 48
0.002931
100
AcDbLine
 10
7.974885
 20
0.478313
 30
0.0
 11
7.976183
 21
0.595557
 31
0.0
210
0.0
220
0.0
230
1.0
  0
LINE
  5
5E1
100
AcDbEntity
  8
0
370
     5
390
0
 62
     7
 48
0.000049
100
AcDbLine
 10
7.976183
 20
0.595557
 30
0.0
 11
7.97813
 21
0.595713
 31
0.0
210
0.0
220
0.0
230
1.0
  0
LINE
  5
5E2
100
AcDbEntity
  8
0
370
     5
390
0
 62
     7
 48
0.000049
100
AcDbLine
 10
7.97813
 20
0.595713
 30
0.0
 11
7.980077
 21
0.595835
 31
0.0
210
0.0
220
0.0
230
1.0
  0
LINE
  5
5E3
100
AcDbEntity
  8
0
370
     5
390
0
 62
     7
 48
0.000049
100
AcDbLine
 10
7.980077
 20
0.595835
 30
0.0
 11
7.982024
 21
0.59592
 31
0.0
210
0.0
220
0.0
230
1.0
  0
LINE
  5
5E4
100
AcDbEntity
  8
0
370
     5
390
0
 62
     7
 48
0.000049
100
AcDbLine
 10
7.982024
 20
0.59592
 30
0.0
 11
7.983971
 21
0.595973
 31
0.0
210
0.0
220
0.0
230
1.0
  0
LINE
  5
5E5
100
AcDbEntity
  8
0
370
     5
390
0
 62
     7
 48
0.000049
100
AcDbLine
 10
7.983971
 20
0.595973
 30
0.0
 11
7.985918
 21
0.595991
 31
0.0
210
0.0
220
0.0
230
1.0
  0
LINE
  5
5E6
100
AcDbEntity
  8
0
370
     5
390
0
 62
     7
 48
0.000058
100
AcDbLine
 10
7.985918
 20
0.595991
 30
0.0
 11
7.988236
 21
0.595943
 31
0.0
210
0.0
220
0.0
230
1.0
  0
LINE
  5
5E7
100
AcDbEntity
  8
0
370
     5
390
0
 62
     7
 48
0.000055
100
AcDbLine
 10
7.988236
 20
0.595943
 30
0.0
 11
7.990431
 21
0.595799
 31
0.0
210
0.0
220
0.0
230
1.0
  0
LINE
  5
5E8
100
AcDbEntity
  8
0
370
     5
390
0
 62
     7
 48
0.000052
100
AcDbLine
 10
7.990431
 20
0.595799
 30
0.0
 11
7.992506
 21
0.595562
 31
0.0
210
0.0
220
0.0
230
1.0
  0
LINE
  5
5E9
100
AcDbEntity
  8
0
370
     5
390
0
 62
     7
 48
0.000049
100
AcDbLine
 10
7.992506
 20
0.595562
 30
0.0
 11
7.994457
 21
0.595229
 31
0.0
210
0.0
220
0.0
230
1.0
  0
LINE
  5
5EA
100
AcDbEntity
  8
0
370
     5
390
0
 62
     7
 48
0.000047
100
AcDbLine
 10
7.994457
 20
0.595229
 30
0.0
 11
7.996287
 21
0.5948
 31
0.0
210
0.0
220
0.0
230
1.0
  0
LINE
  5
5EB
100
AcDbEntity
  8
0
370
     5
390
0
 62
     7
 48
0.000045
100
AcDbLine
 10
7.996287
 20
0.5948
 30
0.0
 11
7.997995
 21
0.594276
 31
0.0
210
0.0
220
0.0
230
1.0
  0
LINE
  5
5EC
100
AcDbEntity
  8
0
370
     5
390
0
 62
     7
 48
0.000043
100
AcDbLine
 10
7.997995
 20
0.594276
 30
0.0
 11
7.99958
 21
0.593658
 31
0.0
210
0.0
220
0.0
230
1.0
  0
LINE
  5
5ED
100
AcDbEntity
  8
0
370
     5
390
0
 62
     7
 48
0.000041
100
AcDbLine
 10
7.99958
 20
0.593658
 30
0.0
 11
8.001043
 21
0.592944
 31
0.0
210
0.0
220
0.0
230
1.0
  0
LINE
  5
5EE
100
AcDbEntity
  8
0
370
     5
390
0
 62
     7
 48
0.000039
100
AcDbLine
 10
8.001043
 20
0.592944
 30
0.0
 11
8.002384
 21
0.592136
 31
0.0
210
0.0
220
0.0
230
1.0
  0
LINE
  5
5EF
100
AcDbEntity
  8
0
370
     5
390
0
 62
     7
 48
0.000038
100
AcDbLine
 10
8.002384
 20
0.592136
 30
0.0
 11
8.003601
 21
0.591231
 31
0.0
210
0.0
220
0.0
230
1.0
  0
LINE
  5
5F0
100
AcDbEntity
  8
0
370
     5
390
0
 62
     7
 48
0.000038
100
AcDbLine
 10
8.003601
 20
0.591231
 30
0.0
 11
8.004733
 21
0.590204
 31
0.0
210
0.0
220
0.0
230
1.0
  0
LINE
  5
5F1
100
AcDbEntity
  8
0
370
     5
390
0
 62
     7
 48
0.00004
100
AcDbLine
 10
8.004733
 20
0.590204
 30
0.0
 11
8.00581
 21
0.589025
 31
0.0
210
0.0
220
0.0
230
1.0
  0
LINE
  5
5F2
100
AcDbEntity
  8
0
370
     5
390
0
 62
     7
 48
0.000042
100
AcDbLine
 10
8.00581
 20
0.589025
 30
0.0
 11
8.006836
 21
0.587694
 31
0.0
210
0.0
220
0.0
230
1.0
  0
LINE
  5
5F3
100
AcDbEntity
  8
0
370
     5
390
0
 62
     7
 48
0.000044
100
AcDbLine
 10
8.006836
 20
0.587694
 30
0.0
 11
8.007806
 21
0.586212
 31
0.0
210
0.0
220
0.0
230
1.0
  0
LINE
  5
5F4
100
AcDbEntity
  8
0
370
     5
390
0
 62
     7
 48
0.000047
100
AcDbLine
 10
8.007806
 20
0.586212
 30
0.0
 11
8.008726
 21
0.584579
 31
0.0
210
0.0
220
0.0
230
1.0
  0
LINE
  5
5F5
100
AcDbEntity
  8
0
370
     5
390
0
 62
     7
 48
0.00005
100
AcDbLine
 10
8.008726
 20
0.584579
 30
0.0
 11
8.009591
 21
0.582795
 31
0.0
210
0.0
220
0.0
230
1.0
  0
LINE
  5
5F6
100
AcDbEntity
  8
0
370
     5
390
0
 62
     7
 48
0.000053
100
AcDbLine
 10
8.009591
 20
0.582795
 30
0.0
 11
8.010404
 21
0.580859
 31
0.0
210
0.0
220
0.0
230
1.0
  0
LINE
  5
5F7
100
AcDbEntity
  8
0
370
     5
390
0
 62
     7
 48
0.000056
100
AcDbLine
 10
8.010404
 20
0.580859
 30
0.0
 11
8.011163
 21
0.578771
 31
0.0
210
0.0
220
0.0
230
1.0
  0
LINE
  5
5F8
100
AcDbEntity
  8
0
370
     5
390
0
 62
     7
 48
0.000059
100
AcDbLine
 10
8.011163
 20
0.578771
 30
0.0
 11
8.011871
 21
0.576531
 31
0.0
210
0.0
220
0.0
230
1.0
  0
LINE
  5
5F9
100
AcDbEntity
  8
0
370
     5
390
0
 62
     7
 48
0.000062
100
AcDbLine
 10
8.011871
 20
0.576531
 30
0.0
 11
8.012525
 21
0.574142
 31
0.0
210
0.0
220
0.0
230
1.0
  0
LINE
  5
5FA
100
AcDbEntity
  8
0
370
     5
390
0
 62
     7
 48
0.000057
100
AcDbLine
 10
8.012525
 20
0.574142
 30
0.0
 11
8.014147
 21
0.572519
 31
0.0
210
0.0
220
0.0
230
1.0
  0
LINE
  5
5FB
100
AcDbEntity
  8
0
370
     5
390
0
 62
     7
 48
0.000054
100
AcDbLine
 10
8.014147
 20
0.572519
 30
0.0
 11
8.014802
 21
0.574562
 31
0.0
210
0.0
220
0.0
230
1.0
  0
LINE
  5
5FC
100
AcDbEntity
  8
0
370
     5
390
0
 62
     7
 48
0.000052
100
AcDbLine
 10
8.014802
 20
0.574562
 30
0.0
 11
8.015467
 21
0.576534
 31
0.0
210
0.0
220
0.0
230
1.0
  0
LINE
  5
5FD
100
AcDbEntity
  8
0
370
     5
390
0
 62
     7
 48
0.000051
100
AcDbLine
 10
8.015467
 20
0.576534
 30
0.0
 11
8.016143
 21
0.578438
 31
0.0
210
0.0
220
0.0
230
1.0
  0
LINE
  5
5FE
100
AcDbEntity
  8
0
370
     5
390
0
 62
     7
 48
0.000049
100
AcDbLine
 10
8.016143
 20
0.578438
 30
0.0
 11
8.01683
 21
0.580272
 31
0.0
210
0.0
220
0.0
230
1.0
  0
LINE
  5
5FF
100
AcDbEntity
  8
0
370
     5
390
0
 62
     7
 48
0.000047
100
AcDbLine
 10
8.01683
 20
0.580272
 30
0.0
 11
8.017528
 21
0.582038
 31
0.0
210
0.0
220
0.0
230
1.0
  0
LINE
  5
600
100
AcDbEntity
  8
0
370
     5
390
0
 62
     7
 48
0.000046
100
AcDbLine
 10
8.017528
 20
0.582038
 30
0.0
 11
8.018235
 21
0.583734
 31
0.0
210
0.0
220
0.0
230
1.0
  0
LINE
  5
601
100
AcDbEntity
  8
0
370
     5
390
0
 62
     7
 48
0.000044
100
AcDbLine
 10
8.018235
 20
0.583734
 30
0.0
 11
8.018954
 21
0.58536
 31
0.0
210
0.0
220
0.0
230
1.0
  0
LINE
  5
602
100
AcDbEntity
  8
0
370
     5
390
0
 62
     7
 48
0.000043
100
AcDbLine
 10
8.018954
 20
0.58536
 30
0.0
 11
8.019684
 21
0.586917
 31
0.0
210
0.0
220
0.0
230
1.0
  0
LINE
  5
603
100
AcDbEntity
  8
0
370
     5
390
0
 62
     7
 48
0.000042
100
AcDbLine
 10
8.019684
 20
0.586917
 30
0.0
 11
8.020426
 21
0.588405
 31
0.0
210
0.0
220
0.0
230
1.0
  0
LINE
  5
604
100
AcDbEntity
  8
0
370
     5
390
0
 62
     7
 48
0.00004
100
AcDbLine
 10
8.020426
 20
0.588405
 30
0.0
 11
8.021177
 21
0.589826
 31
0.0
210
0.0
220
0.0
230
1.0
  0
LINE
  5
605
100
AcDbEntity
  8
0
370
     5
390
0
 62
     7
 48
0.0004
100
AcDbLine
 10
8.021177
 20
0.589826
 30
0.0
 11
8.029019
 21
0.60375
 31
0.0
210
0.0
220
0.0
230
1.0
  0
LINE
  5
606
100
AcDbEntity
  8
0
370
     5
390
0
 62
     7
 48
0.000044
100
AcDbLine
 10
8.029019
 20
0.60375
 30
0.0
 11
8.029831
 21
0.605292
 31
0.0
210
0.0
220
0.0
230
1.0
  0
ENDBLK
  5
607
100
AcDbEntity
  8
0
390
0
100
AcDbBlockEnd
  0
BLOCK
  5
608
100
AcDbEntity
  8
0
370
     0
390
0
100
AcDbBlockBegin
  2
BLOCK6
 70
     0
 10
0.0
 20
0.0
 30
0.0
  3
BLOCK6
  1

  0
LINE
  5
609
100
AcDbEntity
  8
0
370
     5
390
0
 62
     7
 48
0.000505
100
AcDbLine
 10
8.03978
 20
0.605292
 30
0.0
 11
8.054382
 21
0.591339
 31
0.0
210
0.0
220
0.0
230
1.0
  0
LINE
  5
60A
100
AcDbEntity
  8
0
370
     5
390
0
 62
     7
 48
0.001141
100
AcDbLine
 10
8.054382
 20
0.591339
 30
0.0
 11
8.054382
 21
0.545696
 31
0.0
210
0.0
220
0.0
230
1.0
  0
LINE
  5
60B
100
AcDbEntity
  8
0
370
     5
390
0
 62
     7
 48
0.00008
100
AcDbLine
 10
8.054382
 20
0.545696
 30
0.0
 11
8.051189
 21
0.545309
 31
0.0
210
0.0
220
0.0
230
1.0
  0
LINE
  5
60C
100
AcDbEntity
  8
0
370
     5
390
0
 62
     7
 48
0.000076
100
AcDbLine
 10
8.051189
 20
0.545309
 30
0.0
 11
8.048231
 21
0.544665
 31
0.0
210
0.0
220
0.0
230
1.0
  0
LINE
  5
60D
100
AcDbEntity
  8
0
370
     5
390
0
 62
     7
 48
0.000072
100
AcDbLine
 10
8.048231
 20
0.544665
 30
0.0
 11
8.045504
 21
0.543768
 31
0.0
210
0.0
220
0.0
230
1.0
  0
LINE
  5
60E
100
AcDbEntity
  8
0
370
     5
390
0
 62
     7
 48
0.000069
100
AcDbLine
 10
8.045504
 20
0.543768
 30
0.0
 11
8.043013
 21
0.542615
 31
0.0
210
0.0
220
0.0
230
1.0
  0
LINE
  5
60F
100
AcDbEntity
  8
0
370
     5
390
0
 62
     7
 48
0.000067
100
AcDbLine
 10
8.043013
 20
0.542615
 30
0.0
 11
8.040755
 21
0.541208
 31
0.0
210
0.0
220
0.0
230
1.0
  0
LINE
  5
610
100
AcDbEntity
  8
0
370
     5
390
0
 62
     7
 48
0.000066
100
AcDbLine
 10
8.040755
 20
0.541208
 30
0.0
 11
8.03873
 21
0.539544
 31
0.0
210
0.0
220
0.0
230
1.0
  0
LINE
  5
611
100
AcDbEntity
  8
0
370
     5
390
0
 62
     7
 48
0.000066
100
AcDbLine
 10
8.03873
 20
0.539544
 30
0.0
 11
8.036938
 21
0.537626
 31
0.0
210
0.0
220
0.0
230
1.0
  0
LINE
  5
612
100
AcDbEntity
  8
0
370
     5
390
0
 62
     7
 48
0.000067
100
AcDbLine
 10
8.036938
 20
0.537626
 30
0.0
 11
8.03538
 21
0.535451
 31
0.0
210
0.0
220
0.0
230
1.0
  0
LINE
  5
613
100
AcDbEntity
  8
0
370
     5
390
0
 62
     7
 48
0.000069
100
AcDbLine
 10
8.03538
 20
0.535451
 30
0.0
 11
8.034058
 21
0.533022
 31
0.0
210
0.0
220
0.0
230
1.0
  0
LINE
  5
614
100
AcDbEntity
  8
0
370
     5
390
0
 62
     7
 48
0.000072
100
AcDbLine
 10
8.034058
 20
0.533022
 30
0.0
 11
8.032967
 21
0.530337
 31
0.0
210
0.0
220
0.0
230
1.0
  0
LINE
  5
615
100
AcDbEntity
  8
0
370
     5
390
0
 62
     7
 48
0.000047
100
AcDbLine
 10
8.032967
 20
0.530337
 30
0.0
 11
8.033725
 21
0.528606
 31
0.0
210
0.0
220
0.0
230
1.0
  0
LINE
  5
616
100
AcDbEntity
  8
0
370
     5
390
0
 62
     7
 48
0.000054
100
AcDbLine
 10
8.033725
 20
0.528606
 30
0.0
 11
8.035222
 21
0.530168
 31
0.0
210
0.0
220
0.0
230
1.0
  0
LINE
  5
617
100
AcDbEntity
  8
0
370
     5
390
0
 62
     7
 48
0.000052
100
AcDbLine
 10
8.035222
 20
0.530168
 30
0.0
 11
8.036774
 21
0.531566
 31
0.0
210
0.0
220
0.0
230
1.0
  0
LINE
  5
618
100
AcDbEntity
  8
0
370
     5
390
0
 62
     7
 48
0.000051
100
AcDbLine
 10
8.036774
 20
0.531566
 30
0.0
 11
8.038381
 21
0.532799
 31
0.0
210
0.0
220
0.0
230
1.0
  0
LINE
  5
619
100
AcDbEntity
  8
0
370
     5
390
0
 62
     7
 48
0.000049
100
AcDbLine
 10
8.038381
 20
0.532799
 30
0.0
 11
8.04004
 21
0.533868
 31
0.0
210
0.0
220
0.0
230
1.0
  0
LINE
  5
61A
100
AcDbEntity
  8
0
370
     5
390
0
 62
     7
 48
0.000048
100
AcDbLine
 10
8.04004
 20
0.533868
 30
0.0
 11
8.041754
 21
0.534771
 31
0.0
210
0.0
220
0.0
230
1.0
  0
LINE
  5
61B
100
AcDbEntity
  8
0
370
     5
390
0
 62
     7
 48
0.000048
100
AcDbLine
 10
8.041754
 20
0.534771
 30
0.0
 11
8.043522
 21
0.535512
 31
0.0
210
0.0
220
0.0
230
1.0
  0
LINE
  5
61C
100
AcDbEntity
  8
0
370
     5
390
0
 62
     7
 48
0.000048
100
AcDbLine
 10
8.043522
 20
0.535512
 30
0.0
 11
8.045345
 21
0.536087
 31
0.0
210
0.0
220
0.0
230
1.0
  0
LINE
  5
61D
100
AcDbEntity
  8
0
370
     5
390
0
 62
     7
 48
0.000048
100
AcDbLine
 10
8.045345
 20
0.536087
 30
0.0
 11
8.047222
 21
0.536498
 31
0.0
210
0.0
220
0.0
230
1.0
  0
LINE
  5
61E
100
AcDbEntity
  8
0
370
     5
390
0
 62
     7
 48
0.000049
100
AcDbLine
 10
8.047222
 20
0.536498
 30
0.0
 11
8.049152
 21
0.536744
 31
0.0
210
0.0
220
0.0
230
1.0
  0
LINE
  5
61F
100
AcDbEntity
  8
0
370
     5
390
0
 62
     7
 48
0.00005
100
AcDbLine
 10
8.049152
 20
0.536744
 30
0.0
 11
8.051138
 21
0.536826
 31
0.0
210
0.0
220
0.0
230
1.0
  0
LINE
  5
620
100
AcDbEntity
  8
0
370
     5
390
0
 62
     7
 48
0.000041
100
AcDbLine
 10
8.051138
 20
0.536826
 30
0.0
 11
8.052773
 21
0.536748
 31
0.0
210
0.0
220
0.0
230
1.0
  0
LINE
  5
621
100
AcDbEntity
  8
0
370
     5
390
0
 62
     7
 48
0.00004
100
AcDbLine
 10
8.052773
 20
0.536748
 30
0.0
 11
8.054382
 21
0.53661
 31
0.0
210
0.0
220
0.0
230
1.0
  0
LINE
  5
622
100
AcDbEntity
  8
0
370
     5
390
0
 62
     7
 48
0.000127
100
AcDbLine
 10
8.054382
 20
0.53661
 30
0.0
 11
8.054382
 21
0.531527
 31
0.0
210
0.0
220
0.0
230
1.0
  0
LINE
  5
623
100
AcDbEntity
  8
0
370
     5
390
0
 62
     7
 48
0.000051
100
AcDbLine
 10
8.054382
 20
0.531527
 30
0.0
 11
8.052347
 21
0.531458
 31
0.0
210
0.0
220
0.0
230
1.0
  0
LINE
  5
624
100
AcDbEntity
  8
0
370
     5
390
0
 62
     7
 48
0.000049
100
AcDbLine
 10
8.052347
 20
0.531458
 30
0.0
 11
8.050394
 21
0.531249
 31
0.0
210
0.0
220
0.0
230
1.0
  0
LINE
  5
625
100
AcDbEntity
  8
0
370
     5
390
0
 62
     7
 48
0.000048
100
AcDbLine
 10
8.050394
 20
0.531249
 30
0.0
 11
8.048522
 21
0.530904
 31
0.0
210
0.0
220
0.0
230
1.0
  0
LINE
  5
626
100
AcDbEntity
  8
0
370
     5
390
0
 62
     7
 48
0.000046
100
AcDbLine
 10
8.048522
 20
0.530904
 30
0.0
 11
8.046733
 21
0.53042
 31
0.0
210
0.0
220
0.0
230
1.0
  0
LINE
  5
627
100
AcDbEntity
  8
0
370
     5
390
0
 62
     7
 48
0.000045
100
AcDbLine
 10
8.046733
 20
0.53042
 30
0.0
 11
8.045027
 21
0.529796
 31
0.0
210
0.0
220
0.0
230
1.0
  0
LINE
  5
628
100
AcDbEntity
  8
0
370
     5
390
0
 62
     7
 48
0.000045
100
AcDbLine
 10
8.045027
 20
0.529796
 30
0.0
 11
8.043403
 21
0.529035
 31
0.0
210
0.0
220
0.0
230
1.0
  0
LINE
  5
629
100
AcDbEntity
  8
0
370
     5
390
0
 62
     7
 48
0.000045
100
AcDbLine
 10
8.043403
 20
0.529035
 30
0.0
 11
8.041859
 21
0.528135
 31
0.0
210
0.0
220
0.0
230
1.0
  0
LINE
  5
62A
100
AcDbEntity
  8
0
370
     5
390
0
 62
     7
 48
0.000045
100
AcDbLine
 10
8.041859
 20
0.528135
 30
0.0
 11
8.0404
 21
0.527097
 31
0.0
210
0.0
220
0.0
230
1.0
  0
LINE
  5
62B
100
AcDbEntity
  8
0
370
     5
390
0
 62
     7
 48
0.000045
100
AcDbLine
 10
8.0404
 20
0.527097
 30
0.0
 11
8.039021
 21
0.52592
 31
0.0
210
0.0
220
0.0
230
1.0
  0
LINE
  5
62C
100
AcDbEntity
  8
0
370
     5
390
0
 62
     7
 48
0.000046
100
AcDbLine
 10
8.039021
 20
0.52592
 30
0.0
 11
8.037725
 21
0.524604
 31
0.0
210
0.0
220
0.0
230
1.0
  0
LINE
  5
62D
100
AcDbEntity
  8
0
370
     5
390
0
 62
     7
 48
0.000077
100
AcDbLine
 10
8.037725
 20
0.524604
 30
0.0
 11
8.03978
 21
0.522333
 31
0.0
210
0.0
220
0.0
230
1.0
  0
LINE
  5
62E
100
AcDbEntity
  8
0
370
     5
390
0
 62
     7
 48
0.000044
100
AcDbLine
 10
8.03978
 20
0.522333
 30
0.0
 11
8.041057
 21
0.523526
 31
0.0
210
0.0
220
0.0
230
1.0
  0
LINE
  5
62F
100
AcDbEntity
  8
0
370
     5
390
0
 62
     7
 48
0.000042
100
AcDbLine
 10
8.041057
 20
0.523526
 30
0.0
 11
8.042372
 21
0.524592
 31
0.0
210
0.0
220
0.0
230
1.0
  0
LINE
  5
630
100
AcDbEntity
  8
0
370
     5
390
0
 62
     7
 48
0.000041
100
AcDbLine
 10
8.042372
 20
0.524592
 30
0.0
 11
8.04373
 21
0.525533
 31
0.0
210
0.0
220
0.0
230
1.0
  0
LINE
  5
631
100
AcDbEntity
  8
0
370
     5
390
0
 62
     7
 48
0.000041
100
AcDbLine
 10
8.04373
 20
0.525533
 30
0.0
 11
8.045129
 21
0.526349
 31
0.0
210
0.0
220
0.0
230
1.0
  0
LINE
  5
632
100
AcDbEntity
  8
0
370
     5
390
0
 62
     7
 48
0.00004
100
AcDbLine
 10
8.045129
 20
0.526349
 30
0.0
 11
8.046567
 21
0.527039
 31
0.0
210
0.0
220
0.0
230
1.0
  0
LINE
  5
633
100
AcDbEntity
  8
0
370
     5
390
0
 62
     7
 48
0.00004
100
AcDbLine
 10
8.046567
 20
0.527039
 30
0.0
 11
8.048048
 21
0.527603
 31
0.0
210
0.0
220
0.0
230
1.0
  0
LINE
  5
634
100
AcDbEntity
  8
0
370
     5
390
0
 62
     7
 48
0.00004
100
AcDbLine
 10
8.048048
 20
0.527603
 30
0.0
 11
8.049571
 21
0.528042
 31
0.0
210
0.0
220
0.0
230
1.0
  0
LINE
  5
635
100
AcDbEntity
  8
0
370
     5
390
0
 62
     7
 48
0.00004
100
AcDbLine
 10
8.049571
 20
0.528042
 30
0.0
 11
8.051134
 21
0.528356
 31
0.0
210
0.0
220
0.0
230
1.0
  0
LINE
  5
636
100
AcDbEntity
  8
0
370
     5
390
0
 62
     7
 48
0.00004
100
AcDbLine
 10
8.051134
 20
0.528356
 30
0.0
 11
8.052737
 21
0.528543
 31
0.0
210
0.0
220
0.0
230
1.0
  0
LINE
  5
637
100
AcDbEntity
  8
0
370
     5
390
0
 62
     7
 48
0.000041
100
AcDbLine
 10
8.052737
 20
0.528543
 30
0.0
 11
8.054382
 21
0.528606
 31
0.0
210
0.0
220
0.0
230
1.0
  0
LINE
  5
638
100
AcDbEntity
  8
0
370
     5
390
0
 62
     7
 48
0.001163
100
AcDbLine
 10
8.054382
 20
0.528606
 30
0.0
 11
8.054382
 21
0.482097
 31
0.0
210
0.0
220
0.0
230
1.0
  0
LINE
  5
639
100
AcDbEntity
  8
0
370
     5
390
0
 62
     7
 48
0.000564
100
AcDbLine
 10
8.054382
 20
0.482097
 30
0.0
 11
8.036753
 21
0.468038
 31
0.0
210
0.0
220
0.0
230
1.0
  0
LINE
  5
63A
100
AcDbEntity
  8
0
370
     5
390
0
 62
     7
 48
0.001328
100
AcDbLine
 10
8.036753
 20
0.468038
 30
0.0
 11
8.089859
 21
0.468038
 31
0.0
210
0.0
220
0.0
230
1.0
  0
LINE
  5
63B
100
AcDbEntity
  8
0
370
     5
390
0
 62
     7
 48
0.000493
100
AcDbLine
 10
8.089859
 20
0.468038
 30
0.0
 11
8.076014
 21
0.482097
 31
0.0
210
0.0
220
0.0
230
1.0
  0
LINE
  5
63C
100
AcDbEntity
  8
0
370
     5
390
0
 62
     7
 48
0.001363
100
AcDbLine
 10
8.076014
 20
0.482097
 30
0.0
 11
8.076014
 21
0.53661
 31
0.0
210
0.0
220
0.0
230
1.0
  0
LINE
  5
63D
100
AcDbEntity
  8
0
370
     5
390
0
 62
     7
 48
0.000619
100
AcDbLine
 10
8.076014
 20
0.53661
 30
0.0
 11
8.100782
 21
0.53661
 31
0.0
210
0.0
220
0.0
230
1.0
  0
LINE
  5
63E
100
AcDbEntity
  8
0
370
     5
390
0
 62
     7
 48
0.000639
100
AcDbLine
 10
8.100782
 20
0.53661
 30
0.0
 11
8.118953
 21
0.518655
 31
0.0
210
0.0
220
0.0
230
1.0
  0
LINE
  5
63F
100
AcDbEntity
  8
0
370
     5
390
0
 62
     7
 48
0.001133
100
AcDbLine
 10
8.118953
 20
0.518655
 30
0.0
 11
8.118953
 21
0.563975
 31
0.0
210
0.0
220
0.0
230
1.0
  0
LINE
  5
640
100
AcDbEntity
  8
0
370
     5
390
0
 62
     7
 48
0.000629
100
AcDbLine
 10
8.118953
 20
0.563975
 30
0.0
 11
8.101647
 21
0.545696
 31
0.0
210
0.0
220
0.0
230
1.0
  0
LINE
  5
641
100
AcDbEntity
  8
0
370
     5
390
0
 62
     7
 48
0.000408
100
AcDbLine
 10
8.101647
 20
0.545696
 30
0.0
 11
8.085316
 21
0.545696
 31
0.0
210
0.0
220
0.0
230
1.0
  0
LINE
  5
642
100
AcDbEntity
  8
0
370
     5
390
0
 62
     7
 48
0.001044
100
AcDbLine
 10
8.085316
 20
0.545696
 30
0.0
 11
8.085316
 21
0.587445
 31
0.0
210
0.0
220
0.0
230
1.0
  0
LINE
  5
643
100
AcDbEntity
  8
0
370
     5
390
0
 62
     7
 48
0.000067
100
AcDbLine
 10
8.085316
 20
0.587445
 30
0.0
 11
8.087994
 21
0.58764
 31
0.0
210
0.0
220
0.0
230
1.0
  0
LINE
  5
644
100
AcDbEntity
  8
0
370
     5
390
0
 62
     7
 48
0.000063
100
AcDbLine
 10
8.087994
 20
0.58764
 30
0.0
 11
8.090491
 21
0.587792
 31
0.0
210
0.0
220
0.0
230
1.0
  0
LINE
  5
645
100
AcDbEntity
  8
0
370
     5
390
0
 62
     7
 48
0.000058
100
AcDbLine
 10
8.090491
 20
0.587792
 30
0.0
 11
8.092805
 21
0.5879
 31
0.0
210
0.0
220
0.0
230
1.0
  0
LINE
  5
646
100
AcDbEntity
  8
0
370
     5
390
0
 62
     7
 48
0.000053
100
AcDbLine
 10
8.092805
 20
0.5879
 30
0.0
 11
8.094938
 21
0.587964
 31
0.0
210
0.0
220
0.0
230
1.0
  0
LINE
  5
647
100
AcDbEntity
  8
0
370
     5
390
0
 62
     7
 48
0.000049
100
AcDbLine
 10
8.094938
 20
0.587964
 30
0.0
 11
8.09689
 21
0.587987
 31
0.0
210
0.0
220
0.0
230
1.0
  0
LINE
  5
648
100
AcDbEntity
  8
0
370
     5
390
0
 62
     7
 48
0.000063
100
AcDbLine
 10
8.09689
 20
0.587987
 30
0.0
 11
8.099417
 21
0.587969
 31
0.0
210
0.0
220
0.0
230
1.0
  0
LINE
  5
649
100
AcDbEntity
  8
0
370
     5
390
0
 62
     7
 48
0.00006
100
AcDbLine
 10
8.099417
 20
0.587969
 30
0.0
 11
8.101811
 21
0.587915
 31
0.0
210
0.0
220
0.0
230
1.0
  0
LINE
  5
64A
100
AcDbEntity
  8
0
370
     5
390
0
 62
     7
 48
0.000056
100
AcDbLine
 10
8.101811
 20
0.587915
 30
0.0
 11
8.104068
 21
0.587826
 31
0.0
210
0.0
220
0.0
230
1.0
  0
LINE
  5
64B
100
AcDbEntity
  8
0
370
     5
390
0
 62
     7
 48
0.000053
100
AcDbLine
 10
8.104068
 20
0.587826
 30
0.0
 11
8.106191
 21
0.5877
 31
0.0
210
0.0
220
0.0
230
1.0
  0
LINE
  5
64C
100
AcDbEntity
  8
0
370
     5
390
0
 62
     7
 48
0.00005
100
AcDbLine
 10
8.106191
 20
0.5877
 30
0.0
 11
8.108179
 21
0.58754
 31
0.0
210
0.0
220
0.0
230
1.0
  0
LINE
  5
64D
100
AcDbEntity
  8
0
370
     5
390
0
 62
     7
 48
0.000047
100
AcDbLine
 10
8.108179
 20
0.58754
 30
0.0
 11
8.110031
 21
0.587343
 31
0.0
210
0.0
220
0.0
230
1.0
  0
LINE
  5
64E
100
AcDbEntity
  8
0
370
     5
390
0
 62
     7
 48
0.000043
100
AcDbLine
 10
8.110031
 20
0.587343
 30
0.0
 11
8.111747
 21
0.587112
 31
0.0
210
0.0
220
0.0
230
1.0
  0
LINE
  5
64F
100
AcDbEntity
  8
0
370
     5
390
0
 62
     7
 48
0.00004
100
AcDbLine
 10
8.111747
 20
0.587112
 30
0.0
 11
8.113329
 21
0.586844
 31
0.0
210
0.0
220
0.0
230
1.0
  0
LINE
  5
650
100
AcDbEntity
  8
0
370
     5
390
0
 62
     7
 48
0.000071
100
AcDbLine
 10
8.113329
 20
0.586844
 30
0.0
 11
8.116087
 21
0.586202
 31
0.0
210
0.0
220
0.0
230
1.0
  0
LINE
  5
651
100
AcDbEntity
  8
0
370
     5
390
0
 62
     7
 48
0.000065
100
AcDbLine
 10
8.116087
 20
0.586202
 30
0.0
 11
8.118538
 21
0.585356
 31
0.0
210
0.0
220
0.0
230
1.0
  0
LINE
  5
652
100
AcDbEntity
  8
0
370
     5
390
0
 62
     7
 48
0.000066
100
AcDbLine
 10
8.118538
 20
0.585356
 30
0.0
 11
8.120915
 21
0.584246
 31
0.0
210
0.0
220
0.0
230
1.0
  0
LINE
  5
653
100
AcDbEntity
  8
0
370
     5
390
0
 62
     7
 48
0.000067
100
AcDbLine
 10
8.120915
 20
0.584246
 30
0.0
 11
8.123219
 21
0.582873
 31
0.0
210
0.0
220
0.0
230
1.0
  0
LINE
  5
654
100
AcDbEntity
  8
0
370
     5
390
0
 62
     7
 48
0.000069
100
AcDbLine
 10
8.123219
 20
0.582873
 30
0.0
 11
8.125449
 21
0.581235
 31
0.0
210
0.0
220
0.0
230
1.0
  0
LINE
  5
655
100
AcDbEntity
  8
0
370
     5
390
0
 62
     7
 48
0.000072
100
AcDbLine
 10
8.125449
 20
0.581235
 30
0.0
 11
8.127607
 21
0.579333
 31
0.0
210
0.0
220
0.0
230
1.0
  0
LINE
  5
656
100
AcDbEntity
  8
0
370
     5
390
0
 62
     7
 48
0.000063
100
AcDbLine
 10
8.127607
 20
0.579333
 30
0.0
 11
8.126338
 21
0.581511
 31
0.0
210
0.0
220
0.0
230
1.0
  0
LINE
  5
657
100
AcDbEntity
  8
0
370
     5
390
0
 62
     7
 48
0.000063
100
AcDbLine
 10
8.126338
 20
0.581511
 30
0.0
 11
8.124737
 21
0.583461
 31
0.0
210
0.0
220
0.0
230
1.0
  0
LINE
  5
658
100
AcDbEntity
  8
0
370
     5
390
0
 62
     7
 48
0.000065
100
AcDbLine
 10
8.124737
 20
0.583461
 30
0.0
 11
8.122807
 21
0.58518
 31
0.0
210
0.0
220
0.0
230
1.0
  0
LINE
  5
659
100
AcDbEntity
  8
0
370
     5
390
0
 62
     7
 48
0.000068
100
AcDbLine
 10
8.122807
 20
0.58518
 30
0.0
 11
8.120546
 21
0.586671
 31
0.0
210
0.0
220
0.0
230
1.0
  0
LINE
  5
65A
100
AcDbEntity
  8
0
370
     5
390
0
 62
     7
 48
0.000072
100
AcDbLine
 10
8.120546
 20
0.586671
 30
0.0
 11
8.117954
 21
0.587933
 31
0.0
210
0.0
220
0.0
230
1.0
  0
LINE
  5
65B
100
AcDbEntity
  8
0
370
     5
390
0
 62
     7
 48
0.000078
100
AcDbLine
 10
8.117954
 20
0.587933
 30
0.0
 11
8.115029
 21
0.588965
 31
0.0
210
0.0
220
0.0
230
1.0
  0
LINE
  5
65C
100
AcDbEntity
  8
0
370
     5
390
0
 62
     7
 48
0.000084
100
AcDbLine
 10
8.115029
 20
0.588965
 30
0.0
 11
8.111775
 21
0.589767
 31
0.0
210
0.0
220
0.0
230
1.0
  0
LINE
  5
65D
100
AcDbEntity
  8
0
370
     5
390
0
 62
     7
 48
0.000091
100
AcDbLine
 10
8.111775
 20
0.589767
 30
0.0
 11
8.108189
 21
0.59034
 31
0.0
210
0.0
220
0.0
230
1.0
  0
LINE
  5
65E
100
AcDbEntity
  8
0
370
     5
390
0
 62
     7
 48
0.000098
100
AcDbLine
 10
8.108189
 20
0.59034
 30
0.0
 11
8.104273
 21
0.590684
 31
0.0
210
0.0
220
0.0
230
1.0
  0
LINE
  5
65F
100
AcDbEntity
  8
0
370
     5
390
0
 62
     7
 48
0.000106
100
AcDbLine
 10
8.104273
 20
0.590684
 30
0.0
 11
8.100026
 21
0.590798
 31
0.0
210
0.0
220
0.0
230
1.0
  0
LINE
  5
660
100
AcDbEntity
  8
0
370
     5
390
0
 62
     7
 48
0.000075
100
AcDbLine
 10
8.100026
 20
0.590798
 30
0.0
 11
8.097032
 21
0.590786
 31
0.0
210
0.0
220
0.0
230
1.0
  0
LINE
  5
661
100
AcDbEntity
  8
0
370
     5
390
0
 62
     7
 48
0.000073
100
AcDbLine
 10
8.097032
 20
0.590786
 30
0.0
 11
8.094107
 21
0.590747
 31
0.0
210
0.0
220
0.0
230
1.0
  0
LINE
  5
662
100
AcDbEntity
  8
0
370
     5
390
0
 62
     7
 48
0.000071
100
AcDbLine
 10
8.094107
 20
0.590747
 30
0.0
 11
8.091251
 21
0.590682
 31
0.0
210
0.0
220
0.0
230
1.0
  0
LINE
  5
663
100
AcDbEntity
  8
0
370
     5
390
0
 62
     7
 48
0.00007
100
AcDbLine
 10
8.091251
 20
0.590682
 30
0.0
 11
8.088465
 21
0.590591
 31
0.0
210
0.0
220
0.0
230
1.0
  0
LINE
  5
664
100
AcDbEntity
  8
0
370
     5
390
0
 62
     7
 48
0.000068
100
AcDbLine
 10
8.088465
 20
0.590591
 30
0.0
 11
8.085749
 21
0.590474
 31
0.0
210
0.0
220
0.0
230
1.0
  0
LINE
  5
665
100
AcDbEntity
  8
0
370
     5
390
0
 62
     7
 48
0.000078
100
AcDbLine
 10
8.085749
 20
0.590474
 30
0.0
 11
8.082612
 21
0.590366
 31
0.0
210
0.0
220
0.0
230
1.0
  0
LINE
  5
666
100
AcDbEntity
  8
0
370
     5
390
0
 62
     7
 48
0.001117
100
AcDbLine
 10
8.082612
 20
0.590366
 30
0.0
 11
8.082612
 21
0.545696
 31
0.0
210
0.0
220
0.0
230
1.0
  0
LINE
  5
667
100
AcDbEntity
  8
0
370
     5
390
0
 62
     7
 48
0.000165
100
AcDbLine
 10
8.082612
 20
0.545696
 30
0.0
 11
8.076014
 21
0.545696
 31
0.0
210
0.0
220
0.0
230
1.0
  0
LINE
  5
668
100
AcDbEntity
  8
0
370
     5
390
0
 62
     7
 48
0.001265
100
AcDbLine
 10
8.076014
 20
0.545696
 30
0.0
 11
8.076014
 21
0.596315
 31
0.0
210
0.0
220
0.0
230
1.0
  0
LINE
  5
669
100
AcDbEntity
  8
0
370
     5
390
0
 62
     7
 48
0.0001
100
AcDbLine
 10
8.076014
 20
0.596315
 30
0.0
 11
8.080016
 21
0.596207
 31
0.0
210
0.0
220
0.0
230
1.0
  0
LINE
  5
66A
100
AcDbEntity
  8
0
370
     5
390
0
 62
     7
 48
0.000262
100
AcDbLine
 10
8.080016
 20
0.596207
 30
0.0
 11
8.090507
 21
0.596099
 31
0.0
210
0.0
220
0.0
230
1.0
  0
LINE
  5
66B
100
AcDbEntity
  8
0
370
     5
390
0
 62
     7
 48
0.000154
100
AcDbLine
 10
8.090507
 20
0.596099
 30
0.0
 11
8.096672
 21
0.596207
 31
0.0
210
0.0
220
0.0
230
1.0
  0
LINE
  5
66C
100
AcDbEntity
  8
0
370
     5
390
0
 62
     7
 48
0.00008
100
AcDbLine
 10
8.096672
 20
0.596207
 30
0.0
 11
8.099887
 21
0.596163
 31
0.0
210
0.0
220
0.0
230
1.0
  0
LINE
  5
66D
100
AcDbEntity
  8
0
370
     5
390
0
 62
     7
 48
0.000076
100
AcDbLine
 10
8.099887
 20
0.596163
 30
0.0
 11
8.102909
 21
0.596033
 31
0.0
210
0.0
220
0.0
230
1.0
  0
LINE
  5
66E
100
AcDbEntity
  8
0
370
     5
390
0
 62
     7
 48
0.000071
100
AcDbLine
 10
8.102909
 20
0.596033
 30
0.0
 11
8.10574
 21
0.595817
 31
0.0
210
0.0
220
0.0
230
1.0
  0
LINE
  5
66F
100
AcDbEntity
  8
0
370
     5
390
0
 62
     7
 48
0.000066
100
AcDbLine
 10
8.10574
 20
0.595817
 30
0.0
 11
8.108379
 21
0.595514
 31
0.0
210
0.0
220
0.0
230
1.0
  0
LINE
  5
670
100
AcDbEntity
  8
0
370
     5
390
0
 62
     7
 48
0.000062
100
AcDbLine
 10
8.108379
 20
0.595514
 30
0.0
 11
8.110827
 21
0.595125
 31
0.0
210
0.0
220
0.0
230
1.0
  0
LINE
  5
671
100
AcDbEntity
  8
0
370
     5
390
0
 62
     7
 48
0.000058
100
AcDbLine
 10
8.110827
 20
0.595125
 30
0.0
 11
8.113085
 21
0.594648
 31
0.0
210
0.0
220
0.0
230
1.0
  0
LINE
  5
672
100
AcDbEntity
  8
0
370
     5
390
0
 62
     7
 48
0.000054
100
AcDbLine
 10
8.113085
 20
0.594648
 30
0.0
 11
8.11515
 21
0.594086
 31
0.0
210
0.0
220
0.0
230
1.0
  0
LINE
  5
673
100
AcDbEntity
  8
0
370
     5
390
0
 62
     7
 48
0.00005
100
AcDbLine
 10
8.11515
 20
0.594086
 30
0.0
 11
8.117024
 21
0.593438
 31
0.0
210
0.0
220
0.0
230
1.0
  0
LINE
  5
674
100
AcDbEntity
  8
0
370
     5
390
0
 62
     7
 48
0.000046
100
AcDbLine
 10
8.117024
 20
0.593438
 30
0.0
 11
8.118707
 21
0.592701
 31
0.0
210
0.0
220
0.0
230
1.0
  0
LINE
  5
675
100
AcDbEntity
  8
0
370
     5
390
0
 62
     7
 48
0.000043
100
AcDbLine
 10
8.118707
 20
0.592701
 30
0.0
 11
8.120198
 21
0.591881
 31
0.0
210
0.0
220
0.0
230
1.0
  0
LINE
  5
676
100
AcDbEntity
  8
0
370
     5
390
0
 62
     7
 48
0.000043
100
AcDbLine
 10
8.120198
 20
0.591881
 30
0.0
 11
8.121594
 21
0.59091
 31
0.0
210
0.0
220
0.0
230
1.0
  0
LINE
  5
677
100
AcDbEntity
  8
0
370
     5
390
0
 62
     7
 48
0.000046
100
AcDbLine
 10
8.121594
 20
0.59091
 30
0.0
 11
8.122994
 21
0.589734
 31
0.0
210
0.0
220
0.0
230
1.0
  0
LINE
  5
678
100
AcDbEntity
  8
0
370
     5
390
0
 62
     7
 48
0.000049
100
AcDbLine
 10
8.122994
 20
0.589734
 30
0.0
 11
8.124398
 21
0.58835
 31
0.0
210
0.0
220
0.0
230
1.0
  0
LINE
  5
679
100
AcDbEntity
  8
0
370
     5
390
0
 62
     7
 48
0.000053
100
AcDbLine
 10
8.124398
 20
0.58835
 30
0.0
 11
8.125804
 21
0.586758
 31
0.0
210
0.0
220
0.0
230
1.0
  0
LINE
  5
67A
100
AcDbEntity
  8
0
370
     5
390
0
 62
     7
 48
0.000057
100
AcDbLine
 10
8.125804
 20
0.586758
 30
0.0
 11
8.127215
 21
0.584958
 31
0.0
210
0.0
220
0.0
230
1.0
  0
LINE
  5
67B
100
AcDbEntity
  8
0
370
     5
390
0
 62
     7
 48
0.000061
100
AcDbLine
 10
8.127215
 20
0.584958
 30
0.0
 11
8.128628
 21
0.582951
 31
0.0
210
0.0
220
0.0
230
1.0
  0
LINE
  5
67C
100
AcDbEntity
  8
0
370
     5
390
0
 62
     7
 48
0.000066
100
AcDbLine
 10
8.128628
 20
0.582951
 30
0.0
 11
8.130044
 21
0.580736
 31
0.0
210
0.0
220
0.0
230
1.0
  0
LINE
  5
67D
100
AcDbEntity
  8
0
370
     5
390
0
 62
     7
 48
0.00007
100
AcDbLine
 10
8.130044
 20
0.580736
 30
0.0
 11
8.131463
 21
0.578313
 31
0.0
210
0.0
220
0.0
230
1.0
  0
LINE
  5
67E
100
AcDbEntity
  8
0
370
     5
390
0
 62
     7
 48
0.000075
100
AcDbLine
 10
8.131463
 20
0.578313
 30
0.0
 11
8.132887
 21
0.575682
 31
0.0
210
0.0
220
0.0
230
1.0
  0
LINE
  5
67F
100
AcDbEntity
  8
0
370
     5
390
0
 62
     7
 48
0.000079
100
AcDbLine
 10
8.132887
 20
0.575682
 30
0.0
 11
8.134311
 21
0.572844
 31
0.0
210
0.0
220
0.0
230
1.0
  0
LINE
  5
680
100
AcDbEntity
  8
0
370
     5
390
0
 62
     7
 48
0.000058
100
AcDbLine
 10
8.134311
 20
0.572844
 30
0.0
 11
8.135177
 21
0.575007
 31
0.0
210
0.0
220
0.0
230
1.0
  0
LINE
  5
681
100
AcDbEntity
  8
0
370
     5
390
0
 62
     7
 48
0.000059
100
AcDbLine
 10
8.135177
 20
0.575007
 30
0.0
 11
8.136049
 21
0.577196
 31
0.0
210
0.0
220
0.0
230
1.0
  0
LINE
  5
682
100
AcDbEntity
  8
0
370
     5
390
0
 62
     7
 48
0.000056
100
AcDbLine
 10
8.136049
 20
0.577196
 30
0.0
 11
8.136889
 21
0.57926
 31
0.0
210
0.0
220
0.0
230
1.0
  0
LINE
  5
683
100
AcDbEntity
  8
0
370
     5
390
0
 62
     7
 48
0.000053
100
AcDbLine
 10
8.136889
 20
0.57926
 30
0.0
 11
8.137697
 21
0.581201
 31
0.0
210
0.0
220
0.0
230
1.0
  0
LINE
  5
684
100
AcDbEntity
  8
0
370
     5
390
0
 62
     7
 48
0.000049
100
AcDbLine
 10
8.137697
 20
0.581201
 30
0.0
 11
8.138474
 21
0.583019
 31
0.0
210
0.0
220
0.0
230
1.0
  0
LINE
  5
685
100
AcDbEntity
  8
0
370
     5
390
0
 62
     7
 48
0.000046
100
AcDbLine
 10
8.138474
 20
0.583019
 30
0.0
 11
8.13922
 21
0.584714
 31
0.0
210
0.0
220
0.0
230
1.0
  0
LINE
  5
686
100
AcDbEntity
  8
0
370
     5
390
0
 62
     7
 48
0.000043
100
AcDbLine
 10
8.13922
 20
0.584714
 30
0.0
 11
8.139935
 21
0.586286
 31
0.0
210
0.0
220
0.0
230
1.0
  0
LINE
  5
687
100
AcDbEntity
  8
0
370
     5
390
0
 62
     7
 48
0.00004
100
AcDbLine
 10
8.139935
 20
0.586286
 30
0.0
 11
8.140617
 21
0.587735
 31
0.0
210
0.0
220
0.0
230
1.0
  0
LINE
  5
688
100
AcDbEntity
  8
0
370
     5
390
0
 62
     7
 48
0.000071
100
AcDbLine
 10
8.140617
 20
0.587735
 30
0.0
 11
8.14189
 21
0.590261
 31
0.0
210
0.0
220
0.0
230
1.0
  0
LINE
  5
689
100
AcDbEntity
  8
0
370
     5
390
0
 62
     7
 48
0.000061
100
AcDbLine
 10
8.14189
 20
0.590261
 30
0.0
 11
8.143089
 21
0.592394
 31
0.0
210
0.0
220
0.0
230
1.0
  0
LINE
  5
68A
100
AcDbEntity
  8
0
370
     5
390
0
 62
     7
 48
0.000069
100
AcDbLine
 10
8.143089
 20
0.592394
 30
0.0
 11
8.144543
 21
0.594729
 31
0.0
210
0.0
220
0.0
230
1.0
  0
LINE
  5
68B
100
AcDbEntity
  8
0
370
     5
390
0
 62
     7
 48
0.000038
100
AcDbLine
 10
8.144543
 20
0.594729
 30
0.0
 11
8.145386
 21
0.596012
 31
0.0
210
0.0
220
0.0
230
1.0
  0
LINE
  5
68C
100
AcDbEntity
  8
0
370
     5
390
0
 62
     7
 48
0.000041
100
AcDbLine
 10
8.145386
 20
0.596012
 30
0.0
 11
8.146304
 21
0.597369
 31
0.0
210
0.0
220
0.0
230
1.0
  0
LINE
  5
68D
100
AcDbEntity
  8
0
370
     5
390
0
 62
     7
 48
0.000044
100
AcDbLine
 10
8.146304
 20
0.597369
 30
0.0
 11
8.1473
 21
0.598802
 31
0.0
210
0.0
220
0.0
230
1.0
  0
LINE
  5
68E
100
AcDbEntity
  8
0
370
     5
390
0
 62
     7
 48
0.000046
100
AcDbLine
 10
8.1473
 20
0.598802
 30
0.0
 11
8.148372
 21
0.600311
 31
0.0
210
0.0
220
0.0
230
1.0
  0
LINE
  5
68F
100
AcDbEntity
  8
0
370
     5
390
0
 62
     7
 48
0.000049
100
AcDbLine
 10
8.148372
 20
0.600311
 30
0.0
 11
8.149522
 21
0.601895
 31
0.0
210
0.0
220
0.0
230
1.0
  0
LINE
  5
690
100
AcDbEntity
  8
0
370
     5
390
0
 62
     7
 48
0.000052
100
AcDbLine
 10
8.149522
 20
0.601895
 30
0.0
 11
8.150747
 21
0.603555
 31
0.0
210
0.0
220
0.0
230
1.0
  0
LINE
  5
691
100
AcDbEntity
  8
0
370
     5
390
0
 62
     7
 48
0.000054
100
AcDbLine
 10
8.150747
 20
0.603555
 30
0.0
 11
8.152051
 21
0.605292
 31
0.0
210
0.0
220
0.0
230
1.0
  0
LINE
  5
692
100
AcDbEntity
  8
0
370
     5
390
0
 62
     7
 48
0.002807
100
AcDbLine
 10
8.152051
 20
0.605292
 30
0.0
 11
8.03978
 21
0.605292
 31
0.0
210
0.0
220
0.0
230
1.0
  0
ENDBLK
  5
693
100
AcDbEntity
  8
0
390
0
100
AcDbBlockEnd
  0
BLOCK
  5
694
100
AcDbEntity
  8
0
370
     0
390
0
100
AcDbBlockBegin
  2
BLOCK7
 70
     0
 10
0.0
 20
0.0
 30
0.0
  3
BLOCK7
  1

  0
TEXT
  5
695
100
AcDbEntity
  8
0
370
    13
390
0
 62
     7
 48
0.03937
100
AcDbText
 10
-6.716564
 20
6.254926
 30
0.0
 40
0.259014
  1
8
 72
     5
 11
-6.529415
 21
6.254926
 31
0.0
100
AcDbText
  0
TEXT
  5
696
100
AcDbEntity
  8
0
370
    13
390
0
 62
     7
 48
0.03937
100
AcDbText
 10
-6.529415
 20
6.254926
 30
0.0
 40
0.259014
  1
X
 72
     5
 11
-6.241581
 21
6.254926
 31
0.0
100
AcDbText
  0
ENDBLK
  5
697
100
AcDbEntity
  8
0
390
0
100
AcDbBlockEnd
  0
BLOCK
  5
698
100
AcDbEntity
  8
0
370
     0
390
0
100
AcDbBlockBegin
  2
BLOCK8
 70
     0
 10
0.0
 20
0.0
 30
0.0
  3
BLOCK8
  1

  0
SOLID
  5
699
100
AcDbEntity
  8
0
370
    13
390
0
 62
     7
 48
0.03937
100
AcDbTrace
 10
-4.128589
 20
-5.686075
 30
0.0
 11
-3.884399
 21
-5.211664
 31
0.0
 12
-4.128589
 22
-5.686075
 32
0.0
 13
-4.269253
 23
-5.581235
 33
0.0
  0
SOLID
  5
69A
100
AcDbEntity
  8
0
370
    13
390
0
 62
     7
 48
0.03937
100
AcDbTrace
 10
4.128589
 20
5.686075
 30
0.0
 11
3.884399
 21
5.211664
 31
0.0
 12
4.128589
 22
5.686075
 32
0.0
 13
4.269253
 23
5.581235
 33
0.0
  0
TEXT
  5
69B
100
AcDbEntity
  8
0
370
    13
390
0
 62
     7
 48
0.03937
100
AcDbText
 10
5.796376
 20
6.064154
 30
0.0
 40
0.259014
  1
13
 72
     5
 11
6.170673
 21
6.064154
 31
0.0
100
AcDbText
  0
TEXT
  5
69C
100
AcDbEntity
  8
0
370
    13
390
0
 62
     7
 48
0.03937
100
AcDbText
 10
6.170673
 20
6.064154
 30
0.0
 40
0.259014
  1
"
 72
     5
 11
6.360616
 21
6.064154
 31
0.0
100
AcDbText
  0
TEXT
  5
69D
100
AcDbEntity
  8
0
370
    13
390
0
 62
     7
 48
0.03937
100
AcDbText
 10
5.274204
 20
6.064154
 30
0.0
 40
0.259014
  1
%%c
 72
     5
 11
5.533218
 21
6.064154
 31
0.0
100
AcDbText
  0
LINE
  5
69E
100
AcDbEntity
  8
0
370
    13
390
0
 62
     7
 48
0.011184
100
AcDbLine
 10
4.616309
 20
6.193661
 30
0.0
 11
5.063678
 21
6.193661
 31
0.0
210
0.0
220
0.0
230
1.0
  0
LINE
  5
69F
100
AcDbEntity
  8
0
370
    13
390
0
 62
     7
 48
0.007563
100
AcDbLine
 10
-4.379716
 20
-5.876226
 30
0.0
 11
-4.198921
 21
-5.633655
 31
0.0
210
0.0
220
0.0
230
1.0
  0
LINE
  5
6A0
100
AcDbEntity
  8
0
370
    13
390
0
 62
     7
 48
0.017461
100
AcDbLine
 10
4.198921
 20
5.633655
 30
0.0
 11
4.616309
 21
6.193661
 31
0.0
210
0.0
220
0.0
230
1.0
  0
POLYLINE
  5
6A1
100
AcDbEntity
  8
0
370
    13
390
0
 62
     7
 48
0.03937
100
AcDb2dPolyline
 66
     1
 10
0.0
 20
0.0
 30
0.0
 70
     1
 71
     3
  0
VERTEX
  5
6A2
100
AcDbEntity
  8
0
370
     0
390
0
100
AcDbVertex
100
AcDb2dVertex
 10
-4.128589
 20
-5.686075
 30
0.0
  0
VERTEX
  5
6A3
100
AcDbEntity
  8
0
370
     0
390
0
100
AcDbVertex
100
AcDb2dVertex
 10
-3.884399
 20
-5.211664
 30
0.0
  0
VERTEX
  5
6A4
100
AcDbEntity
  8
0
370
     0
390
0
100
AcDbVertex
100
AcDb2dVertex
 10
-4.269253
 20
-5.581235
 30
0.0
  0
SEQEND
  5
6A5
100
AcDbEntity
  8
0
370
     0
390
0
  0
POLYLINE
  5
6A6
100
AcDbEntity
  8
0
370
    13
390
0
 62
     7
 48
0.03937
100
AcDb2dPolyline
 66
     1
 10
0.0
 20
0.0
 30
0.0
 70
     1
 71
     3
  0
VERTEX
  5
6A7
100
AcDbEntity
  8
0
370
     0
390
0
100
AcDbVertex
100
AcDb2dVertex
 10
4.128589
 20
5.686075
 30
0.0
  0
VERTEX
  5
6A8
100
AcDbEntity
  8
0
370
     0
390
0
100
AcDbVertex
100
AcDb2dVertex
 10
3.884399
 20
5.211664
 30
0.0
  0
VERTEX
  5
6A9
100
AcDbEntity
  8
0
370
     0
390
0
100
AcDbVertex
100
AcDb2dVertex
 10
4.269253
 20
5.581235
 30
0.0
  0
SEQEND
  5
6AA
100
AcDbEntity
  8
0
370
     0
390
0
  0
ENDBLK
  5
6AB
100
AcDbEntity
  8
0
390
0
100
AcDbBlockEnd
  0
BLOCK
  5
6AC
100
AcDbEntity
  8
0
370
     0
390
0
100
AcDbBlockBegin
  2
BLOCK9
 70
     0
 10
0.0
 20
0.0
 30
0.0
  3
BLOCK9
  1

  0
SOLID
  5
6AD
100
AcDbEntity
  8
0
370
    13
390
0
 62
     7
 48
0.03937
100
AcDbTrace
 10
-4.226951
 20
4.672991
 30
0.0
 11
-3.936162
 21
4.225624
 31
0.0
 12
-4.226951
 22
4.672991
 32
0.0
 13
-4.066141
 23
4.743118
 33
0.0
  0
TEXT
  5
6AE
100
AcDbEntity
  8
0
370
    13
390
0
 62
     7
 48
0.03937
100
AcDbText
 10
-6.200623
 20
5.842546
 30
0.0
 40
0.259014
  1
1.12
 72
     5
 11
-5.545603
 21
5.842546
 31
0.0
100
AcDbText
  0
TEXT
  5
6AF
100
AcDbEntity
  8
0
370
    13
390
0
 62
     7
 48
0.03937
100
AcDbText
 10
-5.545603
 20
5.842546
 30
0.0
 40
0.259014
  1
"
 72
     5
 11
-5.35566
 21
5.842546
 31
0.0
100
AcDbText
  0
TEXT
  5
6B0
100
AcDbEntity
  8
0
370
    13
390
0
 62
     7
 48
0.03937
100
AcDbText
 10
-6.722795
 20
5.842546
 30
0.0
 40
0.259014
  1
%%c
 72
     5
 11
-6.463781
 21
5.842546
 31
0.0
100
AcDbText
  0
LINE
  5
6B1
100
AcDbEntity
  8
0
370
    13
390
0
 62
     7
 48
0.011184
100
AcDbLine
 10
-4.697765
 20
5.972053
 30
0.0
 11
-5.145133
 21
5.972053
 31
0.0
210
0.0
220
0.0
230
1.0
  0
LINE
  5
6B2
100
AcDbEntity
  8
0
370
    13
390
0
 62
     7
 48
0.03937
100
AcDbLine
 10
-4.146546
 20
4.708055
 30
0.0
 11
-4.697765
 21
5.972053
 31
0.0
210
0.0
220
0.0
230
1.0
  0
POLYLINE
  5
6B3
100
AcDbEntity
  8
0
370
    13
390
0
 62
     7
 48
0.03937
100
AcDb2dPolyline
 66
     1
 10
0.0
 20
0.0
 30
0.0
 70
     1
 71
     3
  0
VERTEX
  5
6B4
100
AcDbEntity
  8
0
370
     0
390
0
100
AcDbVertex
100
AcDb2dVertex
 10
-4.226951
 20
4.672991
 30
0.0
  0
VERTEX
  5
6B5
100
AcDbEntity
  8
0
370
     0
390
0
100
AcDbVertex
100
AcDb2dVertex
 10
-3.936162
 20
4.225624
 30
0.0
  0
VERTEX
  5
6B6
100
AcDbEntity
  8
0
370
     0
390
0
100
AcDbVertex
100
AcDb2dVertex
 10
-4.066141
 20
4.743118
 30
0.0
  0
SEQEND
  5
6B7
100
AcDbEntity
  8
0
370
     0
390
0
  0
ENDBLK
  5
6B8
100
AcDbEntity
  8
0
390
0
100
AcDbBlockEnd
  0
BLOCK
  5
6B9
100
AcDbEntity
  8
0
370
     0
390
0
100
AcDbBlockBegin
  2
BLOCK10
 70
     0
 10
0.0
 20
0.0
 30
0.0
  3
BLOCK10
  1

  0
SOLID
  5
6BA
100
AcDbEntity
  8
0
370
    13
390
0
 62
     7
 48
0.03937
100
AcDbTrace
 10
-2.327803
 20
4.11124
 30
0.0
 11
-2.671094
 21
4.519708
 31
0.0
 12
-2.327803
 22
4.11124
 32
0.0
 13
-2.478835
 23
4.021981
 33
0.0
  0
SOLID
  5
6BB
100
AcDbEntity
  8
0
370
    13
390
0
 62
     7
 48
0.03937
100
AcDbTrace
 10
2.327803
 20
-4.11124
 30
0.0
 11
2.671094
 21
-4.519708
 31
0.0
 12
2.327803
 22
-4.11124
 32
0.0
 13
2.478835
 23
-4.021981
 33
0.0
  0
TEXT
  5
6BC
100
AcDbEntity
  8
0
370
    13
390
0
 62
     7
 48
0.03937
100
AcDbText
 10
4.85388
 20
-6.345897
 30
0.0
 40
0.259014
  1
10.5
 72
     5
 11
5.5089
 21
-6.345897
 31
0.0
100
AcDbText
  0
TEXT
  5
6BD
100
AcDbEntity
  8
0
370
    13
390
0
 62
     7
 48
0.03937
100
AcDbText
 10
5.5089
 20
-6.345897
 30
0.0
 40
0.259014
  1
"
 72
     5
 11
5.698843
 21
-6.345897
 31
0.0
100
AcDbText
  0
TEXT
  5
6BE
100
AcDbEntity
  8
0
370
    13
390
0
 62
     7
 48
0.03937
100
AcDbText
 10
4.331708
 20
-6.345897
 30
0.0
 40
0.259014
  1
%%c
 72
     5
 11
4.590722
 21
-6.345897
 31
0.0
100
AcDbText
  0
TEXT
  5
6BF
100
AcDbEntity
  8
0
370
    13
390
0
 62
     7
 48
0.03937
100
AcDbText
 10
4.331708
 20
-6.760319
 30
0.0
 40
0.259014
  1
BOLT CIRCLE
 72
     5
 11
6.932325
 21
-6.760319
 31
0.0
100
AcDbText
  0
LINE
  5
6C0
100
AcDbEntity
  8
0
370
    13
390
0
 62
     7
 48
0.011184
100
AcDbLine
 10
3.673814
 20
-6.21639
 30
0.0
 11
4.121182
 21
-6.21639
 31
0.0
210
0.0
220
0.0
230
1.0
  0
ARC
  5
6C1
100
AcDbEntity
  8
0
370
    13
390
0
 62
     7
 48
0.03937
100
AcDbCircle
 10
0.0
 20
0.0
 30
0.0
 40
5.25
210
0.0
220
0.0
230
1.0
100
AcDbArc
 50
118.321197
 51
161.900455
  0
ARC
  5
6C2
100
AcDbEntity
  8
0
370
    13
390
0
 62
     7
 48
0.03937
100
AcDbCircle
 10
0.0
 20
0.0
 30
0.0
 40
5.25
210
0.0
220
0.0
230
1.0
100
AcDbArc
 50
198.099559
 51
302.843976
  0
LINE
  5
6C3
100
AcDbEntity
  8
0
370
    13
390
0
 62
     7
 48
0.03937
100
AcDbLine
 10
-2.403319
 20
4.066611
 30
0.0
 11
2.403319
 21
-4.06661
 31
0.0
210
0.0
220
0.0
230
1.0
  0
LINE
  5
6C4
100
AcDbEntity
  8
0
370
    13
390
0
 62
     7
 48
0.03937
100
AcDbLine
 10
2.671094
 20
-4.519708
 30
0.0
 11
3.673814
 21
-6.21639
 31
0.0
210
0.0
220
0.0
230
1.0
  0
POLYLINE
  5
6C5
100
AcDbEntity
  8
0
370
    13
390
0
 62
     7
 48
0.03937
100
AcDb2dPolyline
 66
     1
 10
0.0
 20
0.0
 30
0.0
 70
     1
 71
     3
  0
VERTEX
  5
6C6
100
AcDbEntity
  8
0
370
     0
390
0
100
AcDbVertex
100
AcDb2dVertex
 10
-2.327803
 20
4.11124
 30
0.0
  0
VERTEX
  5
6C7
100
AcDbEntity
  8
0
370
     0
390
0
100
AcDbVertex
100
AcDb2dVertex
 10
-2.671094
 20
4.519708
 30
0.0
  0
VERTEX
  5
6C8
100
AcDbEntity
  8
0
370
     0
390
0
100
AcDbVertex
100
AcDb2dVertex
 10
-2.478835
 20
4.021981
 30
0.0
  0
SEQEND
  5
6C9
100
AcDbEntity
  8
0
370
     0
390
0
  0
POLYLINE
  5
6CA
100
AcDbEntity
  8
0
370
    13
390
0
 62
     7
 48
0.03937
100
AcDb2dPolyline
 66
     1
 10
0.0
 20
0.0
 30
0.0
 70
     1
 71
     3
  0
VERTEX
  5
6CB
100
AcDbEntity
  8
0
370
     0
390
0
100
AcDbVertex
100
AcDb2dVertex
 10
2.327803
 20
-4.11124
 30
0.0
  0
VERTEX
  5
6CC
100
AcDbEntity
  8
0
370
     0
390
0
100
AcDbVertex
100
AcDb2dVertex
 10
2.671094
 20
-4.519708
 30
0.0
  0
VERTEX
  5
6CD
100
AcDbEntity
  8
0
370
     0
390
0
100
AcDbVertex
100
AcDb2dVertex
 10
2.478835
 20
-4.021981
 30
0.0
  0
SEQEND
  5
6CE
100
AcDbEntity
  8
0
370
     0
390
0
  0
ENDBLK
  5
6CF
100
AcDbEntity
  8
0
390
0
100
AcDbBlockEnd
  0
BLOCK
  5
6D0
100
AcDbEntity
  8
0
370
     0
390
0
100
AcDbBlockBegin
  2
BLOCK11
 70
     0
 10
0.0
 20
0.0
 30
0.0
  3
BLOCK11
  1

  0
LINE
  5
6D1
100
AcDbEntity
  8
0
370
    13
390
0
  6
DASHDOT
 62
     7
 48
0.03937
100
AcDbLine
 10
-6.701247
 20
0.0
 30
0.0
 11
-3.798753
 21
0.0
 31
0.0
210
0.0
220
0.0
230
1.0
  0
ARC
  5
6D2
100
AcDbEntity
  8
0
370
    13
390
0
  6
DASHDOT
 62
     7
 48
0.03937
100
AcDbCircle
 10
0.0
 20
0.0
 30
0.0
 40
5.25
210
0.0
220
0.0
230
1.0
100
AcDbArc
 50
164.161848
 51
195.838152
  0
ENDBLK
  5
6D3
100
AcDbEntity
  8
0
390
0
100
AcDbBlockEnd
  0
BLOCK
  5
6D4
100
AcDbEntity
  8
0
370
     0
390
0
100
AcDbBlockBegin
  2
BLOCK12
 70
     0
 10
0.0
 20
0.0
 30
0.0
  3
BLOCK12
  1

  0
LINE
  5
6D5
100
AcDbEntity
  8
0
370
    13
390
0
  6
DASHDOT
 62
     7
 48
0.03937
100
AcDbLine
 10
-4.636524
 20
4.636524
 30
0.0
 11
-2.788097
 21
2.788097
 31
0.0
210
0.0
220
0.0
230
1.0
  0
ARC
  5
6D6
100
AcDbEntity
  8
0
370
    13
390
0
  6
DASHDOT
 62
     7
 48
0.03937
100
AcDbCircle
 10
0.0
 20
0.0
 30
0.0
 40
5.25
210
0.0
220
0.0
230
1.0
100
AcDbArc
 50
120.735697
 51
149.264304
  0
ENDBLK
  5
6D7
100
AcDbEntity
  8
0
390
0
100
AcDbBlockEnd
  0
BLOCK
  5
6D8
100
AcDbEntity
  8
0
370
     0
390
0
100
AcDbBlockBegin
  2
BLOCK13
 70
     0
 10
0.0
 20
0.0
 30
0.0
  3
BLOCK13
  1

  0
LINE
  5
6D9
100
AcDbEntity
  8
0
370
    13
390
0
  6
DASHDOT
 62
     7
 48
0.03937
100
AcDbLine
 10
0.0
 20
6.686825
 30
0.0
 11
0.0
 21
3.813174
 31
0.0
210
0.0
220
0.0
230
1.0
  0
ARC
  5
6DA
100
AcDbEntity
  8
0
370
    13
390
0
  6
DASHDOT
 62
     7
 48
0.03937
100
AcDbCircle
 10
0.0
 20
0.0
 30
0.0
 40
5.25
210
0.0
220
0.0
230
1.0
100
AcDbArc
 50
74.319227
 51
105.680771
  0
ENDBLK
  5
6DB
100
AcDbEntity
  8
0
390
0
100
AcDbBlockEnd
  0
BLOCK
  5
6DC
100
AcDbEntity
  8
0
370
     0
390
0
100
AcDbBlockBegin
  2
BLOCK14
 70
     0
 10
0.0
 20
0.0
 30
0.0
  3
BLOCK14
  1

  0
LINE
  5
6DD
100
AcDbEntity
  8
0
370
    13
390
0
  6
DASHDOT
 62
     7
 48
0.03937
100
AcDbLine
 10
4.786085
 20
4.786085
 30
0.0
 11
2.638537
 21
2.638537
 31
0.0
210
0.0
220
0.0
230
1.0
  0
ARC
  5
6DE
100
AcDbEntity
  8
0
370
    13
390
0
  6
DASHDOT
 62
     7
 48
0.03937
100
AcDbCircle
 10
0.0
 20
0.0
 30
0.0
 40
5.25
210
0.0
220
0.0
230
1.0
100
AcDbArc
 50
28.427381
 51
61.572619
  0
ENDBLK
  5
6DF
100
AcDbEntity
  8
0
390
0
100
AcDbBlockEnd
  0
BLOCK
  5
6E0
100
AcDbEntity
  8
0
370
     0
390
0
100
AcDbBlockBegin
  2
BLOCK15
 70
     0
 10
0.0
 20
0.0
 30
0.0
  3
BLOCK15
  1

  0
SOLID
  5
6E1
100
AcDbEntity
  8
0
370
    13
390
0
 62
     7
 48
0.03937
100
AcDbTrace
 10
8.159971
 20
0.526308
 30
0.0
 11
8.247689
 21
0.0
 31
0.0
 12
8.159971
 22
0.526308
 32
0.0
 13
8.335407
 23
0.526308
 33
0.0
  0
SOLID
  5
6E2
100
AcDbEntity
  8
0
370
    13
390
0
 62
     7
 48
0.03937
100
AcDbTrace
 10
8.335407
 20
1.223692
 30
0.0
 11
8.247689
 21
1.75
 31
0.0
 12
8.335407
 22
1.223692
 32
0.0
 13
8.159971
 23
1.223692
 33
0.0
  0
TEXT
  5
6E3
100
AcDbEntity
  8
0
370
    13
390
0
 62
     7
 48
0.03937
100
AcDbText
 10
7.825207
 20
0.745572
 30
0.0
 40
0.259014
  1
1.75
 72
     5
 11
8.480228
 21
0.745572
 31
0.0
100
AcDbText
  0
TEXT
  5
6E4
100
AcDbEntity
  8
0
370
    13
390
0
 62
     7
 48
0.03937
100
AcDbText
 10
8.480228
 20
0.745572
 30
0.0
 40
0.259014
  1
"
 72
     5
 11
8.670171
 21
0.745572
 31
0.0
100
AcDbText
  0
LINE
  5
6E5
100
AcDbEntity
  8
0
370
    13
390
0
 62
     7
 48
0.03937
100
AcDbLine
 10
6.707211
 20
0.0
 30
0.0
 11
8.4549
 21
0.0
 31
0.0
210
0.0
220
0.0
230
1.0
  0
LINE
  5
6E6
100
AcDbEntity
  8
0
370
    13
390
0
 62
     7
 48
0.03937
100
AcDbLine
 10
6.707211
 20
1.75
 30
0.0
 11
8.4549
 21
1.75
 31
0.0
210
0.0
220
0.0
230
1.0
  0
LINE
  5
6E7
100
AcDbEntity
  8
0
370
    13
390
0
 62
     7
 48
0.000218
100
AcDbLine
 10
8.247689
 20
0.526308
 30
0.0
 11
8.247689
 21
0.535046
 31
0.0
210
0.0
220
0.0
230
1.0
  0
LINE
  5
6E8
100
AcDbEntity
  8
0
370
    13
390
0
 62
     7
 48
0.000214
100
AcDbLine
 10
8.247689
 20
1.215112
 30
0.0
 11
8.247689
 21
1.223692
 31
0.0
210
0.0
220
0.0
230
1.0
  0
POLYLINE
  5
6E9
100
AcDbEntity
  8
0
370
    13
390
0
 62
     7
 48
0.03937
100
AcDb2dPolyline
 66
     1
 10
0.0
 20
0.0
 30
0.0
 70
     1
 71
     3
  0
VERTEX
  5
6EA
100
AcDbEntity
  8
0
370
     0
390
0
100
AcDbVertex
100
AcDb2dVertex
 10
8.159971
 20
0.526308
 30
0.0
  0
VERTEX
  5
6EB
100
AcDbEntity
  8
0
370
     0
390
0
100
AcDbVertex
100
AcDb2dVertex
 10
8.247689
 20
0.0
 30
0.0
  0
VERTEX
  5
6EC
100
AcDbEntity
  8
0
370
     0
390
0
100
AcDbVertex
100
AcDb2dVertex
 10
8.335407
 20
0.526308
 30
0.0
  0
SEQEND
  5
6ED
100
AcDbEntity
  8
0
370
     0
390
0
  0
POLYLINE
  5
6EE
100
AcDbEntity
  8
0
370
    13
390
0
 62
     7
 48
0.03937
100
AcDb2dPolyline
 66
     1
 10
0.0
 20
0.0
 30
0.0
 70
     1
 71
     3
  0
VERTEX
  5
6EF
100
AcDbEntity
  8
0
370
     0
390
0
100
AcDbVertex
100
AcDb2dVertex
 10
8.335407
 20
1.223692
 30
0.0
  0
VERTEX
  5
6F0
100
AcDbEntity
  8
0
370
     0
390
0
100
AcDbVertex
100
AcDb2dVertex
 10
8.247689
 20
1.75
 30
0.0
  0
VERTEX
  5
6F1
100
AcDbEntity
  8
0
370
     0
390
0
100
AcDbVertex
100
AcDb2dVertex
 10
8.159971
 20
1.223692
 30
0.0
  0
SEQEND
  5
6F2
100
AcDbEntity
  8
0
370
     0
390
0
  0
ENDBLK
  5
6F3
100
AcDbEntity
  8
0
390
0
100
AcDbBlockEnd
  0
BLOCK
  5
6F4
100
AcDbEntity
  8
0
370
     0
390
0
100
AcDbBlockBegin
  2
BLOCK16
 70
     0
 10
0.0
 20
0.0
 30
0.0
  3
BLOCK16
  1

  0
LINE
  5
6F5
100
AcDbEntity
  8
0
370
     5
390
0
 62
     7
 48
0.03937
100
AcDbLine
 10
-6.5
 20
0.0
 30
0.0
 11
-6.5
 21
1.75
 31
0.0
210
0.0
220
0.0
230
1.0
  0
LINE
  5
6F6
100
AcDbEntity
  8
0
370
     5
390
0
 62
     7
 48
0.01725
100
AcDbLine
 10
-6.5
 20
1.75
 30
0.0
 11
-5.81
 21
1.75
 31
0.0
210
0.0
220
0.0
230
1.0
  0
LINE
  5
6F7
100
AcDbEntity
  8
0
370
     5
390
0
 62
     7
 48
0.03937
100
AcDbLine
 10
-5.81
 20
1.75
 30
0.0
 11
-5.81
 21
0.0
 31
0.0
210
0.0
220
0.0
230
1.0
  0
LINE
  5
6F8
100
AcDbEntity
  8
0
370
     5
390
0
 62
     7
 48
0.01725
100
AcDbLine
 10
-5.81
 20
0.0
 30
0.0
 11
-6.5
 21
0.0
 31
0.0
210
0.0
220
0.0
230
1.0
  0
ENDBLK
  5
6F9
100
AcDbEntity
  8
0
390
0
100
AcDbBlockEnd
  0
BLOCK
  5
6FA
100
AcDbEntity
  8
0
370
     0
390
0
100
AcDbBlockBegin
  2
BLOCK17
 70
     0
 10
0.0
 20
0.0
 30
0.0
  3
BLOCK17
  1

  0
LINE
  5
6FB
100
AcDbEntity
  8
0
370
     5
390
0
 62
     7
 48
0.03937
100
AcDbLine
 10
4.69
 20
1.75
 30
0.0
 11
4.69
 21
0.0
 31
0.0
210
0.0
220
0.0
230
1.0
  0
LINE
  5
6FC
100
AcDbEntity
  8
0
370
     5
390
0
 62
     7
 48
0.03937
100
AcDbLine
 10
4.69
 20
0.0
 30
0.0
 11
-4.69
 21
0.0
 31
0.0
210
0.0
220
0.0
230
1.0
  0
LINE
  5
6FD
100
AcDbEntity
  8
0
370
     5
390
0
 62
     7
 48
0.03937
100
AcDbLine
 10
-4.69
 20
0.0
 30
0.0
 11
-4.69
 21
1.75
 31
0.0
210
0.0
220
0.0
230
1.0
  0
LINE
  5
6FE
100
AcDbEntity
  8
0
370
     5
390
0
 62
     7
 48
0.03937
100
AcDbLine
 10
-4.69
 20
1.75
 30
0.0
 11
4.69
 21
1.75
 31
0.0
210
0.0
220
0.0
230
1.0
  0
ENDBLK
  5
6FF
100
AcDbEntity
  8
0
390
0
100
AcDbBlockEnd
  0
BLOCK
  5
700
100
AcDbEntity
  8
0
370
     0
390
0
100
AcDbBlockBegin
  2
BLOCK18
 70
     0
 10
0.0
 20
0.0
 30
0.0
  3
BLOCK18
  1

  0
LINE
  5
701
100
AcDbEntity
  8
0
370
     5
390
0
 62
     7
 48
0.01725
100
AcDbLine
 10
5.81
 20
1.75
 30
0.0
 11
6.5
 21
1.75
 31
0.0
210
0.0
220
0.0
230
1.0
  0
LINE
  5
702
100
AcDbEntity
  8
0
370
     5
390
0
 62
     7
 48
0.03937
100
AcDbLine
 10
6.5
 20
1.75
 30
0.0
 11
6.5
 21
0.0
 31
0.0
210
0.0
220
0.0
230
1.0
  0
LINE
  5
703
100
AcDbEntity
  8
0
370
     5
390
0
 62
     7
 48
0.01725
100
AcDbLine
 10
6.5
 20
0.0
 30
0.0
 11
5.81
 21
0.0
 31
0.0
210
0.0
220
0.0
230
1.0
  0
LINE
  5
704
100
AcDbEntity
  8
0
370
     5
390
0
 62
     7
 48
0.03937
100
AcDbLine
 10
5.81
 20
0.0
 30
0.0
 11
5.81
 21
1.75
 31
0.0
210
0.0
220
0.0
230
1.0
  0
ENDBLK
  5
705
100
AcDbEntity
  8
0
390
0
100
AcDbBlockEnd
  0
ENDSEC
  0
SECTION
  2
ENTITIES
  0
VIEWPORT
  5
569
100
AcDbEntity
 67
     1
  8
0
370
     0
390
0
 62
     0
 48
0.0
100
AcDbViewport
 10
0.0
 20
0.0
 30
0.0
 40
1000.0
 41
1000.0
 68
     1
 69
     1
 12
0.0
 22
0.0
 13
0.0
 23
0.0
 14
1.0
 24
1.0
 15
1.0
 25
1.0
 16
0.0
 26
0.0
 36
1.0
 17
0.0
 27
0.0
 37
0.0
 42
50.0
 43
0.0
 44
0.0
 45
1000.0
 50
0.0
 51
0.0
 72
   100
 90
        0
340
0
  1

281
     0
 71
     0
 74
     1
110
0.0
120
0.0
130
0.0
111
1.0
121
0.0
131
0.0
112
0.0
122
1.0
132
0.0
345
0
346
0
 79
     0
146
0.0
  0
TEXT
  5
27
100
AcDbEntity
  8
0
370
    13
390
0
 62
     7
 48
0.03937
100
AcDbText
 10
7.774762
 20
1.08216
 30
0.0
 40
0.06
  1
SIZE:
 72
     5
 11
8.064134
 21
1.08216
 31
0.0
100
AcDbText
  0
TEXT
  5
28
100
AcDbEntity
  8
0
370
    13
390
0
 62
     7
 48
0.03937
100
AcDbText
 10
7.774762
 20
0.894218
 30
0.0
 40
0.06
  1
TYPE:
 72
     5
 11
8.064134
 21
0.894218
 31
0.0
100
AcDbText
  0
POINT
  5
29
100
AcDbEntity
  8
0
370
     5
390
0
 62
     7
 48
0.03937
100
AcDbPoint
 10
0.0
 20
0.0
 30
0.0
210
0.0
220
0.0
230
1.0
  0
POINT
  5
2A
100
AcDbEntity
  8
0
370
     5
390
0
 62
     7
 48
0.03937
100
AcDbPoint
 10
8.029755
 20
0.53125
 30
0.0
210
0.0
220
0.0
230
1.0
  0
LINE
  5
2B
100
AcDbEntity
  8
1
370
    35
390
0
 62
     7
 48
0.000032
100
AcDbLine
 10
9.035676
 20
0.778761
 30
0.0
 11
9.036922
 21
0.778449
 31
0.0
210
0.0
220
0.0
230
1.0
  0
LINE
  5
2C
100
AcDbEntity
  8
1
370
    35
390
0
 62
     7
 48
0.03937
100
AcDbLine
 10
0.25
 20
0.25
 30
0.0
 11
0.25
 21
8.25
 31
0.0
210
0.0
220
0.0
230
1.0
  0
LINE
  5
2D
100
AcDbEntity
  8
1
370
    35
390
0
 62
     7
 48
0.03937
100
AcDbLine
 10
7.75
 20
1.1875
 30
0.0
 11
10.75
 21
1.1875
 31
0.0
210
0.0
220
0.0
230
1.0
  0
LINE
  5
2E
100
AcDbEntity
  8
1
370
    35
390
0
 62
     7
 48
0.03937
100
AcDbLine
 10
7.75
 20
1.0
 30
0.0
 11
10.75
 21
1.0
 31
0.0
210
0.0
220
0.0
230
1.0
  0
LINE
  5
2F
100
AcDbEntity
  8
1
370
    35
390
0
 62
     7
 48
0.03937
100
AcDbLine
 10
0.25
 20
8.25
 30
0.0
 11
10.75
 21
8.25
 31
0.0
210
0.0
220
0.0
230
1.0
  0
LINE
  5
30
100
AcDbEntity
  8
1
370
    35
390
0
 62
     7
 48
0.03937
100
AcDbLine
 10
7.75
 20
0.8125
 30
0.0
 11
10.75
 21
0.8125
 31
0.0
210
0.0
220
0.0
230
1.0
  0
LINE
  5
31
100
AcDbEntity
  8
1
370
    35
390
0
 62
     7
 48
0.03937
100
AcDbLine
 10
0.25
 20
0.25
 30
0.0
 11
10.75
 21
0.25
 31
0.0
210
0.0
220
0.0
230
1.0
  0
LINE
  5
32
100
AcDbEntity
  8
1
370
    35
390
0
 62
     7
 48
0.03937
100
AcDbLine
 10
10.75
 20
8.25
 30
0.0
 11
10.75
 21
0.25
 31
0.0
210
0.0
220
0.0
230
1.0
  0
LINE
  5
33
100
AcDbEntity
  8
1
370
    35
390
0
 62
     7
 48
0.03937
100
AcDbLine
 10
7.75
 20
1.1875
 30
0.0
 11
7.75
 21
0.25
 31
0.0
210
0.0
220
0.0
230
1.0
  0
CIRCLE
  5
34
100
AcDbEntity
  8
0
370
    70
390
0
 62
     7
 48
0.03937
100
AcDbCircle
 10
8.029755
 20
0.53125
 30
0.0
 40
0.2475
210
0.0
220
0.0
230
1.0
  0
CIRCLE
  5
35
100
AcDbEntity
  8
0
370
    70
390
0
 62
     7
 48
0.03937
100
AcDbCircle
 10
8.029755
 20
0.53125
 30
0.0
 40
0.195
210
0.0
220
0.0
230
1.0
  0
CIRCLE
  5
36
100
AcDbEntity
  8
0
370
    35
390
0
 62
     7
 48
0.03937
100
AcDbCircle
 10
8.029755
 20
0.7525
 30
0.0
 40
0.015
210
0.0
220
0.0
230
1.0
  0
CIRCLE
  5
37
100
AcDbEntity
  8
0
370
    35
390
0
 62
     7
 48
0.03937
100
AcDbCircle
 10
8.251005
 20
0.53125
 30
0.0
 40
0.015
210
0.0
220
0.0
230
1.0
  0
CIRCLE
  5
38
100
AcDbEntity
  8
0
370
    35
390
0
 62
     7
 48
0.03937
100
AcDbCircle
 10
8.186202
 20
0.687697
 30
0.0
 40
0.015
210
0.0
220
0.0
230
1.0
  0
CIRCLE
  5
39
100
AcDbEntity
  8
0
370
    35
390
0
 62
     7
 48
0.03937
100
AcDbCircle
 10
8.029755
 20
0.31
 30
0.0
 40
0.015
210
0.0
220
0.0
230
1.0
  0
CIRCLE
  5
3A
100
AcDbEntity
  8
0
370
    35
390
0
 62
     7
 48
0.03937
100
AcDbCircle
 10
8.186202
 20
0.374803
 30
0.0
 40
0.015
210
0.0
220
0.0
230
1.0
  0
CIRCLE
  5
3B
100
AcDbEntity
  8
0
370
    35
390
0
 62
     7
 48
0.03937
100
AcDbCircle
 10
7.808505
 20
0.53125
 30
0.0
 40
0.015
210
0.0
220
0.0
230
1.0
  0
CIRCLE
  5
3C
100
AcDbEntity
  8
0
370
    35
390
0
 62
     7
 48
0.03937
100
AcDbCircle
 10
7.873308
 20
0.687697
 30
0.0
 40
0.015
210
0.0
220
0.0
230
1.0
  0
CIRCLE
  5
3D
100
AcDbEntity
  8
0
370
    35
390
0
 62
     7
 48
0.03937
100
AcDbCircle
 10
7.873308
 20
0.374803
 30
0.0
 40
0.015
210
0.0
220
0.0
230
1.0
  0
POLYLINE
  5
3E
100
AcDbEntity
  8
0
370
    13
390
0
 62
     7
 48
0.03937
100
AcDb2dPolyline
 66
     1
 10
0.0
 20
0.0
 30
0.0
 70
     1
 71
   118
  0
VERTEX
  5
3F
100
AcDbEntity
  8
0
370
     0
390
0
100
AcDbVertex
100
AcDb2dVertex
 10
8.029831
 20
0.605292
 30
0.0
  0
VERTEX
  5
40
100
AcDbEntity
  8
0
370
     0
390
0
100
AcDbVertex
100
AcDb2dVertex
 10
8.029019
 20
0.60375
 30
0.0
  0
VERTEX
  5
41
100
AcDbEntity
  8
0
370
     0
390
0
100
AcDbVertex
100
AcDb2dVertex
 10
8.021177
 20
0.589826
 30
0.0
  0
VERTEX
  5
42
100
AcDbEntity
  8
0
370
     0
390
0
100
AcDbVertex
100
AcDb2dVertex
 10
8.020426
 20
0.588405
 30
0.0
  0
VERTEX
  5
43
100
AcDbEntity
  8
0
370
     0
390
0
100
AcDbVertex
100
AcDb2dVertex
 10
8.019684
 20
0.586917
 30
0.0
  0
VERTEX
  5
44
100
AcDbEntity
  8
0
370
     0
390
0
100
AcDbVertex
100
AcDb2dVertex
 10
8.018954
 20
0.58536
 30
0.0
  0
VERTEX
  5
45
100
AcDbEntity
  8
0
370
     0
390
0
100
AcDbVertex
100
AcDb2dVertex
 10
8.018235
 20
0.583734
 30
0.0
  0
VERTEX
  5
46
100
AcDbEntity
  8
0
370
     0
390
0
100
AcDbVertex
100
AcDb2dVertex
 10
8.017528
 20
0.582038
 30
0.0
  0
VERTEX
  5
47
100
AcDbEntity
  8
0
370
     0
390
0
100
AcDbVertex
100
AcDb2dVertex
 10
8.01683
 20
0.580272
 30
0.0
  0
VERTEX
  5
48
100
AcDbEntity
  8
0
370
     0
390
0
100
AcDbVertex
100
AcDb2dVertex
 10
8.016143
 20
0.578438
 30
0.0
  0
VERTEX
  5
49
100
AcDbEntity
  8
0
370
     0
390
0
100
AcDbVertex
100
AcDb2dVertex
 10
8.015467
 20
0.576534
 30
0.0
  0
VERTEX
  5
4A
100
AcDbEntity
  8
0
370
     0
390
0
100
AcDbVertex
100
AcDb2dVertex
 10
8.014802
 20
0.574562
 30
0.0
  0
VERTEX
  5
4B
100
AcDbEntity
  8
0
370
     0
390
0
100
AcDbVertex
100
AcDb2dVertex
 10
8.014147
 20
0.572519
 30
0.0
  0
VERTEX
  5
4C
100
AcDbEntity
  8
0
370
     0
390
0
100
AcDbVertex
100
AcDb2dVertex
 10
8.012525
 20
0.574142
 30
0.0
  0
VERTEX
  5
4D
100
AcDbEntity
  8
0
370
     0
390
0
100
AcDbVertex
100
AcDb2dVertex
 10
8.011871
 20
0.576531
 30
0.0
  0
VERTEX
  5
4E
100
AcDbEntity
  8
0
370
     0
390
0
100
AcDbVertex
100
AcDb2dVertex
 10
8.011163
 20
0.578771
 30
0.0
  0
VERTEX
  5
4F
100
AcDbEntity
  8
0
370
     0
390
0
100
AcDbVertex
100
AcDb2dVertex
 10
8.010404
 20
0.580859
 30
0.0
  0
VERTEX
  5
50
100
AcDbEntity
  8
0
370
     0
390
0
100
AcDbVertex
100
AcDb2dVertex
 10
8.009591
 20
0.582795
 30
0.0
  0
VERTEX
  5
51
100
AcDbEntity
  8
0
370
     0
390
0
100
AcDbVertex
100
AcDb2dVertex
 10
8.008726
 20
0.584579
 30
0.0
  0
VERTEX
  5
52
100
AcDbEntity
  8
0
370
     0
390
0
100
AcDbVertex
100
AcDb2dVertex
 10
8.007806
 20
0.586212
 30
0.0
  0
VERTEX
  5
53
100
AcDbEntity
  8
0
370
     0
390
0
100
AcDbVertex
100
AcDb2dVertex
 10
8.006836
 20
0.587694
 30
0.0
  0
VERTEX
  5
54
100
AcDbEntity
  8
0
370
     0
390
0
100
AcDbVertex
100
AcDb2dVertex
 10
8.00581
 20
0.589025
 30
0.0
  0
VERTEX
  5
55
100
AcDbEntity
  8
0
370
     0
390
0
100
AcDbVertex
100
AcDb2dVertex
 10
8.004733
 20
0.590204
 30
0.0
  0
VERTEX
  5
56
100
AcDbEntity
  8
0
370
     0
390
0
100
AcDbVertex
100
AcDb2dVertex
 10
8.003601
 20
0.591231
 30
0.0
  0
VERTEX
  5
57
100
AcDbEntity
  8
0
370
     0
390
0
100
AcDbVertex
100
AcDb2dVertex
 10
8.002384
 20
0.592136
 30
0.0
  0
VERTEX
  5
58
100
AcDbEntity
  8
0
370
     0
390
0
100
AcDbVertex
100
AcDb2dVertex
 10
8.001043
 20
0.592944
 30
0.0
  0
VERTEX
  5
59
100
AcDbEntity
  8
0
370
     0
390
0
100
AcDbVertex
100
AcDb2dVertex
 10
7.99958
 20
0.593658
 30
0.0
  0
VERTEX
  5
5A
100
AcDbEntity
  8
0
370
     0
390
0
100
AcDbVertex
100
AcDb2dVertex
 10
7.997995
 20
0.594276
 30
0.0
  0
VERTEX
  5
5B
100
AcDbEntity
  8
0
370
     0
390
0
100
AcDbVertex
100
AcDb2dVertex
 10
7.996287
 20
0.5948
 30
0.0
  0
VERTEX
  5
5C
100
AcDbEntity
  8
0
370
     0
390
0
100
AcDbVertex
100
AcDb2dVertex
 10
7.994457
 20
0.595229
 30
0.0
  0
VERTEX
  5
5D
100
AcDbEntity
  8
0
370
     0
390
0
100
AcDbVertex
100
AcDb2dVertex
 10
7.992506
 20
0.595562
 30
0.0
  0
VERTEX
  5
5E
100
AcDbEntity
  8
0
370
     0
390
0
100
AcDbVertex
100
AcDb2dVertex
 10
7.990431
 20
0.595799
 30
0.0
  0
VERTEX
  5
5F
100
AcDbEntity
  8
0
370
     0
390
0
100
AcDbVertex
100
AcDb2dVertex
 10
7.988236
 20
0.595943
 30
0.0
  0
VERTEX
  5
60
100
AcDbEntity
  8
0
370
     0
390
0
100
AcDbVertex
100
AcDb2dVertex
 10
7.985918
 20
0.595991
 30
0.0
  0
VERTEX
  5
61
100
AcDbEntity
  8
0
370
     0
390
0
100
AcDbVertex
100
AcDb2dVertex
 10
7.983971
 20
0.595973
 30
0.0
  0
VERTEX
  5
62
100
AcDbEntity
  8
0
370
     0
390
0
100
AcDbVertex
100
AcDb2dVertex
 10
7.982024
 20
0.59592
 30
0.0
  0
VERTEX
  5
63
100
AcDbEntity
  8
0
370
     0
390
0
100
AcDbVertex
100
AcDb2dVertex
 10
7.980077
 20
0.595835
 30
0.0
  0
VERTEX
  5
64
100
AcDbEntity
  8
0
370
     0
390
0
100
AcDbVertex
100
AcDb2dVertex
 10
7.97813
 20
0.595713
 30
0.0
  0
VERTEX
  5
65
100
AcDbEntity
  8
0
370
     0
390
0
100
AcDbVertex
100
AcDb2dVertex
 10
7.976183
 20
0.595557
 30
0.0
  0
VERTEX
  5
66
100
AcDbEntity
  8
0
370
     0
390
0
100
AcDbVertex
100
AcDb2dVertex
 10
7.974885
 20
0.478313
 30
0.0
  0
VERTEX
  5
67
100
AcDbEntity
  8
0
370
     0
390
0
100
AcDbVertex
100
AcDb2dVertex
 10
7.987647
 20
0.466523
 30
0.0
  0
VERTEX
  5
68
100
AcDbEntity
  8
0
370
     0
390
0
100
AcDbVertex
100
AcDb2dVertex
 10
7.93822
 20
0.466523
 30
0.0
  0
VERTEX
  5
69
100
AcDbEntity
  8
0
370
     0
390
0
100
AcDbVertex
100
AcDb2dVertex
 10
7.953361
 20
0.479178
 30
0.0
  0
VERTEX
  5
6A
100
AcDbEntity
  8
0
370
     0
390
0
100
AcDbVertex
100
AcDb2dVertex
 10
7.953361
 20
0.586796
 30
0.0
  0
VERTEX
  5
6B
100
AcDbEntity
  8
0
370
     0
390
0
100
AcDbVertex
100
AcDb2dVertex
 10
7.945682
 20
0.586905
 30
0.0
  0
VERTEX
  5
6C
100
AcDbEntity
  8
0
370
     0
390
0
100
AcDbVertex
100
AcDb2dVertex
 10
7.943519
 20
0.58686
 30
0.0
  0
VERTEX
  5
6D
100
AcDbEntity
  8
0
370
     0
390
0
100
AcDbVertex
100
AcDb2dVertex
 10
7.941484
 20
0.58673
 30
0.0
  0
VERTEX
  5
6E
100
AcDbEntity
  8
0
370
     0
390
0
100
AcDbVertex
100
AcDb2dVertex
 10
7.939577
 20
0.586511
 30
0.0
  0
VERTEX
  5
6F
100
AcDbEntity
  8
0
370
     0
390
0
100
AcDbVertex
100
AcDb2dVertex
 10
7.937799
 20
0.586203
 30
0.0
  0
VERTEX
  5
70
100
AcDbEntity
  8
0
370
     0
390
0
100
AcDbVertex
100
AcDb2dVertex
 10
7.936151
 20
0.585809
 30
0.0
  0
VERTEX
  5
71
100
AcDbEntity
  8
0
370
     0
390
0
100
AcDbVertex
100
AcDb2dVertex
 10
7.93463
 20
0.585327
 30
0.0
  0
VERTEX
  5
72
100
AcDbEntity
  8
0
370
     0
390
0
100
AcDbVertex
100
AcDb2dVertex
 10
7.93324
 20
0.584759
 30
0.0
  0
VERTEX
  5
73
100
AcDbEntity
  8
0
370
     0
390
0
100
AcDbVertex
100
AcDb2dVertex
 10
7.930843
 20
0.583356
 30
0.0
  0
VERTEX
  5
74
100
AcDbEntity
  8
0
370
     0
390
0
100
AcDbVertex
100
AcDb2dVertex
 10
7.928935
 20
0.581582
 30
0.0
  0
VERTEX
  5
75
100
AcDbEntity
  8
0
370
     0
390
0
100
AcDbVertex
100
AcDb2dVertex
 10
7.92736
 20
0.579297
 30
0.0
  0
VERTEX
  5
76
100
AcDbEntity
  8
0
370
     0
390
0
100
AcDbVertex
100
AcDb2dVertex
 10
7.926092
 20
0.57648
 30
0.0
  0
VERTEX
  5
77
100
AcDbEntity
  8
0
370
     0
390
0
100
AcDbVertex
100
AcDb2dVertex
 10
7.925573
 20
0.574872
 30
0.0
  0
VERTEX
  5
78
100
AcDbEntity
  8
0
370
     0
390
0
100
AcDbVertex
100
AcDb2dVertex
 10
7.92513
 20
0.573132
 30
0.0
  0
VERTEX
  5
79
100
AcDbEntity
  8
0
370
     0
390
0
100
AcDbVertex
100
AcDb2dVertex
 10
7.924766
 20
0.571259
 30
0.0
  0
VERTEX
  5
7A
100
AcDbEntity
  8
0
370
     0
390
0
100
AcDbVertex
100
AcDb2dVertex
 10
7.924478
 20
0.569252
 30
0.0
  0
VERTEX
  5
7B
100
AcDbEntity
  8
0
370
     0
390
0
100
AcDbVertex
100
AcDb2dVertex
 10
7.924266
 20
0.567111
 30
0.0
  0
VERTEX
  5
7C
100
AcDbEntity
  8
0
370
     0
390
0
100
AcDbVertex
100
AcDb2dVertex
 10
7.921454
 20
0.567111
 30
0.0
  0
VERTEX
  5
7D
100
AcDbEntity
  8
0
370
     0
390
0
100
AcDbVertex
100
AcDb2dVertex
 10
7.921734
 20
0.569565
 30
0.0
  0
VERTEX
  5
7E
100
AcDbEntity
  8
0
370
     0
390
0
100
AcDbVertex
100
AcDb2dVertex
 10
7.922096
 20
0.571866
 30
0.0
  0
VERTEX
  5
7F
100
AcDbEntity
  8
0
370
     0
390
0
100
AcDbVertex
100
AcDb2dVertex
 10
7.922543
 20
0.574013
 30
0.0
  0
VERTEX
  5
80
100
AcDbEntity
  8
0
370
     0
390
0
100
AcDbVertex
100
AcDb2dVertex
 10
7.923073
 20
0.576006
 30
0.0
  0
VERTEX
  5
81
100
AcDbEntity
  8
0
370
     0
390
0
100
AcDbVertex
100
AcDb2dVertex
 10
7.923684
 20
0.577847
 30
0.0
  0
VERTEX
  5
82
100
AcDbEntity
  8
0
370
     0
390
0
100
AcDbVertex
100
AcDb2dVertex
 10
7.924381
 20
0.579533
 30
0.0
  0
VERTEX
  5
83
100
AcDbEntity
  8
0
370
     0
390
0
100
AcDbVertex
100
AcDb2dVertex
 10
7.92516
 20
0.581064
 30
0.0
  0
VERTEX
  5
84
100
AcDbEntity
  8
0
370
     0
390
0
100
AcDbVertex
100
AcDb2dVertex
 10
7.926023
 20
0.582444
 30
0.0
  0
VERTEX
  5
85
100
AcDbEntity
  8
0
370
     0
390
0
100
AcDbVertex
100
AcDb2dVertex
 10
7.926968
 20
0.58367
 30
0.0
  0
VERTEX
  5
86
100
AcDbEntity
  8
0
370
     0
390
0
100
AcDbVertex
100
AcDb2dVertex
 10
7.929138
 20
0.585687
 30
0.0
  0
VERTEX
  5
87
100
AcDbEntity
  8
0
370
     0
390
0
100
AcDbVertex
100
AcDb2dVertex
 10
7.930418
 20
0.586532
 30
0.0
  0
VERTEX
  5
88
100
AcDbEntity
  8
0
370
     0
390
0
100
AcDbVertex
100
AcDb2dVertex
 10
7.931839
 20
0.587279
 30
0.0
  0
VERTEX
  5
89
100
AcDbEntity
  8
0
370
     0
390
0
100
AcDbVertex
100
AcDb2dVertex
 10
7.933397
 20
0.587925
 30
0.0
  0
VERTEX
  5
8A
100
AcDbEntity
  8
0
370
     0
390
0
100
AcDbVertex
100
AcDb2dVertex
 10
7.935095
 20
0.588473
 30
0.0
  0
VERTEX
  5
8B
100
AcDbEntity
  8
0
370
     0
390
0
100
AcDbVertex
100
AcDb2dVertex
 10
7.936934
 20
0.588921
 30
0.0
  0
VERTEX
  5
8C
100
AcDbEntity
  8
0
370
     0
390
0
100
AcDbVertex
100
AcDb2dVertex
 10
7.938912
 20
0.589269
 30
0.0
  0
VERTEX
  5
8D
100
AcDbEntity
  8
0
370
     0
390
0
100
AcDbVertex
100
AcDb2dVertex
 10
7.941029
 20
0.589518
 30
0.0
  0
VERTEX
  5
8E
100
AcDbEntity
  8
0
370
     0
390
0
100
AcDbVertex
100
AcDb2dVertex
 10
7.943286
 20
0.589667
 30
0.0
  0
VERTEX
  5
8F
100
AcDbEntity
  8
0
370
     0
390
0
100
AcDbVertex
100
AcDb2dVertex
 10
7.945682
 20
0.589716
 30
0.0
  0
VERTEX
  5
90
100
AcDbEntity
  8
0
370
     0
390
0
100
AcDbVertex
100
AcDb2dVertex
 10
7.952171
 20
0.589608
 30
0.0
  0
VERTEX
  5
91
100
AcDbEntity
  8
0
370
     0
390
0
100
AcDbVertex
100
AcDb2dVertex
 10
7.953361
 20
0.594908
 30
0.0
  0
VERTEX
  5
92
100
AcDbEntity
  8
0
370
     0
390
0
100
AcDbVertex
100
AcDb2dVertex
 10
7.951177
 20
0.595142
 30
0.0
  0
VERTEX
  5
93
100
AcDbEntity
  8
0
370
     0
390
0
100
AcDbVertex
100
AcDb2dVertex
 10
7.949034
 20
0.595323
 30
0.0
  0
VERTEX
  5
94
100
AcDbEntity
  8
0
370
     0
390
0
100
AcDbVertex
100
AcDb2dVertex
 10
7.946936
 20
0.595454
 30
0.0
  0
VERTEX
  5
95
100
AcDbEntity
  8
0
370
     0
390
0
100
AcDbVertex
100
AcDb2dVertex
 10
7.944881
 20
0.595532
 30
0.0
  0
VERTEX
  5
96
100
AcDbEntity
  8
0
370
     0
390
0
100
AcDbVertex
100
AcDb2dVertex
 10
7.94287
 20
0.595557
 30
0.0
  0
VERTEX
  5
97
100
AcDbEntity
  8
0
370
     0
390
0
100
AcDbVertex
100
AcDb2dVertex
 10
7.940158
 20
0.5955
 30
0.0
  0
VERTEX
  5
98
100
AcDbEntity
  8
0
370
     0
390
0
100
AcDbVertex
100
AcDb2dVertex
 10
7.9376
 20
0.595331
 30
0.0
  0
VERTEX
  5
99
100
AcDbEntity
  8
0
370
     0
390
0
100
AcDbVertex
100
AcDb2dVertex
 10
7.9352
 20
0.595046
 30
0.0
  0
VERTEX
  5
9A
100
AcDbEntity
  8
0
370
     0
390
0
100
AcDbVertex
100
AcDb2dVertex
 10
7.932953
 20
0.594648
 30
0.0
  0
VERTEX
  5
9B
100
AcDbEntity
  8
0
370
     0
390
0
100
AcDbVertex
100
AcDb2dVertex
 10
7.930864
 20
0.594138
 30
0.0
  0
VERTEX
  5
9C
100
AcDbEntity
  8
0
370
     0
390
0
100
AcDbVertex
100
AcDb2dVertex
 10
7.92893
 20
0.593513
 30
0.0
  0
VERTEX
  5
9D
100
AcDbEntity
  8
0
370
     0
390
0
100
AcDbVertex
100
AcDb2dVertex
 10
7.927152
 20
0.592775
 30
0.0
  0
VERTEX
  5
9E
100
AcDbEntity
  8
0
370
     0
390
0
100
AcDbVertex
100
AcDb2dVertex
 10
7.92553
 20
0.591923
 30
0.0
  0
VERTEX
  5
9F
100
AcDbEntity
  8
0
370
     0
390
0
100
AcDbVertex
100
AcDb2dVertex
 10
7.924063
 20
0.590958
 30
0.0
  0
VERTEX
  5
A0
100
AcDbEntity
  8
0
370
     0
390
0
100
AcDbVertex
100
AcDb2dVertex
 10
7.922751
 20
0.58988
 30
0.0
  0
VERTEX
  5
A1
100
AcDbEntity
  8
0
370
     0
390
0
100
AcDbVertex
100
AcDb2dVertex
 10
7.921574
 20
0.588665
 30
0.0
  0
VERTEX
  5
A2
100
AcDbEntity
  8
0
370
     0
390
0
100
AcDbVertex
100
AcDb2dVertex
 10
7.920506
 20
0.587294
 30
0.0
  0
VERTEX
  5
A3
100
AcDbEntity
  8
0
370
     0
390
0
100
AcDbVertex
100
AcDb2dVertex
 10
7.919549
 20
0.585767
 30
0.0
  0
VERTEX
  5
A4
100
AcDbEntity
  8
0
370
     0
390
0
100
AcDbVertex
100
AcDb2dVertex
 10
7.918703
 20
0.584081
 30
0.0
  0
VERTEX
  5
A5
100
AcDbEntity
  8
0
370
     0
390
0
100
AcDbVertex
100
AcDb2dVertex
 10
7.917966
 20
0.58224
 30
0.0
  0
VERTEX
  5
A6
100
AcDbEntity
  8
0
370
     0
390
0
100
AcDbVertex
100
AcDb2dVertex
 10
7.917339
 20
0.580242
 30
0.0
  0
VERTEX
  5
A7
100
AcDbEntity
  8
0
370
     0
390
0
100
AcDbVertex
100
AcDb2dVertex
 10
7.916824
 20
0.578087
 30
0.0
  0
VERTEX
  5
A8
100
AcDbEntity
  8
0
370
     0
390
0
100
AcDbVertex
100
AcDb2dVertex
 10
7.916418
 20
0.575775
 30
0.0
  0
VERTEX
  5
A9
100
AcDbEntity
  8
0
370
     0
390
0
100
AcDbVertex
100
AcDb2dVertex
 10
7.916123
 20
0.573306
 30
0.0
  0
VERTEX
  5
AA
100
AcDbEntity
  8
0
370
     0
390
0
100
AcDbVertex
100
AcDb2dVertex
 10
7.915938
 20
0.570681
 30
0.0
  0
VERTEX
  5
AB
100
AcDbEntity
  8
0
370
     0
390
0
100
AcDbVertex
100
AcDb2dVertex
 10
7.913659
 20
0.573722
 30
0.0
  0
VERTEX
  5
AC
100
AcDbEntity
  8
0
370
     0
390
0
100
AcDbVertex
100
AcDb2dVertex
 10
7.912577
 20
0.576833
 30
0.0
  0
VERTEX
  5
AD
100
AcDbEntity
  8
0
370
     0
390
0
100
AcDbVertex
100
AcDb2dVertex
 10
7.911392
 20
0.580013
 30
0.0
  0
VERTEX
  5
AE
100
AcDbEntity
  8
0
370
     0
390
0
100
AcDbVertex
100
AcDb2dVertex
 10
7.910106
 20
0.583262
 30
0.0
  0
VERTEX
  5
AF
100
AcDbEntity
  8
0
370
     0
390
0
100
AcDbVertex
100
AcDb2dVertex
 10
7.908719
 20
0.58658
 30
0.0
  0
VERTEX
  5
B0
100
AcDbEntity
  8
0
370
     0
390
0
100
AcDbVertex
100
AcDb2dVertex
 10
7.907229
 20
0.589967
 30
0.0
  0
VERTEX
  5
B1
100
AcDbEntity
  8
0
370
     0
390
0
100
AcDbVertex
100
AcDb2dVertex
 10
7.905638
 20
0.593424
 30
0.0
  0
VERTEX
  5
B2
100
AcDbEntity
  8
0
370
     0
390
0
100
AcDbVertex
100
AcDb2dVertex
 10
7.903945
 20
0.596951
 30
0.0
  0
VERTEX
  5
B3
100
AcDbEntity
  8
0
370
     0
390
0
100
AcDbVertex
100
AcDb2dVertex
 10
7.902151
 20
0.600546
 30
0.0
  0
VERTEX
  5
B4
100
AcDbEntity
  8
0
370
     0
390
0
100
AcDbVertex
100
AcDb2dVertex
 10
7.900255
 20
0.604209
 30
0.0
  0
SEQEND
  5
B5
100
AcDbEntity
  8
0
370
     0
390
0
  0
POLYLINE
  5
B6
100
AcDbEntity
  8
0
370
    13
390
0
 62
     7
 48
0.03937
100
AcDb2dPolyline
 66
     1
 10
0.0
 20
0.0
 30
0.0
 70
     1
 71
    22
  0
VERTEX
  5
B7
100
AcDbEntity
  8
0
370
     0
390
0
100
AcDbVertex
100
AcDb2dVertex
 10
8.036644
 20
0.598478
 30
0.0
  0
VERTEX
  5
B8
100
AcDbEntity
  8
0
370
     0
390
0
100
AcDbVertex
100
AcDb2dVertex
 10
8.035144
 20
0.596448
 30
0.0
  0
VERTEX
  5
B9
100
AcDbEntity
  8
0
370
     0
390
0
100
AcDbVertex
100
AcDb2dVertex
 10
8.033629
 20
0.594168
 30
0.0
  0
VERTEX
  5
BA
100
AcDbEntity
  8
0
370
     0
390
0
100
AcDbVertex
100
AcDb2dVertex
 10
8.032099
 20
0.591638
 30
0.0
  0
VERTEX
  5
BB
100
AcDbEntity
  8
0
370
     0
390
0
100
AcDbVertex
100
AcDb2dVertex
 10
8.030552
 20
0.588855
 30
0.0
  0
VERTEX
  5
BC
100
AcDbEntity
  8
0
370
     0
390
0
100
AcDbVertex
100
AcDb2dVertex
 10
8.028992
 20
0.585822
 30
0.0
  0
VERTEX
  5
BD
100
AcDbEntity
  8
0
370
     0
390
0
100
AcDbVertex
100
AcDb2dVertex
 10
8.027416
 20
0.582539
 30
0.0
  0
VERTEX
  5
BE
100
AcDbEntity
  8
0
370
     0
390
0
100
AcDbVertex
100
AcDb2dVertex
 10
8.025824
 20
0.579005
 30
0.0
  0
VERTEX
  5
BF
100
AcDbEntity
  8
0
370
     0
390
0
100
AcDbVertex
100
AcDb2dVertex
 10
8.024219
 20
0.575219
 30
0.0
  0
VERTEX
  5
C0
100
AcDbEntity
  8
0
370
     0
390
0
100
AcDbVertex
100
AcDb2dVertex
 10
8.022597
 20
0.571182
 30
0.0
  0
VERTEX
  5
C1
100
AcDbEntity
  8
0
370
     0
390
0
100
AcDbVertex
100
AcDb2dVertex
 10
8.020961
 20
0.566895
 30
0.0
  0
VERTEX
  5
C2
100
AcDbEntity
  8
0
370
     0
390
0
100
AcDbVertex
100
AcDb2dVertex
 10
8.018149
 20
0.567869
 30
0.0
  0
VERTEX
  5
C3
100
AcDbEntity
  8
0
370
     0
390
0
100
AcDbVertex
100
AcDb2dVertex
 10
8.020069
 20
0.573183
 30
0.0
  0
VERTEX
  5
C4
100
AcDbEntity
  8
0
370
     0
390
0
100
AcDbVertex
100
AcDb2dVertex
 10
8.021652
 20
0.577253
 30
0.0
  0
VERTEX
  5
C5
100
AcDbEntity
  8
0
370
     0
390
0
100
AcDbVertex
100
AcDb2dVertex
 10
8.023227
 20
0.581049
 30
0.0
  0
VERTEX
  5
C6
100
AcDbEntity
  8
0
370
     0
390
0
100
AcDbVertex
100
AcDb2dVertex
 10
8.024791
 20
0.584573
 30
0.0
  0
VERTEX
  5
C7
100
AcDbEntity
  8
0
370
     0
390
0
100
AcDbVertex
100
AcDb2dVertex
 10
8.026342
 20
0.587825
 30
0.0
  0
VERTEX
  5
C8
100
AcDbEntity
  8
0
370
     0
390
0
100
AcDbVertex
100
AcDb2dVertex
 10
8.027884
 20
0.590802
 30
0.0
  0
VERTEX
  5
C9
100
AcDbEntity
  8
0
370
     0
390
0
100
AcDbVertex
100
AcDb2dVertex
 10
8.029413
 20
0.593508
 30
0.0
  0
VERTEX
  5
CA
100
AcDbEntity
  8
0
370
     0
390
0
100
AcDbVertex
100
AcDb2dVertex
 10
8.030933
 20
0.595943
 30
0.0
  0
VERTEX
  5
CB
100
AcDbEntity
  8
0
370
     0
390
0
100
AcDbVertex
100
AcDb2dVertex
 10
8.032442
 20
0.598104
 30
0.0
  0
VERTEX
  5
CC
100
AcDbEntity
  8
0
370
     0
390
0
100
AcDbVertex
100
AcDb2dVertex
 10
8.03394
 20
0.599991
 30
0.0
  0
SEQEND
  5
CD
100
AcDbEntity
  8
0
370
     0
390
0
  0
POLYLINE
  5
CE
100
AcDbEntity
  8
0
370
    13
390
0
 62
     7
 48
0.03937
100
AcDb2dPolyline
 66
     1
 10
0.0
 20
0.0
 30
0.0
 70
     1
 71
    34
  0
VERTEX
  5
CF
100
AcDbEntity
  8
0
370
     0
390
0
100
AcDbVertex
100
AcDb2dVertex
 10
8.007766
 20
0.581604
 30
0.0
  0
VERTEX
  5
D0
100
AcDbEntity
  8
0
370
     0
390
0
100
AcDbVertex
100
AcDb2dVertex
 10
8.006072
 20
0.582632
 30
0.0
  0
VERTEX
  5
D1
100
AcDbEntity
  8
0
370
     0
390
0
100
AcDbVertex
100
AcDb2dVertex
 10
8.004322
 20
0.583551
 30
0.0
  0
VERTEX
  5
D2
100
AcDbEntity
  8
0
370
     0
390
0
100
AcDbVertex
100
AcDb2dVertex
 10
8.002516
 20
0.584363
 30
0.0
  0
VERTEX
  5
D3
100
AcDbEntity
  8
0
370
     0
390
0
100
AcDbVertex
100
AcDb2dVertex
 10
8.000652
 20
0.585066
 30
0.0
  0
VERTEX
  5
D4
100
AcDbEntity
  8
0
370
     0
390
0
100
AcDbVertex
100
AcDb2dVertex
 10
7.998734
 20
0.58566
 30
0.0
  0
VERTEX
  5
D5
100
AcDbEntity
  8
0
370
     0
390
0
100
AcDbVertex
100
AcDb2dVertex
 10
7.996758
 20
0.586148
 30
0.0
  0
VERTEX
  5
D6
100
AcDbEntity
  8
0
370
     0
390
0
100
AcDbVertex
100
AcDb2dVertex
 10
7.994728
 20
0.586526
 30
0.0
  0
VERTEX
  5
D7
100
AcDbEntity
  8
0
370
     0
390
0
100
AcDbVertex
100
AcDb2dVertex
 10
7.992641
 20
0.586796
 30
0.0
  0
VERTEX
  5
D8
100
AcDbEntity
  8
0
370
     0
390
0
100
AcDbVertex
100
AcDb2dVertex
 10
7.990496
 20
0.586959
 30
0.0
  0
VERTEX
  5
D9
100
AcDbEntity
  8
0
370
     0
390
0
100
AcDbVertex
100
AcDb2dVertex
 10
7.988297
 20
0.587013
 30
0.0
  0
VERTEX
  5
DA
100
AcDbEntity
  8
0
370
     0
390
0
100
AcDbVertex
100
AcDb2dVertex
 10
7.986785
 20
0.586983
 30
0.0
  0
VERTEX
  5
DB
100
AcDbEntity
  8
0
370
     0
390
0
100
AcDbVertex
100
AcDb2dVertex
 10
7.985234
 20
0.586896
 30
0.0
  0
VERTEX
  5
DC
100
AcDbEntity
  8
0
370
     0
390
0
100
AcDbVertex
100
AcDb2dVertex
 10
7.983644
 20
0.586751
 30
0.0
  0
VERTEX
  5
DD
100
AcDbEntity
  8
0
370
     0
390
0
100
AcDbVertex
100
AcDb2dVertex
 10
7.983538
 20
0.477987
 30
0.0
  0
VERTEX
  5
DE
100
AcDbEntity
  8
0
370
     0
390
0
100
AcDbVertex
100
AcDb2dVertex
 10
8.000735
 20
0.457653
 30
0.0
  0
VERTEX
  5
DF
100
AcDbEntity
  8
0
370
     0
390
0
100
AcDbVertex
100
AcDb2dVertex
 10
7.945466
 20
0.457653
 30
0.0
  0
VERTEX
  5
E0
100
AcDbEntity
  8
0
370
     0
390
0
100
AcDbVertex
100
AcDb2dVertex
 10
7.942978
 20
0.460574
 30
0.0
  0
VERTEX
  5
E1
100
AcDbEntity
  8
0
370
     0
390
0
100
AcDbVertex
100
AcDb2dVertex
 10
7.994786
 20
0.460574
 30
0.0
  0
VERTEX
  5
E2
100
AcDbEntity
  8
0
370
     0
390
0
100
AcDbVertex
100
AcDb2dVertex
 10
7.980293
 20
0.477123
 30
0.0
  0
VERTEX
  5
E3
100
AcDbEntity
  8
0
370
     0
390
0
100
AcDbVertex
100
AcDb2dVertex
 10
7.980293
 20
0.589826
 30
0.0
  0
VERTEX
  5
E4
100
AcDbEntity
  8
0
370
     0
390
0
100
AcDbVertex
100
AcDb2dVertex
 10
7.986134
 20
0.589934
 30
0.0
  0
VERTEX
  5
E5
100
AcDbEntity
  8
0
370
     0
390
0
100
AcDbVertex
100
AcDb2dVertex
 10
7.988171
 20
0.589916
 30
0.0
  0
VERTEX
  5
E6
100
AcDbEntity
  8
0
370
     0
390
0
100
AcDbVertex
100
AcDb2dVertex
 10
7.990086
 20
0.589866
 30
0.0
  0
VERTEX
  5
E7
100
AcDbEntity
  8
0
370
     0
390
0
100
AcDbVertex
100
AcDb2dVertex
 10
7.991879
 20
0.589782
 30
0.0
  0
VERTEX
  5
E8
100
AcDbEntity
  8
0
370
     0
390
0
100
AcDbVertex
100
AcDb2dVertex
 10
7.993549
 20
0.589665
 30
0.0
  0
VERTEX
  5
E9
100
AcDbEntity
  8
0
370
     0
390
0
100
AcDbVertex
100
AcDb2dVertex
 10
7.995098
 20
0.589514
 30
0.0
  0
VERTEX
  5
EA
100
AcDbEntity
  8
0
370
     0
390
0
100
AcDbVertex
100
AcDb2dVertex
 10
7.997828
 20
0.589112
 30
0.0
  0
VERTEX
  5
EB
100
AcDbEntity
  8
0
370
     0
390
0
100
AcDbVertex
100
AcDb2dVertex
 10
8.000069
 20
0.588575
 30
0.0
  0
VERTEX
  5
EC
100
AcDbEntity
  8
0
370
     0
390
0
100
AcDbVertex
100
AcDb2dVertex
 10
8.001862
 20
0.587888
 30
0.0
  0
VERTEX
  5
ED
100
AcDbEntity
  8
0
370
     0
390
0
100
AcDbVertex
100
AcDb2dVertex
 10
8.003455
 20
0.586953
 30
0.0
  0
VERTEX
  5
EE
100
AcDbEntity
  8
0
370
     0
390
0
100
AcDbVertex
100
AcDb2dVertex
 10
8.004886
 20
0.585755
 30
0.0
  0
VERTEX
  5
EF
100
AcDbEntity
  8
0
370
     0
390
0
100
AcDbVertex
100
AcDb2dVertex
 10
8.006157
 20
0.584294
 30
0.0
  0
VERTEX
  5
F0
100
AcDbEntity
  8
0
370
     0
390
0
100
AcDbVertex
100
AcDb2dVertex
 10
8.007269
 20
0.582567
 30
0.0
  0
SEQEND
  5
F1
100
AcDbEntity
  8
0
370
     0
390
0
  0
POLYLINE
  5
F2
100
AcDbEntity
  8
0
370
    13
390
0
 62
     7
 48
0.03937
100
AcDb2dPolyline
 66
     1
 10
0.0
 20
0.0
 30
0.0
 70
     1
 71
   138
  0
VERTEX
  5
F3
100
AcDbEntity
  8
0
370
     0
390
0
100
AcDbVertex
100
AcDb2dVertex
 10
8.03978
 20
0.605292
 30
0.0
  0
VERTEX
  5
F4
100
AcDbEntity
  8
0
370
     0
390
0
100
AcDbVertex
100
AcDb2dVertex
 10
8.152051
 20
0.605292
 30
0.0
  0
VERTEX
  5
F5
100
AcDbEntity
  8
0
370
     0
390
0
100
AcDbVertex
100
AcDb2dVertex
 10
8.150747
 20
0.603555
 30
0.0
  0
VERTEX
  5
F6
100
AcDbEntity
  8
0
370
     0
390
0
100
AcDbVertex
100
AcDb2dVertex
 10
8.149522
 20
0.601895
 30
0.0
  0
VERTEX
  5
F7
100
AcDbEntity
  8
0
370
     0
390
0
100
AcDbVertex
100
AcDb2dVertex
 10
8.148372
 20
0.600311
 30
0.0
  0
VERTEX
  5
F8
100
AcDbEntity
  8
0
370
     0
390
0
100
AcDbVertex
100
AcDb2dVertex
 10
8.1473
 20
0.598802
 30
0.0
  0
VERTEX
  5
F9
100
AcDbEntity
  8
0
370
     0
390
0
100
AcDbVertex
100
AcDb2dVertex
 10
8.146304
 20
0.597369
 30
0.0
  0
VERTEX
  5
FA
100
AcDbEntity
  8
0
370
     0
390
0
100
AcDbVertex
100
AcDb2dVertex
 10
8.145386
 20
0.596012
 30
0.0
  0
VERTEX
  5
FB
100
AcDbEntity
  8
0
370
     0
390
0
100
AcDbVertex
100
AcDb2dVertex
 10
8.144543
 20
0.594729
 30
0.0
  0
VERTEX
  5
FC
100
AcDbEntity
  8
0
370
     0
390
0
100
AcDbVertex
100
AcDb2dVertex
 10
8.143089
 20
0.592394
 30
0.0
  0
VERTEX
  5
FD
100
AcDbEntity
  8
0
370
     0
390
0
100
AcDbVertex
100
AcDb2dVertex
 10
8.14189
 20
0.590261
 30
0.0
  0
VERTEX
  5
FE
100
AcDbEntity
  8
0
370
     0
390
0
100
AcDbVertex
100
AcDb2dVertex
 10
8.140617
 20
0.587735
 30
0.0
  0
VERTEX
  5
FF
100
AcDbEntity
  8
0
370
     0
390
0
100
AcDbVertex
100
AcDb2dVertex
 10
8.139935
 20
0.586286
 30
0.0
  0
VERTEX
  5
100
100
AcDbEntity
  8
0
370
     0
390
0
100
AcDbVertex
100
AcDb2dVertex
 10
8.13922
 20
0.584714
 30
0.0
  0
VERTEX
  5
101
100
AcDbEntity
  8
0
370
     0
390
0
100
AcDbVertex
100
AcDb2dVertex
 10
8.138474
 20
0.583019
 30
0.0
  0
VERTEX
  5
102
100
AcDbEntity
  8
0
370
     0
390
0
100
AcDbVertex
100
AcDb2dVertex
 10
8.137697
 20
0.581201
 30
0.0
  0
VERTEX
  5
103
100
AcDbEntity
  8
0
370
     0
390
0
100
AcDbVertex
100
AcDb2dVertex
 10
8.136889
 20
0.57926
 30
0.0
  0
VERTEX
  5
104
100
AcDbEntity
  8
0
370
     0
390
0
100
AcDbVertex
100
AcDb2dVertex
 10
8.136049
 20
0.577196
 30
0.0
  0
VERTEX
  5
105
100
AcDbEntity
  8
0
370
     0
390
0
100
AcDbVertex
100
AcDb2dVertex
 10
8.135177
 20
0.575007
 30
0.0
  0
VERTEX
  5
106
100
AcDbEntity
  8
0
370
     0
390
0
100
AcDbVertex
100
AcDb2dVertex
 10
8.134311
 20
0.572844
 30
0.0
  0
VERTEX
  5
107
100
AcDbEntity
  8
0
370
     0
390
0
100
AcDbVertex
100
AcDb2dVertex
 10
8.132887
 20
0.575682
 30
0.0
  0
VERTEX
  5
108
100
AcDbEntity
  8
0
370
     0
390
0
100
AcDbVertex
100
AcDb2dVertex
 10
8.131463
 20
0.578313
 30
0.0
  0
VERTEX
  5
109
100
AcDbEntity
  8
0
370
     0
390
0
100
AcDbVertex
100
AcDb2dVertex
 10
8.130044
 20
0.580736
 30
0.0
  0
VERTEX
  5
10A
100
AcDbEntity
  8
0
370
     0
390
0
100
AcDbVertex
100
AcDb2dVertex
 10
8.128628
 20
0.582951
 30
0.0
  0
VERTEX
  5
10B
100
AcDbEntity
  8
0
370
     0
390
0
100
AcDbVertex
100
AcDb2dVertex
 10
8.127215
 20
0.584958
 30
0.0
  0
VERTEX
  5
10C
100
AcDbEntity
  8
0
370
     0
390
0
100
AcDbVertex
100
AcDb2dVertex
 10
8.125804
 20
0.586758
 30
0.0
  0
VERTEX
  5
10D
100
AcDbEntity
  8
0
370
     0
390
0
100
AcDbVertex
100
AcDb2dVertex
 10
8.124398
 20
0.58835
 30
0.0
  0
VERTEX
  5
10E
100
AcDbEntity
  8
0
370
     0
390
0
100
AcDbVertex
100
AcDb2dVertex
 10
8.122994
 20
0.589734
 30
0.0
  0
VERTEX
  5
10F
100
AcDbEntity
  8
0
370
     0
390
0
100
AcDbVertex
100
AcDb2dVertex
 10
8.121594
 20
0.59091
 30
0.0
  0
VERTEX
  5
110
100
AcDbEntity
  8
0
370
     0
390
0
100
AcDbVertex
100
AcDb2dVertex
 10
8.120198
 20
0.591881
 30
0.0
  0
VERTEX
  5
111
100
AcDbEntity
  8
0
370
     0
390
0
100
AcDbVertex
100
AcDb2dVertex
 10
8.118707
 20
0.592701
 30
0.0
  0
VERTEX
  5
112
100
AcDbEntity
  8
0
370
     0
390
0
100
AcDbVertex
100
AcDb2dVertex
 10
8.117024
 20
0.593438
 30
0.0
  0
VERTEX
  5
113
100
AcDbEntity
  8
0
370
     0
390
0
100
AcDbVertex
100
AcDb2dVertex
 10
8.11515
 20
0.594086
 30
0.0
  0
VERTEX
  5
114
100
AcDbEntity
  8
0
370
     0
390
0
100
AcDbVertex
100
AcDb2dVertex
 10
8.113085
 20
0.594648
 30
0.0
  0
VERTEX
  5
115
100
AcDbEntity
  8
0
370
     0
390
0
100
AcDbVertex
100
AcDb2dVertex
 10
8.110827
 20
0.595125
 30
0.0
  0
VERTEX
  5
116
100
AcDbEntity
  8
0
370
     0
390
0
100
AcDbVertex
100
AcDb2dVertex
 10
8.108379
 20
0.595514
 30
0.0
  0
VERTEX
  5
117
100
AcDbEntity
  8
0
370
     0
390
0
100
AcDbVertex
100
AcDb2dVertex
 10
8.10574
 20
0.595817
 30
0.0
  0
VERTEX
  5
118
100
AcDbEntity
  8
0
370
     0
390
0
100
AcDbVertex
100
AcDb2dVertex
 10
8.102909
 20
0.596033
 30
0.0
  0
VERTEX
  5
119
100
AcDbEntity
  8
0
370
     0
390
0
100
AcDbVertex
100
AcDb2dVertex
 10
8.099887
 20
0.596163
 30
0.0
  0
VERTEX
  5
11A
100
AcDbEntity
  8
0
370
     0
390
0
100
AcDbVertex
100
AcDb2dVertex
 10
8.096672
 20
0.596207
 30
0.0
  0
VERTEX
  5
11B
100
AcDbEntity
  8
0
370
     0
390
0
100
AcDbVertex
100
AcDb2dVertex
 10
8.090507
 20
0.596099
 30
0.0
  0
VERTEX
  5
11C
100
AcDbEntity
  8
0
370
     0
390
0
100
AcDbVertex
100
AcDb2dVertex
 10
8.080016
 20
0.596207
 30
0.0
  0
VERTEX
  5
11D
100
AcDbEntity
  8
0
370
     0
390
0
100
AcDbVertex
100
AcDb2dVertex
 10
8.076014
 20
0.596315
 30
0.0
  0
VERTEX
  5
11E
100
AcDbEntity
  8
0
370
     0
390
0
100
AcDbVertex
100
AcDb2dVertex
 10
8.076014
 20
0.545696
 30
0.0
  0
VERTEX
  5
11F
100
AcDbEntity
  8
0
370
     0
390
0
100
AcDbVertex
100
AcDb2dVertex
 10
8.082612
 20
0.545696
 30
0.0
  0
VERTEX
  5
120
100
AcDbEntity
  8
0
370
     0
390
0
100
AcDbVertex
100
AcDb2dVertex
 10
8.082612
 20
0.590366
 30
0.0
  0
VERTEX
  5
121
100
AcDbEntity
  8
0
370
     0
390
0
100
AcDbVertex
100
AcDb2dVertex
 10
8.085749
 20
0.590474
 30
0.0
  0
VERTEX
  5
122
100
AcDbEntity
  8
0
370
     0
390
0
100
AcDbVertex
100
AcDb2dVertex
 10
8.088465
 20
0.590591
 30
0.0
  0
VERTEX
  5
123
100
AcDbEntity
  8
0
370
     0
390
0
100
AcDbVertex
100
AcDb2dVertex
 10
8.091251
 20
0.590682
 30
0.0
  0
VERTEX
  5
124
100
AcDbEntity
  8
0
370
     0
390
0
100
AcDbVertex
100
AcDb2dVertex
 10
8.094107
 20
0.590747
 30
0.0
  0
VERTEX
  5
125
100
AcDbEntity
  8
0
370
     0
390
0
100
AcDbVertex
100
AcDb2dVertex
 10
8.097032
 20
0.590786
 30
0.0
  0
VERTEX
  5
126
100
AcDbEntity
  8
0
370
     0
390
0
100
AcDbVertex
100
AcDb2dVertex
 10
8.100026
 20
0.590798
 30
0.0
  0
VERTEX
  5
127
100
AcDbEntity
  8
0
370
     0
390
0
100
AcDbVertex
100
AcDb2dVertex
 10
8.104273
 20
0.590684
 30
0.0
  0
VERTEX
  5
128
100
AcDbEntity
  8
0
370
     0
390
0
100
AcDbVertex
100
AcDb2dVertex
 10
8.108189
 20
0.59034
 30
0.0
  0
VERTEX
  5
129
100
AcDbEntity
  8
0
370
     0
390
0
100
AcDbVertex
100
AcDb2dVertex
 10
8.111775
 20
0.589767
 30
0.0
  0
VERTEX
  5
12A
100
AcDbEntity
  8
0
370
     0
390
0
100
AcDbVertex
100
AcDb2dVertex
 10
8.115029
 20
0.588965
 30
0.0
  0
VERTEX
  5
12B
100
AcDbEntity
  8
0
370
     0
390
0
100
AcDbVertex
100
AcDb2dVertex
 10
8.117954
 20
0.587933
 30
0.0
  0
VERTEX
  5
12C
100
AcDbEntity
  8
0
370
     0
390
0
100
AcDbVertex
100
AcDb2dVertex
 10
8.120546
 20
0.586671
 30
0.0
  0
VERTEX
  5
12D
100
AcDbEntity
  8
0
370
     0
390
0
100
AcDbVertex
100
AcDb2dVertex
 10
8.122807
 20
0.58518
 30
0.0
  0
VERTEX
  5
12E
100
AcDbEntity
  8
0
370
     0
390
0
100
AcDbVertex
100
AcDb2dVertex
 10
8.124737
 20
0.583461
 30
0.0
  0
VERTEX
  5
12F
100
AcDbEntity
  8
0
370
     0
390
0
100
AcDbVertex
100
AcDb2dVertex
 10
8.126338
 20
0.581511
 30
0.0
  0
VERTEX
  5
130
100
AcDbEntity
  8
0
370
     0
390
0
100
AcDbVertex
100
AcDb2dVertex
 10
8.127607
 20
0.579333
 30
0.0
  0
VERTEX
  5
131
100
AcDbEntity
  8
0
370
     0
390
0
100
AcDbVertex
100
AcDb2dVertex
 10
8.125449
 20
0.581235
 30
0.0
  0
VERTEX
  5
132
100
AcDbEntity
  8
0
370
     0
390
0
100
AcDbVertex
100
AcDb2dVertex
 10
8.123219
 20
0.582873
 30
0.0
  0
VERTEX
  5
133
100
AcDbEntity
  8
0
370
     0
390
0
100
AcDbVertex
100
AcDb2dVertex
 10
8.120915
 20
0.584246
 30
0.0
  0
VERTEX
  5
134
100
AcDbEntity
  8
0
370
     0
390
0
100
AcDbVertex
100
AcDb2dVertex
 10
8.118538
 20
0.585356
 30
0.0
  0
VERTEX
  5
135
100
AcDbEntity
  8
0
370
     0
390
0
100
AcDbVertex
100
AcDb2dVertex
 10
8.116087
 20
0.586202
 30
0.0
  0
VERTEX
  5
136
100
AcDbEntity
  8
0
370
     0
390
0
100
AcDbVertex
100
AcDb2dVertex
 10
8.113329
 20
0.586844
 30
0.0
  0
VERTEX
  5
137
100
AcDbEntity
  8
0
370
     0
390
0
100
AcDbVertex
100
AcDb2dVertex
 10
8.111747
 20
0.587112
 30
0.0
  0
VERTEX
  5
138
100
AcDbEntity
  8
0
370
     0
390
0
100
AcDbVertex
100
AcDb2dVertex
 10
8.110031
 20
0.587343
 30
0.0
  0
VERTEX
  5
139
100
AcDbEntity
  8
0
370
     0
390
0
100
AcDbVertex
100
AcDb2dVertex
 10
8.108179
 20
0.58754
 30
0.0
  0
VERTEX
  5
13A
100
AcDbEntity
  8
0
370
     0
390
0
100
AcDbVertex
100
AcDb2dVertex
 10
8.106191
 20
0.5877
 30
0.0
  0
VERTEX
  5
13B
100
AcDbEntity
  8
0
370
     0
390
0
100
AcDbVertex
100
AcDb2dVertex
 10
8.104068
 20
0.587826
 30
0.0
  0
VERTEX
  5
13C
100
AcDbEntity
  8
0
370
     0
390
0
100
AcDbVertex
100
AcDb2dVertex
 10
8.101811
 20
0.587915
 30
0.0
  0
VERTEX
  5
13D
100
AcDbEntity
  8
0
370
     0
390
0
100
AcDbVertex
100
AcDb2dVertex
 10
8.099417
 20
0.587969
 30
0.0
  0
VERTEX
  5
13E
100
AcDbEntity
  8
0
370
     0
390
0
100
AcDbVertex
100
AcDb2dVertex
 10
8.09689
 20
0.587987
 30
0.0
  0
VERTEX
  5
13F
100
AcDbEntity
  8
0
370
     0
390
0
100
AcDbVertex
100
AcDb2dVertex
 10
8.094938
 20
0.587964
 30
0.0
  0
VERTEX
  5
140
100
AcDbEntity
  8
0
370
     0
390
0
100
AcDbVertex
100
AcDb2dVertex
 10
8.092805
 20
0.5879
 30
0.0
  0
VERTEX
  5
141
100
AcDbEntity
  8
0
370
     0
390
0
100
AcDbVertex
100
AcDb2dVertex
 10
8.090491
 20
0.587792
 30
0.0
  0
VERTEX
  5
142
100
AcDbEntity
  8
0
370
     0
390
0
100
AcDbVertex
100
AcDb2dVertex
 10
8.087994
 20
0.58764
 30
0.0
  0
VERTEX
  5
143
100
AcDbEntity
  8
0
370
     0
390
0
100
AcDbVertex
100
AcDb2dVertex
 10
8.085316
 20
0.587445
 30
0.0
  0
VERTEX
  5
144
100
AcDbEntity
  8
0
370
     0
390
0
100
AcDbVertex
100
AcDb2dVertex
 10
8.085316
 20
0.545696
 30
0.0
  0
VERTEX
  5
145
100
AcDbEntity
  8
0
370
     0
390
0
100
AcDbVertex
100
AcDb2dVertex
 10
8.101647
 20
0.545696
 30
0.0
  0
VERTEX
  5
146
100
AcDbEntity
  8
0
370
     0
390
0
100
AcDbVertex
100
AcDb2dVertex
 10
8.118953
 20
0.563975
 30
0.0
  0
VERTEX
  5
147
100
AcDbEntity
  8
0
370
     0
390
0
100
AcDbVertex
100
AcDb2dVertex
 10
8.118953
 20
0.518655
 30
0.0
  0
VERTEX
  5
148
100
AcDbEntity
  8
0
370
     0
390
0
100
AcDbVertex
100
AcDb2dVertex
 10
8.100782
 20
0.53661
 30
0.0
  0
VERTEX
  5
149
100
AcDbEntity
  8
0
370
     0
390
0
100
AcDbVertex
100
AcDb2dVertex
 10
8.076014
 20
0.53661
 30
0.0
  0
VERTEX
  5
14A
100
AcDbEntity
  8
0
370
     0
390
0
100
AcDbVertex
100
AcDb2dVertex
 10
8.076014
 20
0.482097
 30
0.0
  0
VERTEX
  5
14B
100
AcDbEntity
  8
0
370
     0
390
0
100
AcDbVertex
100
AcDb2dVertex
 10
8.089859
 20
0.468038
 30
0.0
  0
VERTEX
  5
14C
100
AcDbEntity
  8
0
370
     0
390
0
100
AcDbVertex
100
AcDb2dVertex
 10
8.036753
 20
0.468038
 30
0.0
  0
VERTEX
  5
14D
100
AcDbEntity
  8
0
370
     0
390
0
100
AcDbVertex
100
AcDb2dVertex
 10
8.054382
 20
0.482097
 30
0.0
  0
VERTEX
  5
14E
100
AcDbEntity
  8
0
370
     0
390
0
100
AcDbVertex
100
AcDb2dVertex
 10
8.054382
 20
0.528606
 30
0.0
  0
VERTEX
  5
14F
100
AcDbEntity
  8
0
370
     0
390
0
100
AcDbVertex
100
AcDb2dVertex
 10
8.052737
 20
0.528543
 30
0.0
  0
VERTEX
  5
150
100
AcDbEntity
  8
0
370
     0
390
0
100
AcDbVertex
100
AcDb2dVertex
 10
8.051134
 20
0.528356
 30
0.0
  0
VERTEX
  5
151
100
AcDbEntity
  8
0
370
     0
390
0
100
AcDbVertex
100
AcDb2dVertex
 10
8.049571
 20
0.528042
 30
0.0
  0
VERTEX
  5
152
100
AcDbEntity
  8
0
370
     0
390
0
100
AcDbVertex
100
AcDb2dVertex
 10
8.048048
 20
0.527603
 30
0.0
  0
VERTEX
  5
153
100
AcDbEntity
  8
0
370
     0
390
0
100
AcDbVertex
100
AcDb2dVertex
 10
8.046567
 20
0.527039
 30
0.0
  0
VERTEX
  5
154
100
AcDbEntity
  8
0
370
     0
390
0
100
AcDbVertex
100
AcDb2dVertex
 10
8.045129
 20
0.526349
 30
0.0
  0
VERTEX
  5
155
100
AcDbEntity
  8
0
370
     0
390
0
100
AcDbVertex
100
AcDb2dVertex
 10
8.04373
 20
0.525533
 30
0.0
  0
VERTEX
  5
156
100
AcDbEntity
  8
0
370
     0
390
0
100
AcDbVertex
100
AcDb2dVertex
 10
8.042372
 20
0.524592
 30
0.0
  0
VERTEX
  5
157
100
AcDbEntity
  8
0
370
     0
390
0
100
AcDbVertex
100
AcDb2dVertex
 10
8.041057
 20
0.523526
 30
0.0
  0
VERTEX
  5
158
100
AcDbEntity
  8
0
370
     0
390
0
100
AcDbVertex
100
AcDb2dVertex
 10
8.03978
 20
0.522333
 30
0.0
  0
VERTEX
  5
159
100
AcDbEntity
  8
0
370
     0
390
0
100
AcDbVertex
100
AcDb2dVertex
 10
8.037725
 20
0.524604
 30
0.0
  0
VERTEX
  5
15A
100
AcDbEntity
  8
0
370
     0
390
0
100
AcDbVertex
100
AcDb2dVertex
 10
8.039021
 20
0.52592
 30
0.0
  0
VERTEX
  5
15B
100
AcDbEntity
  8
0
370
     0
390
0
100
AcDbVertex
100
AcDb2dVertex
 10
8.0404
 20
0.527097
 30
0.0
  0
VERTEX
  5
15C
100
AcDbEntity
  8
0
370
     0
390
0
100
AcDbVertex
100
AcDb2dVertex
 10
8.041859
 20
0.528135
 30
0.0
  0
VERTEX
  5
15D
100
AcDbEntity
  8
0
370
     0
390
0
100
AcDbVertex
100
AcDb2dVertex
 10
8.043403
 20
0.529035
 30
0.0
  0
VERTEX
  5
15E
100
AcDbEntity
  8
0
370
     0
390
0
100
AcDbVertex
100
AcDb2dVertex
 10
8.045027
 20
0.529796
 30
0.0
  0
VERTEX
  5
15F
100
AcDbEntity
  8
0
370
     0
390
0
100
AcDbVertex
100
AcDb2dVertex
 10
8.046733
 20
0.53042
 30
0.0
  0
VERTEX
  5
160
100
AcDbEntity
  8
0
370
     0
390
0
100
AcDbVertex
100
AcDb2dVertex
 10
8.048522
 20
0.530904
 30
0.0
  0
VERTEX
  5
161
100
AcDbEntity
  8
0
370
     0
390
0
100
AcDbVertex
100
AcDb2dVertex
 10
8.050394
 20
0.531249
 30
0.0
  0
VERTEX
  5
162
100
AcDbEntity
  8
0
370
     0
390
0
100
AcDbVertex
100
AcDb2dVertex
 10
8.052347
 20
0.531458
 30
0.0
  0
VERTEX
  5
163
100
AcDbEntity
  8
0
370
     0
390
0
100
AcDbVertex
100
AcDb2dVertex
 10
8.054382
 20
0.531527
 30
0.0
  0
VERTEX
  5
164
100
AcDbEntity
  8
0
370
     0
390
0
100
AcDbVertex
100
AcDb2dVertex
 10
8.054382
 20
0.53661
 30
0.0
  0
VERTEX
  5
165
100
AcDbEntity
  8
0
370
     0
390
0
100
AcDbVertex
100
AcDb2dVertex
 10
8.052773
 20
0.536748
 30
0.0
  0
VERTEX
  5
166
100
AcDbEntity
  8
0
370
     0
390
0
100
AcDbVertex
100
AcDb2dVertex
 10
8.051138
 20
0.536826
 30
0.0
  0
VERTEX
  5
167
100
AcDbEntity
  8
0
370
     0
390
0
100
AcDbVertex
100
AcDb2dVertex
 10
8.049152
 20
0.536744
 30
0.0
  0
VERTEX
  5
168
100
AcDbEntity
  8
0
370
     0
390
0
100
AcDbVertex
100
AcDb2dVertex
 10
8.047222
 20
0.536498
 30
0.0
  0
VERTEX
  5
169
100
AcDbEntity
  8
0
370
     0
390
0
100
AcDbVertex
100
AcDb2dVertex
 10
8.045345
 20
0.536087
 30
0.0
  0
VERTEX
  5
16A
100
AcDbEntity
  8
0
370
     0
390
0
100
AcDbVertex
100
AcDb2dVertex
 10
8.043522
 20
0.535512
 30
0.0
  0
VERTEX
  5
16B
100
AcDbEntity
  8
0
370
     0
390
0
100
AcDbVertex
100
AcDb2dVertex
 10
8.041754
 20
0.534771
 30
0.0
  0
VERTEX
  5
16C
100
AcDbEntity
  8
0
370
     0
390
0
100
AcDbVertex
100
AcDb2dVertex
 10
8.04004
 20
0.533868
 30
0.0
  0
VERTEX
  5
16D
100
AcDbEntity
  8
0
370
     0
390
0
100
AcDbVertex
100
AcDb2dVertex
 10
8.038381
 20
0.532799
 30
0.0
  0
VERTEX
  5
16E
100
AcDbEntity
  8
0
370
     0
390
0
100
AcDbVertex
100
AcDb2dVertex
 10
8.036774
 20
0.531566
 30
0.0
  0
VERTEX
  5
16F
100
AcDbEntity
  8
0
370
     0
390
0
100
AcDbVertex
100
AcDb2dVertex
 10
8.035222
 20
0.530168
 30
0.0
  0
VERTEX
  5
170
100
AcDbEntity
  8
0
370
     0
390
0
100
AcDbVertex
100
AcDb2dVertex
 10
8.033725
 20
0.528606
 30
0.0
  0
VERTEX
  5
171
100
AcDbEntity
  8
0
370
     0
390
0
100
AcDbVertex
100
AcDb2dVertex
 10
8.032967
 20
0.530337
 30
0.0
  0
VERTEX
  5
172
100
AcDbEntity
  8
0
370
     0
390
0
100
AcDbVertex
100
AcDb2dVertex
 10
8.034058
 20
0.533022
 30
0.0
  0
VERTEX
  5
173
100
AcDbEntity
  8
0
370
     0
390
0
100
AcDbVertex
100
AcDb2dVertex
 10
8.03538
 20
0.535451
 30
0.0
  0
VERTEX
  5
174
100
AcDbEntity
  8
0
370
     0
390
0
100
AcDbVertex
100
AcDb2dVertex
 10
8.036938
 20
0.537626
 30
0.0
  0
VERTEX
  5
175
100
AcDbEntity
  8
0
370
     0
390
0
100
AcDbVertex
100
AcDb2dVertex
 10
8.03873
 20
0.539544
 30
0.0
  0
VERTEX
  5
176
100
AcDbEntity
  8
0
370
     0
390
0
100
AcDbVertex
100
AcDb2dVertex
 10
8.040755
 20
0.541208
 30
0.0
  0
VERTEX
  5
177
100
AcDbEntity
  8
0
370
     0
390
0
100
AcDbVertex
100
AcDb2dVertex
 10
8.043013
 20
0.542615
 30
0.0
  0
VERTEX
  5
178
100
AcDbEntity
  8
0
370
     0
390
0
100
AcDbVertex
100
AcDb2dVertex
 10
8.045504
 20
0.543768
 30
0.0
  0
VERTEX
  5
179
100
AcDbEntity
  8
0
370
     0
390
0
100
AcDbVertex
100
AcDb2dVertex
 10
8.048231
 20
0.544665
 30
0.0
  0
VERTEX
  5
17A
100
AcDbEntity
  8
0
370
     0
390
0
100
AcDbVertex
100
AcDb2dVertex
 10
8.051189
 20
0.545309
 30
0.0
  0
VERTEX
  5
17B
100
AcDbEntity
  8
0
370
     0
390
0
100
AcDbVertex
100
AcDb2dVertex
 10
8.054382
 20
0.545696
 30
0.0
  0
VERTEX
  5
17C
100
AcDbEntity
  8
0
370
     0
390
0
100
AcDbVertex
100
AcDb2dVertex
 10
8.054382
 20
0.591339
 30
0.0
  0
SEQEND
  5
17D
100
AcDbEntity
  8
0
370
     0
390
0
  0
POLYLINE
  5
17E
100
AcDbEntity
  8
0
370
    13
390
0
 62
     7
 48
0.03937
100
AcDb2dPolyline
 66
     1
 10
0.0
 20
0.0
 30
0.0
 70
     1
 71
    22
  0
VERTEX
  5
17F
100
AcDbEntity
  8
0
370
     0
390
0
100
AcDbVertex
100
AcDb2dVertex
 10
8.160271
 20
0.598694
 30
0.0
  0
VERTEX
  5
180
100
AcDbEntity
  8
0
370
     0
390
0
100
AcDbVertex
100
AcDb2dVertex
 10
8.157292
 20
0.595112
 30
0.0
  0
VERTEX
  5
181
100
AcDbEntity
  8
0
370
     0
390
0
100
AcDbVertex
100
AcDb2dVertex
 10
8.154542
 20
0.59159
 30
0.0
  0
VERTEX
  5
182
100
AcDbEntity
  8
0
370
     0
390
0
100
AcDbVertex
100
AcDb2dVertex
 10
8.152022
 20
0.588129
 30
0.0
  0
VERTEX
  5
183
100
AcDbEntity
  8
0
370
     0
390
0
100
AcDbVertex
100
AcDb2dVertex
 10
8.149732
 20
0.584729
 30
0.0
  0
VERTEX
  5
184
100
AcDbEntity
  8
0
370
     0
390
0
100
AcDbVertex
100
AcDb2dVertex
 10
8.147671
 20
0.581388
 30
0.0
  0
VERTEX
  5
185
100
AcDbEntity
  8
0
370
     0
390
0
100
AcDbVertex
100
AcDb2dVertex
 10
8.145838
 20
0.578109
 30
0.0
  0
VERTEX
  5
186
100
AcDbEntity
  8
0
370
     0
390
0
100
AcDbVertex
100
AcDb2dVertex
 10
8.144234
 20
0.57489
 30
0.0
  0
VERTEX
  5
187
100
AcDbEntity
  8
0
370
     0
390
0
100
AcDbVertex
100
AcDb2dVertex
 10
8.142862
 20
0.571733
 30
0.0
  0
VERTEX
  5
188
100
AcDbEntity
  8
0
370
     0
390
0
100
AcDbVertex
100
AcDb2dVertex
 10
8.141717
 20
0.568634
 30
0.0
  0
VERTEX
  5
189
100
AcDbEntity
  8
0
370
     0
390
0
100
AcDbVertex
100
AcDb2dVertex
 10
8.140802
 20
0.565596
 30
0.0
  0
VERTEX
  5
18A
100
AcDbEntity
  8
0
370
     0
390
0
100
AcDbVertex
100
AcDb2dVertex
 10
8.138531
 20
0.567111
 30
0.0
  0
VERTEX
  5
18B
100
AcDbEntity
  8
0
370
     0
390
0
100
AcDbVertex
100
AcDb2dVertex
 10
8.139469
 20
0.570503
 30
0.0
  0
VERTEX
  5
18C
100
AcDbEntity
  8
0
370
     0
390
0
100
AcDbVertex
100
AcDb2dVertex
 10
8.140637
 20
0.573882
 30
0.0
  0
VERTEX
  5
18D
100
AcDbEntity
  8
0
370
     0
390
0
100
AcDbVertex
100
AcDb2dVertex
 10
8.142038
 20
0.577251
 30
0.0
  0
VERTEX
  5
18E
100
AcDbEntity
  8
0
370
     0
390
0
100
AcDbVertex
100
AcDb2dVertex
 10
8.14367
 20
0.58061
 30
0.0
  0
VERTEX
  5
18F
100
AcDbEntity
  8
0
370
     0
390
0
100
AcDbVertex
100
AcDb2dVertex
 10
8.145533
 20
0.583958
 30
0.0
  0
VERTEX
  5
190
100
AcDbEntity
  8
0
370
     0
390
0
100
AcDbVertex
100
AcDb2dVertex
 10
8.147629
 20
0.587294
 30
0.0
  0
VERTEX
  5
191
100
AcDbEntity
  8
0
370
     0
390
0
100
AcDbVertex
100
AcDb2dVertex
 10
8.149955
 20
0.590619
 30
0.0
  0
VERTEX
  5
192
100
AcDbEntity
  8
0
370
     0
390
0
100
AcDbVertex
100
AcDb2dVertex
 10
8.152513
 20
0.593936
 30
0.0
  0
VERTEX
  5
193
100
AcDbEntity
  8
0
370
     0
390
0
100
AcDbVertex
100
AcDb2dVertex
 10
8.155303
 20
0.597239
 30
0.0
  0
VERTEX
  5
194
100
AcDbEntity
  8
0
370
     0
390
0
100
AcDbVertex
100
AcDb2dVertex
 10
8.158324
 20
0.600533
 30
0.0
  0
SEQEND
  5
195
100
AcDbEntity
  8
0
370
     0
390
0
  0
POLYLINE
  5
196
100
AcDbEntity
  8
0
370
    13
390
0
 62
     7
 48
0.03937
100
AcDb2dPolyline
 66
     1
 10
0.0
 20
0.0
 30
0.0
 70
     1
 71
     4
  0
VERTEX
  5
197
100
AcDbEntity
  8
0
370
     0
390
0
100
AcDbVertex
100
AcDb2dVertex
 10
8.126849
 20
0.560189
 30
0.0
  0
VERTEX
  5
198
100
AcDbEntity
  8
0
370
     0
390
0
100
AcDbVertex
100
AcDb2dVertex
 10
8.126849
 20
0.513464
 30
0.0
  0
VERTEX
  5
199
100
AcDbEntity
  8
0
370
     0
390
0
100
AcDbVertex
100
AcDb2dVertex
 10
8.124036
 20
0.515087
 30
0.0
  0
VERTEX
  5
19A
100
AcDbEntity
  8
0
370
     0
390
0
100
AcDbVertex
100
AcDb2dVertex
 10
8.124036
 20
0.561812
 30
0.0
  0
SEQEND
  5
19B
100
AcDbEntity
  8
0
370
     0
390
0
  0
POLYLINE
  5
19C
100
AcDbEntity
  8
0
370
    13
390
0
 62
     7
 48
0.03937
100
AcDb2dPolyline
 66
     1
 10
0.0
 20
0.0
 30
0.0
 70
     1
 71
    10
  0
VERTEX
  5
19D
100
AcDbEntity
  8
0
370
     0
390
0
100
AcDbVertex
100
AcDb2dVertex
 10
8.107488
 20
0.527525
 30
0.0
  0
VERTEX
  5
19E
100
AcDbEntity
  8
0
370
     0
390
0
100
AcDbVertex
100
AcDb2dVertex
 10
8.085316
 20
0.527525
 30
0.0
  0
VERTEX
  5
19F
100
AcDbEntity
  8
0
370
     0
390
0
100
AcDbVertex
100
AcDb2dVertex
 10
8.085316
 20
0.481233
 30
0.0
  0
VERTEX
  5
1A0
100
AcDbEntity
  8
0
370
     0
390
0
100
AcDbVertex
100
AcDb2dVertex
 10
8.104352
 20
0.457653
 30
0.0
  0
VERTEX
  5
1A1
100
AcDbEntity
  8
0
370
     0
390
0
100
AcDbVertex
100
AcDb2dVertex
 10
8.041727
 20
0.457653
 30
0.0
  0
VERTEX
  5
1A2
100
AcDbEntity
  8
0
370
     0
390
0
100
AcDbVertex
100
AcDb2dVertex
 10
8.039024
 20
0.460574
 30
0.0
  0
VERTEX
  5
1A3
100
AcDbEntity
  8
0
370
     0
390
0
100
AcDbVertex
100
AcDb2dVertex
 10
8.098295
 20
0.460574
 30
0.0
  0
VERTEX
  5
1A4
100
AcDbEntity
  8
0
370
     0
390
0
100
AcDbVertex
100
AcDb2dVertex
 10
8.082612
 20
0.479934
 30
0.0
  0
VERTEX
  5
1A5
100
AcDbEntity
  8
0
370
     0
390
0
100
AcDbVertex
100
AcDb2dVertex
 10
8.082612
 20
0.530445
 30
0.0
  0
VERTEX
  5
1A6
100
AcDbEntity
  8
0
370
     0
390
0
100
AcDbVertex
100
AcDb2dVertex
 10
8.104352
 20
0.530445
 30
0.0
  0
SEQEND
  5
1A7
100
AcDbEntity
  8
0
370
     0
390
0
  0
CIRCLE
  5
1A8
100
AcDbEntity
  8
0
370
    35
390
0
 62
     7
 48
0.03937
100
AcDbCircle
 10
1.495845
 20
5.336128
 30
0.0
 40
0.2128
210
0.0
220
0.0
230
1.0
  0
CIRCLE
  5
1A9
100
AcDbEntity
  8
0
370
    35
390
0
 62
     7
 48
0.03937
100
AcDbCircle
 10
3.490845
 20
5.336128
 30
0.0
 40
2.47
210
0.0
220
0.0
230
1.0
  0
CIRCLE
  5
1AA
100
AcDbEntity
  8
0
370
    35
390
0
 62
     7
 48
0.03937
100
AcDbCircle
 10
4.901523
 20
3.92545
 30
0.0
 40
0.2128
210
0.0
220
0.0
230
1.0
  0
CIRCLE
  5
1AB
100
AcDbEntity
  8
0
370
    35
390
0
 62
     7
 48
0.03937
100
AcDbCircle
 10
3.490845
 20
7.331128
 30
0.0
 40
0.2128
210
0.0
220
0.0
230
1.0
  0
CIRCLE
  5
1AC
100
AcDbEntity
  8
0
370
    35
390
0
 62
     7
 48
0.03937
100
AcDbCircle
 10
3.490845
 20
3.341128
 30
0.0
 40
0.2128
210
0.0
220
0.0
230
1.0
  0
CIRCLE
  5
1AD
100
AcDbEntity
  8
0
370
    35
390
0
 62
     7
 48
0.03937
100
AcDbCircle
 10
4.901523
 20
6.746806
 30
0.0
 40
0.2128
210
0.0
220
0.0
230
1.0
  0
CIRCLE
  5
1AE
100
AcDbEntity
  8
0
370
    35
390
0
 62
     7
 48
0.03937
100
AcDbCircle
 10
2.080167
 20
3.92545
 30
0.0
 40
0.2128
210
0.0
220
0.0
230
1.0
  0
CIRCLE
  5
1AF
100
AcDbEntity
  8
0
370
    35
390
0
 62
     7
 48
0.03937
100
AcDbCircle
 10
5.485845
 20
5.336128
 30
0.0
 40
0.2128
210
0.0
220
0.0
230
1.0
  0
CIRCLE
  5
1B0
100
AcDbEntity
  8
0
370
    35
390
0
 62
     7
 48
0.03937
100
AcDbCircle
 10
2.080167
 20
6.746806
 30
0.0
 40
0.2128
210
0.0
220
0.0
230
1.0
  0
CIRCLE
  5
1B1
100
AcDbEntity
  8
0
370
    35
390
0
 62
     7
 48
0.03937
100
AcDbCircle
 10
1.647705
 20
4.572675
 30
0.0
 40
0.09405
210
0.0
220
0.0
230
1.0
  0
CIRCLE
  5
1B2
100
AcDbEntity
  8
0
370
    35
390
0
 62
     7
 48
0.03937
100
AcDbCircle
 10
1.647705
 20
4.572675
 30
0.0
 40
0.0741
210
0.0
220
0.0
230
1.0
  0
LINE
  5
1B3
100
AcDbEntity
  8
0
370
    35
390
0
 62
     7
 48
0.000152
100
AcDbLine
 10
1.673051
 20
4.583476
 30
0.0
 11
1.667022
 21
4.584205
 31
0.0
210
0.0
220
0.0
230
1.0
  0
LINE
  5
1B4
100
AcDbEntity
  8
0
370
    35
390
0
 62
     7
 48
0.000015
100
AcDbLine
 10
1.667022
 20
4.584205
 30
0.0
 11
1.666414
 21
4.584262
 31
0.0
210
0.0
220
0.0
230
1.0
  0
LINE
  5
1B5
100
AcDbEntity
  8
0
370
    35
390
0
 62
     7
 48
0.000016
100
AcDbLine
 10
1.666414
 20
4.584262
 30
0.0
 11
1.665784
 21
4.584306
 31
0.0
210
0.0
220
0.0
230
1.0
  0
LINE
  5
1B6
100
AcDbEntity
  8
0
370
    35
390
0
 62
     7
 48
0.000016
100
AcDbLine
 10
1.665784
 20
4.584306
 30
0.0
 11
1.665131
 21
4.584336
 31
0.0
210
0.0
220
0.0
230
1.0
  0
LINE
  5
1B7
100
AcDbEntity
  8
0
370
    35
390
0
 62
     7
 48
0.000017
100
AcDbLine
 10
1.665131
 20
4.584336
 30
0.0
 11
1.664456
 21
4.584351
 31
0.0
210
0.0
220
0.0
230
1.0
  0
LINE
  5
1B8
100
AcDbEntity
  8
0
370
    35
390
0
 62
     7
 48
0.000017
100
AcDbLine
 10
1.664456
 20
4.584351
 30
0.0
 11
1.663757
 21
4.584353
 31
0.0
210
0.0
220
0.0
230
1.0
  0
LINE
  5
1B9
100
AcDbEntity
  8
0
370
    35
390
0
 62
     7
 48
0.000018
100
AcDbLine
 10
1.663757
 20
4.584353
 30
0.0
 11
1.663036
 21
4.584341
 31
0.0
210
0.0
220
0.0
230
1.0
  0
LINE
  5
1BA
100
AcDbEntity
  8
0
370
    35
390
0
 62
     7
 48
0.000019
100
AcDbLine
 10
1.663036
 20
4.584341
 30
0.0
 11
1.662292
 21
4.584316
 31
0.0
210
0.0
220
0.0
230
1.0
  0
LINE
  5
1BB
100
AcDbEntity
  8
0
370
    35
390
0
 62
     7
 48
0.000019
100
AcDbLine
 10
1.662292
 20
4.584316
 30
0.0
 11
1.661526
 21
4.584277
 31
0.0
210
0.0
220
0.0
230
1.0
  0
LINE
  5
1BC
100
AcDbEntity
  8
0
370
    35
390
0
 62
     7
 48
0.00002
100
AcDbLine
 10
1.661526
 20
4.584277
 30
0.0
 11
1.660736
 21
4.584223
 31
0.0
210
0.0
220
0.0
230
1.0
  0
LINE
  5
1BD
100
AcDbEntity
  8
0
370
    35
390
0
 62
     7
 48
0.00002
100
AcDbLine
 10
1.660736
 20
4.584223
 30
0.0
 11
1.659924
 21
4.584156
 31
0.0
210
0.0
220
0.0
230
1.0
  0
LINE
  5
1BE
100
AcDbEntity
  8
0
370
    35
390
0
 62
     7
 48
0.000022
100
AcDbLine
 10
1.659924
 20
4.584156
 30
0.0
 11
1.660258
 21
4.584961
 31
0.0
210
0.0
220
0.0
230
1.0
  0
LINE
  5
1BF
100
AcDbEntity
  8
0
370
    35
390
0
 62
     7
 48
0.000024
100
AcDbLine
 10
1.660258
 20
4.584961
 30
0.0
 11
1.661002
 21
4.585538
 31
0.0
210
0.0
220
0.0
230
1.0
  0
LINE
  5
1C0
100
AcDbEntity
  8
0
370
    35
390
0
 62
     7
 48
0.000022
100
AcDbLine
 10
1.661002
 20
4.585538
 30
0.0
 11
1.661685
 21
4.586113
 31
0.0
210
0.0
220
0.0
230
1.0
  0
LINE
  5
1C1
100
AcDbEntity
  8
0
370
    35
390
0
 62
     7
 48
0.000021
100
AcDbLine
 10
1.661685
 20
4.586113
 30
0.0
 11
1.662308
 21
4.586683
 31
0.0
210
0.0
220
0.0
230
1.0
  0
LINE
  5
1C2
100
AcDbEntity
  8
0
370
    35
390
0
 62
     7
 48
0.00002
100
AcDbLine
 10
1.662308
 20
4.586683
 30
0.0
 11
1.662869
 21
4.58725
 31
0.0
210
0.0
220
0.0
230
1.0
  0
LINE
  5
1C3
100
AcDbEntity
  8
0
370
    35
390
0
 62
     7
 48
0.000019
100
AcDbLine
 10
1.662869
 20
4.58725
 30
0.0
 11
1.663369
 21
4.587813
 31
0.0
210
0.0
220
0.0
230
1.0
  0
LINE
  5
1C4
100
AcDbEntity
  8
0
370
    35
390
0
 62
     7
 48
0.000018
100
AcDbLine
 10
1.663369
 20
4.587813
 30
0.0
 11
1.663809
 21
4.588373
 31
0.0
210
0.0
220
0.0
230
1.0
  0
LINE
  5
1C5
100
AcDbEntity
  8
0
370
    35
390
0
 62
     7
 48
0.000017
100
AcDbLine
 10
1.663809
 20
4.588373
 30
0.0
 11
1.664188
 21
4.58893
 31
0.0
210
0.0
220
0.0
230
1.0
  0
LINE
  5
1C6
100
AcDbEntity
  8
0
370
    35
390
0
 62
     7
 48
0.000016
100
AcDbLine
 10
1.664188
 20
4.58893
 30
0.0
 11
1.664506
 21
4.589483
 31
0.0
210
0.0
220
0.0
230
1.0
  0
LINE
  5
1C7
100
AcDbEntity
  8
0
370
    35
390
0
 62
     7
 48
0.000015
100
AcDbLine
 10
1.664506
 20
4.589483
 30
0.0
 11
1.664764
 21
4.590033
 31
0.0
210
0.0
220
0.0
230
1.0
  0
LINE
  5
1C8
100
AcDbEntity
  8
0
370
    35
390
0
 62
     7
 48
0.000015
100
AcDbLine
 10
1.664764
 20
4.590033
 30
0.0
 11
1.66496
 21
4.590579
 31
0.0
210
0.0
220
0.0
230
1.0
  0
LINE
  5
1C9
100
AcDbEntity
  8
0
370
    35
390
0
 62
     7
 48
0.000014
100
AcDbLine
 10
1.66496
 20
4.590579
 30
0.0
 11
1.6651
 21
4.591138
 31
0.0
210
0.0
220
0.0
230
1.0
  0
LINE
  5
1CA
100
AcDbEntity
  8
0
370
    35
390
0
 62
     7
 48
0.000015
100
AcDbLine
 10
1.6651
 20
4.591138
 30
0.0
 11
1.665189
 21
4.591727
 31
0.0
210
0.0
220
0.0
230
1.0
  0
LINE
  5
1CB
100
AcDbEntity
  8
0
370
    35
390
0
 62
     7
 48
0.000015
100
AcDbLine
 10
1.665189
 20
4.591727
 30
0.0
 11
1.665227
 21
4.592344
 31
0.0
210
0.0
220
0.0
230
1.0
  0
LINE
  5
1CC
100
AcDbEntity
  8
0
370
    35
390
0
 62
     7
 48
0.000016
100
AcDbLine
 10
1.665227
 20
4.592344
 30
0.0
 11
1.665214
 21
4.592991
 31
0.0
210
0.0
220
0.0
230
1.0
  0
LINE
  5
1CD
100
AcDbEntity
  8
0
370
    35
390
0
 62
     7
 48
0.000017
100
AcDbLine
 10
1.665214
 20
4.592991
 30
0.0
 11
1.665149
 21
4.593666
 31
0.0
210
0.0
220
0.0
230
1.0
  0
LINE
  5
1CE
100
AcDbEntity
  8
0
370
    35
390
0
 62
     7
 48
0.000018
100
AcDbLine
 10
1.665149
 20
4.593666
 30
0.0
 11
1.665034
 21
4.594371
 31
0.0
210
0.0
220
0.0
230
1.0
  0
LINE
  5
1CF
100
AcDbEntity
  8
0
370
    35
390
0
 62
     7
 48
0.000019
100
AcDbLine
 10
1.665034
 20
4.594371
 30
0.0
 11
1.664867
 21
4.595104
 31
0.0
210
0.0
220
0.0
230
1.0
  0
LINE
  5
1D0
100
AcDbEntity
  8
0
370
    35
390
0
 62
     7
 48
0.00002
100
AcDbLine
 10
1.664867
 20
4.595104
 30
0.0
 11
1.664648
 21
4.595867
 31
0.0
210
0.0
220
0.0
230
1.0
  0
LINE
  5
1D1
100
AcDbEntity
  8
0
370
    35
390
0
 62
     7
 48
0.000021
100
AcDbLine
 10
1.664648
 20
4.595867
 30
0.0
 11
1.664379
 21
4.596659
 31
0.0
210
0.0
220
0.0
230
1.0
  0
LINE
  5
1D2
100
AcDbEntity
  8
0
370
    35
390
0
 62
     7
 48
0.000022
100
AcDbLine
 10
1.664379
 20
4.596659
 30
0.0
 11
1.664059
 21
4.59748
 31
0.0
210
0.0
220
0.0
230
1.0
  0
LINE
  5
1D3
100
AcDbEntity
  8
0
370
    35
390
0
 62
     7
 48
0.000018
100
AcDbLine
 10
1.664059
 20
4.59748
 30
0.0
 11
1.66377
 21
4.598161
 31
0.0
210
0.0
220
0.0
230
1.0
  0
LINE
  5
1D4
100
AcDbEntity
  8
0
370
    35
390
0
 62
     7
 48
0.000019
100
AcDbLine
 10
1.66377
 20
4.598161
 30
0.0
 11
1.663468
 21
4.598836
 31
0.0
210
0.0
220
0.0
230
1.0
  0
LINE
  5
1D5
100
AcDbEntity
  8
0
370
    35
390
0
 62
     7
 48
0.000019
100
AcDbLine
 10
1.663468
 20
4.598836
 30
0.0
 11
1.663155
 21
4.599508
 31
0.0
210
0.0
220
0.0
230
1.0
  0
LINE
  5
1D6
100
AcDbEntity
  8
0
370
    35
390
0
 62
     7
 48
0.000019
100
AcDbLine
 10
1.663155
 20
4.599508
 30
0.0
 11
1.662829
 21
4.600173
 31
0.0
210
0.0
220
0.0
230
1.0
  0
LINE
  5
1D7
100
AcDbEntity
  8
0
370
    35
390
0
 62
     7
 48
0.000019
100
AcDbLine
 10
1.662829
 20
4.600173
 30
0.0
 11
1.662491
 21
4.600834
 31
0.0
210
0.0
220
0.0
230
1.0
  0
LINE
  5
1D8
100
AcDbEntity
  8
0
370
    35
390
0
 62
     7
 48
0.001114
100
AcDbLine
 10
1.662491
 20
4.600834
 30
0.0
 11
1.621141
 21
4.58424
 31
0.0
210
0.0
220
0.0
230
1.0
  0
LINE
  5
1D9
100
AcDbEntity
  8
0
370
    35
390
0
 62
     7
 48
0.000165
100
AcDbLine
 10
1.621141
 20
4.58424
 30
0.0
 11
1.618858
 21
4.578045
 31
0.0
210
0.0
220
0.0
230
1.0
  0
LINE
  5
1DA
100
AcDbEntity
  8
0
370
    35
390
0
 62
     7
 48
0.00047
100
AcDbLine
 10
1.618858
 20
4.578045
 30
0.0
 11
1.61167
 21
4.595398
 31
0.0
210
0.0
220
0.0
230
1.0
  0
LINE
  5
1DB
100
AcDbEntity
  8
0
370
    35
390
0
 62
     7
 48
0.000187
100
AcDbLine
 10
1.61167
 20
4.595398
 30
0.0
 11
1.618315
 21
4.591923
 31
0.0
210
0.0
220
0.0
230
1.0
  0
LINE
  5
1DC
100
AcDbEntity
  8
0
370
    35
390
0
 62
     7
 48
0.001022
100
AcDbLine
 10
1.618315
 20
4.591923
 30
0.0
 11
1.656097
 21
4.607573
 31
0.0
210
0.0
220
0.0
230
1.0
  0
LINE
  5
1DD
100
AcDbEntity
  8
0
370
    35
390
0
 62
     7
 48
0.000073
100
AcDbLine
 10
1.656097
 20
4.607573
 30
0.0
 11
1.655018
 21
4.610284
 31
0.0
210
0.0
220
0.0
230
1.0
  0
LINE
  5
1DE
100
AcDbEntity
  8
0
370
    35
390
0
 62
     7
 48
0.000021
100
AcDbLine
 10
1.655018
 20
4.610284
 30
0.0
 11
1.654688
 21
4.611037
 31
0.0
210
0.0
220
0.0
230
1.0
  0
LINE
  5
1DF
100
AcDbEntity
  8
0
370
    35
390
0
 62
     7
 48
0.000019
100
AcDbLine
 10
1.654688
 20
4.611037
 30
0.0
 11
1.654346
 21
4.611733
 31
0.0
210
0.0
220
0.0
230
1.0
  0
LINE
  5
1E0
100
AcDbEntity
  8
0
370
    35
390
0
 62
     7
 48
0.000018
100
AcDbLine
 10
1.654346
 20
4.611733
 30
0.0
 11
1.653992
 21
4.61237
 31
0.0
210
0.0
220
0.0
230
1.0
  0
LINE
  5
1E1
100
AcDbEntity
  8
0
370
    35
390
0
 62
     7
 48
0.000017
100
AcDbLine
 10
1.653992
 20
4.61237
 30
0.0
 11
1.653626
 21
4.612949
 31
0.0
210
0.0
220
0.0
230
1.0
  0
LINE
  5
1E2
100
AcDbEntity
  8
0
370
    35
390
0
 62
     7
 48
0.000016
100
AcDbLine
 10
1.653626
 20
4.612949
 30
0.0
 11
1.653248
 21
4.613471
 31
0.0
210
0.0
220
0.0
230
1.0
  0
LINE
  5
1E3
100
AcDbEntity
  8
0
370
    35
390
0
 62
     7
 48
0.000015
100
AcDbLine
 10
1.653248
 20
4.613471
 30
0.0
 11
1.652857
 21
4.613935
 31
0.0
210
0.0
220
0.0
230
1.0
  0
LINE
  5
1E4
100
AcDbEntity
  8
0
370
    35
390
0
 62
     7
 48
0.000014
100
AcDbLine
 10
1.652857
 20
4.613935
 30
0.0
 11
1.652456
 21
4.61434
 31
0.0
210
0.0
220
0.0
230
1.0
  0
LINE
  5
1E5
100
AcDbEntity
  8
0
370
    35
390
0
 62
     7
 48
0.000026
100
AcDbLine
 10
1.652456
 20
4.61434
 30
0.0
 11
1.651615
 21
4.614978
 31
0.0
210
0.0
220
0.0
230
1.0
  0
LINE
  5
1E6
100
AcDbEntity
  8
0
370
    35
390
0
 62
     7
 48
0.000025
100
AcDbLine
 10
1.651615
 20
4.614978
 30
0.0
 11
1.650714
 21
4.61539
 31
0.0
210
0.0
220
0.0
230
1.0
  0
LINE
  5
1E7
100
AcDbEntity
  8
0
370
    35
390
0
 62
     7
 48
0.000026
100
AcDbLine
 10
1.650714
 20
4.61539
 30
0.0
 11
1.649683
 21
4.61561
 31
0.0
210
0.0
220
0.0
230
1.0
  0
LINE
  5
1E8
100
AcDbEntity
  8
0
370
    35
390
0
 62
     7
 48
0.000029
100
AcDbLine
 10
1.649683
 20
4.61561
 30
0.0
 11
1.64851
 21
4.615646
 31
0.0
210
0.0
220
0.0
230
1.0
  0
LINE
  5
1E9
100
AcDbEntity
  8
0
370
    35
390
0
 62
     7
 48
0.000016
100
AcDbLine
 10
1.64851
 20
4.615646
 30
0.0
 11
1.64787
 21
4.615594
 31
0.0
210
0.0
220
0.0
230
1.0
  0
LINE
  5
1EA
100
AcDbEntity
  8
0
370
    35
390
0
 62
     7
 48
0.000017
100
AcDbLine
 10
1.64787
 20
4.615594
 30
0.0
 11
1.647195
 21
4.615496
 31
0.0
210
0.0
220
0.0
230
1.0
  0
LINE
  5
1EB
100
AcDbEntity
  8
0
370
    35
390
0
 62
     7
 48
0.000018
100
AcDbLine
 10
1.647195
 20
4.615496
 30
0.0
 11
1.646484
 21
4.615352
 31
0.0
210
0.0
220
0.0
230
1.0
  0
LINE
  5
1EC
100
AcDbEntity
  8
0
370
    35
390
0
 62
     7
 48
0.000019
100
AcDbLine
 10
1.646484
 20
4.615352
 30
0.0
 11
1.645737
 21
4.615161
 31
0.0
210
0.0
220
0.0
230
1.0
  0
LINE
  5
1ED
100
AcDbEntity
  8
0
370
    35
390
0
 62
     7
 48
0.00002
100
AcDbLine
 10
1.645737
 20
4.615161
 30
0.0
 11
1.644955
 21
4.614924
 31
0.0
210
0.0
220
0.0
230
1.0
  0
LINE
  5
1EE
100
AcDbEntity
  8
0
370
    35
390
0
 62
     7
 48
0.000027
100
AcDbLine
 10
1.644955
 20
4.614924
 30
0.0
 11
1.644546
 21
4.615912
 31
0.0
210
0.0
220
0.0
230
1.0
  0
LINE
  5
1EF
100
AcDbEntity
  8
0
370
    35
390
0
 62
     7
 48
0.000023
100
AcDbLine
 10
1.644546
 20
4.615912
 30
0.0
 11
1.645448
 21
4.61617
 31
0.0
210
0.0
220
0.0
230
1.0
  0
LINE
  5
1F0
100
AcDbEntity
  8
0
370
    35
390
0
 62
     7
 48
0.000022
100
AcDbLine
 10
1.645448
 20
4.61617
 30
0.0
 11
1.646309
 21
4.616378
 31
0.0
210
0.0
220
0.0
230
1.0
  0
LINE
  5
1F1
100
AcDbEntity
  8
0
370
    35
390
0
 62
     7
 48
0.000021
100
AcDbLine
 10
1.646309
 20
4.616378
 30
0.0
 11
1.647127
 21
4.616533
 31
0.0
210
0.0
220
0.0
230
1.0
  0
LINE
  5
1F2
100
AcDbEntity
  8
0
370
    35
390
0
 62
     7
 48
0.00002
100
AcDbLine
 10
1.647127
 20
4.616533
 30
0.0
 11
1.647904
 21
4.616637
 31
0.0
210
0.0
220
0.0
230
1.0
  0
LINE
  5
1F3
100
AcDbEntity
  8
0
370
    35
390
0
 62
     7
 48
0.000018
100
AcDbLine
 10
1.647904
 20
4.616637
 30
0.0
 11
1.648639
 21
4.61669
 31
0.0
210
0.0
220
0.0
230
1.0
  0
LINE
  5
1F4
100
AcDbEntity
  8
0
370
    35
390
0
 62
     7
 48
0.000017
100
AcDbLine
 10
1.648639
 20
4.61669
 30
0.0
 11
1.649333
 21
4.616691
 31
0.0
210
0.0
220
0.0
230
1.0
  0
LINE
  5
1F5
100
AcDbEntity
  8
0
370
    35
390
0
 62
     7
 48
0.000016
100
AcDbLine
 10
1.649333
 20
4.616691
 30
0.0
 11
1.649984
 21
4.616639
 31
0.0
210
0.0
220
0.0
230
1.0
  0
LINE
  5
1F6
100
AcDbEntity
  8
0
370
    35
390
0
 62
     7
 48
0.000015
100
AcDbLine
 10
1.649984
 20
4.616639
 30
0.0
 11
1.650594
 21
4.616537
 31
0.0
210
0.0
220
0.0
230
1.0
  0
LINE
  5
1F7
100
AcDbEntity
  8
0
370
    35
390
0
 62
     7
 48
0.000015
100
AcDbLine
 10
1.650594
 20
4.616537
 30
0.0
 11
1.651161
 21
4.616384
 31
0.0
210
0.0
220
0.0
230
1.0
  0
LINE
  5
1F8
100
AcDbEntity
  8
0
370
    35
390
0
 62
     7
 48
0.000028
100
AcDbLine
 10
1.651161
 20
4.616384
 30
0.0
 11
1.652185
 21
4.615915
 31
0.0
210
0.0
220
0.0
230
1.0
  0
LINE
  5
1F9
100
AcDbEntity
  8
0
370
    35
390
0
 62
     7
 48
0.000015
100
AcDbLine
 10
1.652185
 20
4.615915
 30
0.0
 11
1.652668
 21
4.615589
 31
0.0
210
0.0
220
0.0
230
1.0
  0
LINE
  5
1FA
100
AcDbEntity
  8
0
370
    35
390
0
 62
     7
 48
0.000015
100
AcDbLine
 10
1.652668
 20
4.615589
 30
0.0
 11
1.653136
 21
4.615199
 31
0.0
210
0.0
220
0.0
230
1.0
  0
LINE
  5
1FB
100
AcDbEntity
  8
0
370
    35
390
0
 62
     7
 48
0.000016
100
AcDbLine
 10
1.653136
 20
4.615199
 30
0.0
 11
1.65359
 21
4.614746
 31
0.0
210
0.0
220
0.0
230
1.0
  0
LINE
  5
1FC
100
AcDbEntity
  8
0
370
    35
390
0
 62
     7
 48
0.000017
100
AcDbLine
 10
1.65359
 20
4.614746
 30
0.0
 11
1.654029
 21
4.614229
 31
0.0
210
0.0
220
0.0
230
1.0
  0
LINE
  5
1FD
100
AcDbEntity
  8
0
370
    35
390
0
 62
     7
 48
0.000018
100
AcDbLine
 10
1.654029
 20
4.614229
 30
0.0
 11
1.654454
 21
4.613649
 31
0.0
210
0.0
220
0.0
230
1.0
  0
LINE
  5
1FE
100
AcDbEntity
  8
0
370
    35
390
0
 62
     7
 48
0.000019
100
AcDbLine
 10
1.654454
 20
4.613649
 30
0.0
 11
1.654864
 21
4.613005
 31
0.0
210
0.0
220
0.0
230
1.0
  0
LINE
  5
1FF
100
AcDbEntity
  8
0
370
    35
390
0
 62
     7
 48
0.00002
100
AcDbLine
 10
1.654864
 20
4.613005
 30
0.0
 11
1.655259
 21
4.612298
 31
0.0
210
0.0
220
0.0
230
1.0
  0
LINE
  5
200
100
AcDbEntity
  8
0
370
    35
390
0
 62
     7
 48
0.000021
100
AcDbLine
 10
1.655259
 20
4.612298
 30
0.0
 11
1.65564
 21
4.611527
 31
0.0
210
0.0
220
0.0
230
1.0
  0
LINE
  5
201
100
AcDbEntity
  8
0
370
    35
390
0
 62
     7
 48
0.000023
100
AcDbLine
 10
1.65564
 20
4.611527
 30
0.0
 11
1.656005
 21
4.610693
 31
0.0
210
0.0
220
0.0
230
1.0
  0
LINE
  5
202
100
AcDbEntity
  8
0
370
    35
390
0
 62
     7
 48
0.000062
100
AcDbLine
 10
1.656005
 20
4.610693
 30
0.0
 11
1.656911
 21
4.608399
 31
0.0
210
0.0
220
0.0
230
1.0
  0
LINE
  5
203
100
AcDbEntity
  8
0
370
    35
390
0
 62
     7
 48
0.000052
100
AcDbLine
 10
1.656911
 20
4.608399
 30
0.0
 11
1.658945
 21
4.608752
 31
0.0
210
0.0
220
0.0
230
1.0
  0
LINE
  5
204
100
AcDbEntity
  8
0
370
    35
390
0
 62
     7
 48
0.000021
100
AcDbLine
 10
1.658945
 20
4.608752
 30
0.0
 11
1.658709
 21
4.609553
 31
0.0
210
0.0
220
0.0
230
1.0
  0
LINE
  5
205
100
AcDbEntity
  8
0
370
    35
390
0
 62
     7
 48
0.00002
100
AcDbLine
 10
1.658709
 20
4.609553
 30
0.0
 11
1.658461
 21
4.610331
 31
0.0
210
0.0
220
0.0
230
1.0
  0
LINE
  5
206
100
AcDbEntity
  8
0
370
    35
390
0
 62
     7
 48
0.00002
100
AcDbLine
 10
1.658461
 20
4.610331
 30
0.0
 11
1.658202
 21
4.611087
 31
0.0
210
0.0
220
0.0
230
1.0
  0
LINE
  5
207
100
AcDbEntity
  8
0
370
    35
390
0
 62
     7
 48
0.00002
100
AcDbLine
 10
1.658202
 20
4.611087
 30
0.0
 11
1.657931
 21
4.61182
 31
0.0
210
0.0
220
0.0
230
1.0
  0
LINE
  5
208
100
AcDbEntity
  8
0
370
    35
390
0
 62
     7
 48
0.000019
100
AcDbLine
 10
1.657931
 20
4.61182
 30
0.0
 11
1.657647
 21
4.61253
 31
0.0
210
0.0
220
0.0
230
1.0
  0
LINE
  5
209
100
AcDbEntity
  8
0
370
    35
390
0
 62
     7
 48
0.000026
100
AcDbLine
 10
1.657647
 20
4.61253
 30
0.0
 11
1.657233
 21
4.613474
 31
0.0
210
0.0
220
0.0
230
1.0
  0
LINE
  5
20A
100
AcDbEntity
  8
0
370
    35
390
0
 62
     7
 48
0.000024
100
AcDbLine
 10
1.657233
 20
4.613474
 30
0.0
 11
1.656801
 21
4.614347
 31
0.0
210
0.0
220
0.0
230
1.0
  0
LINE
  5
20B
100
AcDbEntity
  8
0
370
    35
390
0
 62
     7
 48
0.000023
100
AcDbLine
 10
1.656801
 20
4.614347
 30
0.0
 11
1.656352
 21
4.615148
 31
0.0
210
0.0
220
0.0
230
1.0
  0
LINE
  5
20C
100
AcDbEntity
  8
0
370
    35
390
0
 62
     7
 48
0.000022
100
AcDbLine
 10
1.656352
 20
4.615148
 30
0.0
 11
1.655886
 21
4.615879
 31
0.0
210
0.0
220
0.0
230
1.0
  0
LINE
  5
20D
100
AcDbEntity
  8
0
370
    35
390
0
 62
     7
 48
0.00002
100
AcDbLine
 10
1.655886
 20
4.615879
 30
0.0
 11
1.655403
 21
4.616538
 31
0.0
210
0.0
220
0.0
230
1.0
  0
LINE
  5
20E
100
AcDbEntity
  8
0
370
    35
390
0
 62
     7
 48
0.000019
100
AcDbLine
 10
1.655403
 20
4.616538
 30
0.0
 11
1.654902
 21
4.617126
 31
0.0
210
0.0
220
0.0
230
1.0
  0
LINE
  5
20F
100
AcDbEntity
  8
0
370
    35
390
0
 62
     7
 48
0.000018
100
AcDbLine
 10
1.654902
 20
4.617126
 30
0.0
 11
1.654385
 21
4.617643
 31
0.0
210
0.0
220
0.0
230
1.0
  0
LINE
  5
210
100
AcDbEntity
  8
0
370
    35
390
0
 62
     7
 48
0.000017
100
AcDbLine
 10
1.654385
 20
4.617643
 30
0.0
 11
1.653849
 21
4.618089
 31
0.0
210
0.0
220
0.0
230
1.0
  0
LINE
  5
211
100
AcDbEntity
  8
0
370
    35
390
0
 62
     7
 48
0.000017
100
AcDbLine
 10
1.653849
 20
4.618089
 30
0.0
 11
1.653297
 21
4.618464
 31
0.0
210
0.0
220
0.0
230
1.0
  0
LINE
  5
212
100
AcDbEntity
  8
0
370
    35
390
0
 62
     7
 48
0.000016
100
AcDbLine
 10
1.653297
 20
4.618464
 30
0.0
 11
1.652728
 21
4.618767
 31
0.0
210
0.0
220
0.0
230
1.0
  0
LINE
  5
213
100
AcDbEntity
  8
0
370
    35
390
0
 62
     7
 48
0.000016
100
AcDbLine
 10
1.652728
 20
4.618767
 30
0.0
 11
1.65213
 21
4.619004
 31
0.0
210
0.0
220
0.0
230
1.0
  0
LINE
  5
214
100
AcDbEntity
  8
0
370
    35
390
0
 62
     7
 48
0.000017
100
AcDbLine
 10
1.65213
 20
4.619004
 30
0.0
 11
1.651494
 21
4.619179
 31
0.0
210
0.0
220
0.0
230
1.0
  0
LINE
  5
215
100
AcDbEntity
  8
0
370
    35
390
0
 62
     7
 48
0.000017
100
AcDbLine
 10
1.651494
 20
4.619179
 30
0.0
 11
1.650819
 21
4.619293
 31
0.0
210
0.0
220
0.0
230
1.0
  0
LINE
  5
216
100
AcDbEntity
  8
0
370
    35
390
0
 62
     7
 48
0.000018
100
AcDbLine
 10
1.650819
 20
4.619293
 30
0.0
 11
1.650104
 21
4.619345
 31
0.0
210
0.0
220
0.0
230
1.0
  0
LINE
  5
217
100
AcDbEntity
  8
0
370
    35
390
0
 62
     7
 48
0.000019
100
AcDbLine
 10
1.650104
 20
4.619345
 30
0.0
 11
1.64935
 21
4.619336
 31
0.0
210
0.0
220
0.0
230
1.0
  0
LINE
  5
218
100
AcDbEntity
  8
0
370
    35
390
0
 62
     7
 48
0.00002
100
AcDbLine
 10
1.64935
 20
4.619336
 30
0.0
 11
1.648558
 21
4.619266
 31
0.0
210
0.0
220
0.0
230
1.0
  0
LINE
  5
219
100
AcDbEntity
  8
0
370
    35
390
0
 62
     7
 48
0.000021
100
AcDbLine
 10
1.648558
 20
4.619266
 30
0.0
 11
1.647726
 21
4.619133
 31
0.0
210
0.0
220
0.0
230
1.0
  0
LINE
  5
21A
100
AcDbEntity
  8
0
370
    35
390
0
 62
     7
 48
0.000022
100
AcDbLine
 10
1.647726
 20
4.619133
 30
0.0
 11
1.646856
 21
4.618939
 31
0.0
210
0.0
220
0.0
230
1.0
  0
LINE
  5
21B
100
AcDbEntity
  8
0
370
    35
390
0
 62
     7
 48
0.000024
100
AcDbLine
 10
1.646856
 20
4.618939
 30
0.0
 11
1.645946
 21
4.618684
 31
0.0
210
0.0
220
0.0
230
1.0
  0
LINE
  5
21C
100
AcDbEntity
  8
0
370
    35
390
0
 62
     7
 48
0.000025
100
AcDbLine
 10
1.645946
 20
4.618684
 30
0.0
 11
1.644997
 21
4.618367
 31
0.0
210
0.0
220
0.0
230
1.0
  0
LINE
  5
21D
100
AcDbEntity
  8
0
370
    35
390
0
 62
     7
 48
0.000036
100
AcDbLine
 10
1.644997
 20
4.618367
 30
0.0
 11
1.645733
 21
4.61961
 31
0.0
210
0.0
220
0.0
230
1.0
  0
LINE
  5
21E
100
AcDbEntity
  8
0
370
    35
390
0
 62
     7
 48
0.000031
100
AcDbLine
 10
1.645733
 20
4.61961
 30
0.0
 11
1.646668
 21
4.620442
 31
0.0
210
0.0
220
0.0
230
1.0
  0
LINE
  5
21F
100
AcDbEntity
  8
0
370
    35
390
0
 62
     7
 48
0.000032
100
AcDbLine
 10
1.646668
 20
4.620442
 30
0.0
 11
1.647612
 21
4.62132
 31
0.0
210
0.0
220
0.0
230
1.0
  0
LINE
  5
220
100
AcDbEntity
  8
0
370
    35
390
0
 62
     7
 48
0.000033
100
AcDbLine
 10
1.647612
 20
4.62132
 30
0.0
 11
1.648566
 21
4.622244
 31
0.0
210
0.0
220
0.0
230
1.0
  0
LINE
  5
221
100
AcDbEntity
  8
0
370
    35
390
0
 62
     7
 48
0.000034
100
AcDbLine
 10
1.648566
 20
4.622244
 30
0.0
 11
1.649529
 21
4.623214
 31
0.0
210
0.0
220
0.0
230
1.0
  0
LINE
  5
222
100
AcDbEntity
  8
0
370
    35
390
0
 62
     7
 48
0.000035
100
AcDbLine
 10
1.649529
 20
4.623214
 30
0.0
 11
1.650502
 21
4.624229
 31
0.0
210
0.0
220
0.0
230
1.0
  0
LINE
  5
223
100
AcDbEntity
  8
0
370
    35
390
0
 62
     7
 48
0.000036
100
AcDbLine
 10
1.650502
 20
4.624229
 30
0.0
 11
1.651484
 21
4.625291
 31
0.0
210
0.0
220
0.0
230
1.0
  0
LINE
  5
224
100
AcDbEntity
  8
0
370
    35
390
0
 62
     7
 48
0.000037
100
AcDbLine
 10
1.651484
 20
4.625291
 30
0.0
 11
1.652476
 21
4.626398
 31
0.0
210
0.0
220
0.0
230
1.0
  0
LINE
  5
225
100
AcDbEntity
  8
0
370
    35
390
0
 62
     7
 48
0.000038
100
AcDbLine
 10
1.652476
 20
4.626398
 30
0.0
 11
1.653477
 21
4.627551
 31
0.0
210
0.0
220
0.0
230
1.0
  0
LINE
  5
226
100
AcDbEntity
  8
0
370
    35
390
0
 62
     7
 48
0.000039
100
AcDbLine
 10
1.653477
 20
4.627551
 30
0.0
 11
1.654487
 21
4.628749
 31
0.0
210
0.0
220
0.0
230
1.0
  0
LINE
  5
227
100
AcDbEntity
  8
0
370
    35
390
0
 62
     7
 48
0.001231
100
AcDbLine
 10
1.654487
 20
4.628749
 30
0.0
 11
1.673711
 21
4.583416
 31
0.0
210
0.0
220
0.0
230
1.0
  0
LINE
  5
228
100
AcDbEntity
  8
0
370
    35
390
0
 62
     7
 48
0.000017
100
AcDbLine
 10
1.673711
 20
4.583416
 30
0.0
 11
1.673051
 21
4.583476
 31
0.0
210
0.0
220
0.0
230
1.0
  0
LINE
  5
229
100
AcDbEntity
  8
0
370
    35
390
0
 62
     7
 48
0.000026
100
AcDbLine
 10
1.671378
 20
4.580264
 30
0.0
 11
1.670357
 21
4.580465
 31
0.0
210
0.0
220
0.0
230
1.0
  0
LINE
  5
22A
100
AcDbEntity
  8
0
370
    35
390
0
 62
     7
 48
0.000028
100
AcDbLine
 10
1.670357
 20
4.580465
 30
0.0
 11
1.669247
 21
4.580634
 31
0.0
210
0.0
220
0.0
230
1.0
  0
LINE
  5
22B
100
AcDbEntity
  8
0
370
    35
390
0
 62
     7
 48
0.00003
100
AcDbLine
 10
1.669247
 20
4.580634
 30
0.0
 11
1.668045
 21
4.580772
 31
0.0
210
0.0
220
0.0
230
1.0
  0
LINE
  5
22C
100
AcDbEntity
  8
0
370
    35
390
0
 62
     7
 48
0.000032
100
AcDbLine
 10
1.668045
 20
4.580772
 30
0.0
 11
1.666753
 21
4.580879
 31
0.0
210
0.0
220
0.0
230
1.0
  0
LINE
  5
22D
100
AcDbEntity
  8
0
370
    35
390
0
 62
     7
 48
0.000035
100
AcDbLine
 10
1.666753
 20
4.580879
 30
0.0
 11
1.665371
 21
4.580955
 31
0.0
210
0.0
220
0.0
230
1.0
  0
LINE
  5
22E
100
AcDbEntity
  8
0
370
    35
390
0
 62
     7
 48
0.000037
100
AcDbLine
 10
1.665371
 20
4.580955
 30
0.0
 11
1.663899
 21
4.581
 31
0.0
210
0.0
220
0.0
230
1.0
  0
LINE
  5
22F
100
AcDbEntity
  8
0
370
    35
390
0
 62
     7
 48
0.000039
100
AcDbLine
 10
1.663899
 20
4.581
 30
0.0
 11
1.662336
 21
4.581012
 31
0.0
210
0.0
220
0.0
230
1.0
  0
LINE
  5
230
100
AcDbEntity
  8
0
370
    35
390
0
 62
     7
 48
0.000041
100
AcDbLine
 10
1.662336
 20
4.581012
 30
0.0
 11
1.660684
 21
4.580995
 31
0.0
210
0.0
220
0.0
230
1.0
  0
LINE
  5
231
100
AcDbEntity
  8
0
370
    35
390
0
 62
     7
 48
0.000044
100
AcDbLine
 10
1.660684
 20
4.580995
 30
0.0
 11
1.658941
 21
4.580946
 31
0.0
210
0.0
220
0.0
230
1.0
  0
LINE
  5
232
100
AcDbEntity
  8
0
370
    35
390
0
 62
     7
 48
0.000028
100
AcDbLine
 10
1.658941
 20
4.580946
 30
0.0
 11
1.658873
 21
4.582075
 31
0.0
210
0.0
220
0.0
230
1.0
  0
LINE
  5
233
100
AcDbEntity
  8
0
370
    35
390
0
 62
     7
 48
0.000054
100
AcDbLine
 10
1.658873
 20
4.582075
 30
0.0
 11
1.661018
 21
4.582174
 31
0.0
210
0.0
220
0.0
230
1.0
  0
LINE
  5
234
100
AcDbEntity
  8
0
370
    35
390
0
 62
     7
 48
0.000041
100
AcDbLine
 10
1.661018
 20
4.582174
 30
0.0
 11
1.662677
 21
4.582209
 31
0.0
210
0.0
220
0.0
230
1.0
  0
LINE
  5
235
100
AcDbEntity
  8
0
370
    35
390
0
 62
     7
 48
0.000039
100
AcDbLine
 10
1.662677
 20
4.582209
 30
0.0
 11
1.664239
 21
4.582208
 31
0.0
210
0.0
220
0.0
230
1.0
  0
LINE
  5
236
100
AcDbEntity
  8
0
370
    35
390
0
 62
     7
 48
0.000037
100
AcDbLine
 10
1.664239
 20
4.582208
 30
0.0
 11
1.665704
 21
4.582172
 31
0.0
210
0.0
220
0.0
230
1.0
  0
LINE
  5
237
100
AcDbEntity
  8
0
370
    35
390
0
 62
     7
 48
0.000034
100
AcDbLine
 10
1.665704
 20
4.582172
 30
0.0
 11
1.667071
 21
4.5821
 31
0.0
210
0.0
220
0.0
230
1.0
  0
LINE
  5
238
100
AcDbEntity
  8
0
370
    35
390
0
 62
     7
 48
0.000032
100
AcDbLine
 10
1.667071
 20
4.5821
 30
0.0
 11
1.66834
 21
4.581992
 31
0.0
210
0.0
220
0.0
230
1.0
  0
LINE
  5
239
100
AcDbEntity
  8
0
370
    35
390
0
 62
     7
 48
0.00003
100
AcDbLine
 10
1.66834
 20
4.581992
 30
0.0
 11
1.669513
 21
4.581848
 31
0.0
210
0.0
220
0.0
230
1.0
  0
LINE
  5
23A
100
AcDbEntity
  8
0
370
    35
390
0
 62
     7
 48
0.000027
100
AcDbLine
 10
1.669513
 20
4.581848
 30
0.0
 11
1.670588
 21
4.581669
 31
0.0
210
0.0
220
0.0
230
1.0
  0
LINE
  5
23B
100
AcDbEntity
  8
0
370
    35
390
0
 62
     7
 48
0.000025
100
AcDbLine
 10
1.670588
 20
4.581669
 30
0.0
 11
1.671567
 21
4.581454
 31
0.0
210
0.0
220
0.0
230
1.0
  0
LINE
  5
23C
100
AcDbEntity
  8
0
370
    35
390
0
 62
     7
 48
0.000023
100
AcDbLine
 10
1.671567
 20
4.581454
 30
0.0
 11
1.672447
 21
4.581202
 31
0.0
210
0.0
220
0.0
230
1.0
  0
LINE
  5
23D
100
AcDbEntity
  8
0
370
    35
390
0
 62
     7
 48
0.000029
100
AcDbLine
 10
1.672447
 20
4.581202
 30
0.0
 11
1.672309
 21
4.580033
 31
0.0
210
0.0
220
0.0
230
1.0
  0
LINE
  5
23E
100
AcDbEntity
  8
0
370
    35
390
0
 62
     7
 48
0.000024
100
AcDbLine
 10
1.672309
 20
4.580033
 30
0.0
 11
1.671378
 21
4.580264
 31
0.0
210
0.0
220
0.0
230
1.0
  0
LINE
  5
23F
100
AcDbEntity
  8
0
370
    35
390
0
 62
     7
 48
0.000019
100
AcDbLine
 10
1.6623
 20
4.588461
 30
0.0
 11
1.662368
 21
4.58921
 31
0.0
210
0.0
220
0.0
230
1.0
  0
LINE
  5
240
100
AcDbEntity
  8
0
370
    35
390
0
 62
     7
 48
0.000019
100
AcDbLine
 10
1.662368
 20
4.58921
 30
0.0
 11
1.662391
 21
4.589962
 31
0.0
210
0.0
220
0.0
230
1.0
  0
LINE
  5
241
100
AcDbEntity
  8
0
370
    35
390
0
 62
     7
 48
0.000019
100
AcDbLine
 10
1.662391
 20
4.589962
 30
0.0
 11
1.662367
 21
4.590718
 31
0.0
210
0.0
220
0.0
230
1.0
  0
LINE
  5
242
100
AcDbEntity
  8
0
370
    35
390
0
 62
     7
 48
0.000019
100
AcDbLine
 10
1.662367
 20
4.590718
 30
0.0
 11
1.662296
 21
4.591478
 31
0.0
210
0.0
220
0.0
230
1.0
  0
LINE
  5
243
100
AcDbEntity
  8
0
370
    35
390
0
 62
     7
 48
0.000019
100
AcDbLine
 10
1.662296
 20
4.591478
 30
0.0
 11
1.66218
 21
4.592242
 31
0.0
210
0.0
220
0.0
230
1.0
  0
LINE
  5
244
100
AcDbEntity
  8
0
370
    35
390
0
 62
     7
 48
0.00002
100
AcDbLine
 10
1.66218
 20
4.592242
 30
0.0
 11
1.662017
 21
4.59301
 31
0.0
210
0.0
220
0.0
230
1.0
  0
LINE
  5
245
100
AcDbEntity
  8
0
370
    35
390
0
 62
     7
 48
0.00002
100
AcDbLine
 10
1.662017
 20
4.59301
 30
0.0
 11
1.661809
 21
4.593782
 31
0.0
210
0.0
220
0.0
230
1.0
  0
LINE
  5
246
100
AcDbEntity
  8
0
370
    35
390
0
 62
     7
 48
0.00002
100
AcDbLine
 10
1.661809
 20
4.593782
 30
0.0
 11
1.661554
 21
4.594559
 31
0.0
210
0.0
220
0.0
230
1.0
  0
LINE
  5
247
100
AcDbEntity
  8
0
370
    35
390
0
 62
     7
 48
0.000021
100
AcDbLine
 10
1.661554
 20
4.594559
 30
0.0
 11
1.661253
 21
4.595339
 31
0.0
210
0.0
220
0.0
230
1.0
  0
LINE
  5
248
100
AcDbEntity
  8
0
370
    35
390
0
 62
     7
 48
0.000014
100
AcDbLine
 10
1.661253
 20
4.595339
 30
0.0
 11
1.661023
 21
4.595865
 31
0.0
210
0.0
220
0.0
230
1.0
  0
LINE
  5
249
100
AcDbEntity
  8
0
370
    35
390
0
 62
     7
 48
0.000015
100
AcDbLine
 10
1.661023
 20
4.595865
 30
0.0
 11
1.660767
 21
4.596397
 31
0.0
210
0.0
220
0.0
230
1.0
  0
LINE
  5
24A
100
AcDbEntity
  8
0
370
    35
390
0
 62
     7
 48
0.000015
100
AcDbLine
 10
1.660767
 20
4.596397
 30
0.0
 11
1.660485
 21
4.596934
 31
0.0
210
0.0
220
0.0
230
1.0
  0
LINE
  5
24B
100
AcDbEntity
  8
0
370
    35
390
0
 62
     7
 48
0.001033
100
AcDbLine
 10
1.660485
 20
4.596934
 30
0.0
 11
1.622285
 21
4.581155
 31
0.0
210
0.0
220
0.0
230
1.0
  0
LINE
  5
24C
100
AcDbEntity
  8
0
370
    35
390
0
 62
     7
 48
0.000253
100
AcDbLine
 10
1.622285
 20
4.581155
 30
0.0
 11
1.617647
 21
4.572161
 31
0.0
210
0.0
220
0.0
230
1.0
  0
LINE
  5
24D
100
AcDbEntity
  8
0
370
    35
390
0
 62
     7
 48
0.000525
100
AcDbLine
 10
1.617647
 20
4.572161
 30
0.0
 11
1.60961
 21
4.591564
 31
0.0
210
0.0
220
0.0
230
1.0
  0
LINE
  5
24E
100
AcDbEntity
  8
0
370
    35
390
0
 62
     7
 48
0.000036
100
AcDbLine
 10
1.60961
 20
4.591564
 30
0.0
 11
1.610273
 21
4.592863
 31
0.0
210
0.0
220
0.0
230
1.0
  0
LINE
  5
24F
100
AcDbEntity
  8
0
370
    35
390
0
 62
     7
 48
0.000492
100
AcDbLine
 10
1.610273
 20
4.592863
 30
0.0
 11
1.617807
 21
4.574674
 31
0.0
210
0.0
220
0.0
230
1.0
  0
LINE
  5
250
100
AcDbEntity
  8
0
370
    35
390
0
 62
     7
 48
0.000209
100
AcDbLine
 10
1.617807
 20
4.574674
 30
0.0
 11
1.62151
 21
4.582169
 31
0.0
210
0.0
220
0.0
230
1.0
  0
LINE
  5
251
100
AcDbEntity
  8
0
370
    35
390
0
 62
     7
 48
0.001071
100
AcDbLine
 10
1.62151
 20
4.582169
 30
0.0
 11
1.661077
 21
4.598558
 31
0.0
210
0.0
220
0.0
230
1.0
  0
LINE
  5
252
100
AcDbEntity
  8
0
370
    35
390
0
 62
     7
 48
0.000055
100
AcDbLine
 10
1.661077
 20
4.598558
 30
0.0
 11
1.661964
 21
4.596523
 31
0.0
210
0.0
220
0.0
230
1.0
  0
LINE
  5
253
100
AcDbEntity
  8
0
370
    35
390
0
 62
     7
 48
0.000019
100
AcDbLine
 10
1.661964
 20
4.596523
 30
0.0
 11
1.662254
 21
4.595805
 31
0.0
210
0.0
220
0.0
230
1.0
  0
LINE
  5
254
100
AcDbEntity
  8
0
370
    35
390
0
 62
     7
 48
0.000018
100
AcDbLine
 10
1.662254
 20
4.595805
 30
0.0
 11
1.662515
 21
4.595126
 31
0.0
210
0.0
220
0.0
230
1.0
  0
LINE
  5
255
100
AcDbEntity
  8
0
370
    35
390
0
 62
     7
 48
0.000017
100
AcDbLine
 10
1.662515
 20
4.595126
 30
0.0
 11
1.662746
 21
4.594484
 31
0.0
210
0.0
220
0.0
230
1.0
  0
LINE
  5
256
100
AcDbEntity
  8
0
370
    35
390
0
 62
     7
 48
0.000016
100
AcDbLine
 10
1.662746
 20
4.594484
 30
0.0
 11
1.662948
 21
4.593881
 31
0.0
210
0.0
220
0.0
230
1.0
  0
LINE
  5
257
100
AcDbEntity
  8
0
370
    35
390
0
 62
     7
 48
0.000015
100
AcDbLine
 10
1.662948
 20
4.593881
 30
0.0
 11
1.66312
 21
4.593315
 31
0.0
210
0.0
220
0.0
230
1.0
  0
LINE
  5
258
100
AcDbEntity
  8
0
370
    35
390
0
 62
     7
 48
0.000026
100
AcDbLine
 10
1.66312
 20
4.593315
 30
0.0
 11
1.663376
 21
4.592298
 31
0.0
210
0.0
220
0.0
230
1.0
  0
LINE
  5
259
100
AcDbEntity
  8
0
370
    35
390
0
 62
     7
 48
0.000022
100
AcDbLine
 10
1.663376
 20
4.592298
 30
0.0
 11
1.663514
 21
4.591433
 31
0.0
210
0.0
220
0.0
230
1.0
  0
LINE
  5
25A
100
AcDbEntity
  8
0
370
    35
390
0
 62
     7
 48
0.000018
100
AcDbLine
 10
1.663514
 20
4.591433
 30
0.0
 11
1.663533
 21
4.590704
 31
0.0
210
0.0
220
0.0
230
1.0
  0
LINE
  5
25B
100
AcDbEntity
  8
0
370
    35
390
0
 62
     7
 48
0.000018
100
AcDbLine
 10
1.663533
 20
4.590704
 30
0.0
 11
1.663437
 21
4.590009
 31
0.0
210
0.0
220
0.0
230
1.0
  0
LINE
  5
25C
100
AcDbEntity
  8
0
370
    35
390
0
 62
     7
 48
0.000018
100
AcDbLine
 10
1.663437
 20
4.590009
 30
0.0
 11
1.663224
 21
4.589332
 31
0.0
210
0.0
220
0.0
230
1.0
  0
LINE
  5
25D
100
AcDbEntity
  8
0
370
    35
390
0
 62
     7
 48
0.000018
100
AcDbLine
 10
1.663224
 20
4.589332
 30
0.0
 11
1.662896
 21
4.588673
 31
0.0
210
0.0
220
0.0
230
1.0
  0
LINE
  5
25E
100
AcDbEntity
  8
0
370
    35
390
0
 62
     7
 48
0.00002
100
AcDbLine
 10
1.662896
 20
4.588673
 30
0.0
 11
1.662451
 21
4.588032
 31
0.0
210
0.0
220
0.0
230
1.0
  0
LINE
  5
25F
100
AcDbEntity
  8
0
370
    35
390
0
 62
     7
 48
0.00001
100
AcDbLine
 10
1.662451
 20
4.588032
 30
0.0
 11
1.662186
 21
4.587717
 31
0.0
210
0.0
220
0.0
230
1.0
  0
LINE
  5
260
100
AcDbEntity
  8
0
370
    35
390
0
 62
     7
 48
0.000019
100
AcDbLine
 10
1.662186
 20
4.587717
 30
0.0
 11
1.6623
 21
4.588461
 31
0.0
210
0.0
220
0.0
230
1.0
  0
LINE
  5
261
100
AcDbEntity
  8
0
370
    35
390
0
 62
     7
 48
0.000021
100
AcDbLine
 10
1.691484
 20
4.540507
 30
0.0
 11
1.690684
 21
4.540712
 31
0.0
210
0.0
220
0.0
230
1.0
  0
LINE
  5
262
100
AcDbEntity
  8
0
370
    35
390
0
 62
     7
 48
0.00002
100
AcDbLine
 10
1.690684
 20
4.540712
 30
0.0
 11
1.689923
 21
4.540901
 31
0.0
210
0.0
220
0.0
230
1.0
  0
LINE
  5
263
100
AcDbEntity
  8
0
370
    35
390
0
 62
     7
 48
0.000019
100
AcDbLine
 10
1.689923
 20
4.540901
 30
0.0
 11
1.6892
 21
4.541074
 31
0.0
210
0.0
220
0.0
230
1.0
  0
LINE
  5
264
100
AcDbEntity
  8
0
370
    35
390
0
 62
     7
 48
0.000018
100
AcDbLine
 10
1.6892
 20
4.541074
 30
0.0
 11
1.688514
 21
4.541231
 31
0.0
210
0.0
220
0.0
230
1.0
  0
LINE
  5
265
100
AcDbEntity
  8
0
370
    35
390
0
 62
     7
 48
0.000017
100
AcDbLine
 10
1.688514
 20
4.541231
 30
0.0
 11
1.687867
 21
4.541373
 31
0.0
210
0.0
220
0.0
230
1.0
  0
LINE
  5
266
100
AcDbEntity
  8
0
370
    35
390
0
 62
     7
 48
0.000016
100
AcDbLine
 10
1.687867
 20
4.541373
 30
0.0
 11
1.687256
 21
4.541498
 31
0.0
210
0.0
220
0.0
230
1.0
  0
LINE
  5
267
100
AcDbEntity
  8
0
370
    35
390
0
 62
     7
 48
0.000015
100
AcDbLine
 10
1.687256
 20
4.541498
 30
0.0
 11
1.686684
 21
4.541607
 31
0.0
210
0.0
220
0.0
230
1.0
  0
LINE
  5
268
100
AcDbEntity
  8
0
370
    35
390
0
 62
     7
 48
0.000026
100
AcDbLine
 10
1.686684
 20
4.541607
 30
0.0
 11
1.685652
 21
4.541778
 31
0.0
210
0.0
220
0.0
230
1.0
  0
LINE
  5
269
100
AcDbEntity
  8
0
370
    35
390
0
 62
     7
 48
0.000023
100
AcDbLine
 10
1.685652
 20
4.541778
 30
0.0
 11
1.684729
 21
4.541889
 31
0.0
210
0.0
220
0.0
230
1.0
  0
LINE
  5
26A
100
AcDbEntity
  8
0
370
    35
390
0
 62
     7
 48
0.000027
100
AcDbLine
 10
1.684729
 20
4.541889
 30
0.0
 11
1.683657
 21
4.541968
 31
0.0
210
0.0
220
0.0
230
1.0
  0
LINE
  5
26B
100
AcDbEntity
  8
0
370
    35
390
0
 62
     7
 48
0.000015
100
AcDbLine
 10
1.683657
 20
4.541968
 30
0.0
 11
1.683049
 21
4.541997
 31
0.0
210
0.0
220
0.0
230
1.0
  0
LINE
  5
26C
100
AcDbEntity
  8
0
370
    35
390
0
 62
     7
 48
0.000016
100
AcDbLine
 10
1.683049
 20
4.541997
 30
0.0
 11
1.682393
 21
4.54202
 31
0.0
210
0.0
220
0.0
230
1.0
  0
LINE
  5
26D
100
AcDbEntity
  8
0
370
    35
390
0
 62
     7
 48
0.000018
100
AcDbLine
 10
1.682393
 20
4.54202
 30
0.0
 11
1.68169
 21
4.542035
 31
0.0
210
0.0
220
0.0
230
1.0
  0
LINE
  5
26E
100
AcDbEntity
  8
0
370
    35
390
0
 62
     7
 48
0.000019
100
AcDbLine
 10
1.68169
 20
4.542035
 30
0.0
 11
1.680939
 21
4.542043
 31
0.0
210
0.0
220
0.0
230
1.0
  0
LINE
  5
26F
100
AcDbEntity
  8
0
370
    35
390
0
 62
     7
 48
0.00002
100
AcDbLine
 10
1.680939
 20
4.542043
 30
0.0
 11
1.68014
 21
4.542045
 31
0.0
210
0.0
220
0.0
230
1.0
  0
LINE
  5
270
100
AcDbEntity
  8
0
370
    35
390
0
 62
     7
 48
0.000021
100
AcDbLine
 10
1.68014
 20
4.542045
 30
0.0
 11
1.679293
 21
4.54204
 31
0.0
210
0.0
220
0.0
230
1.0
  0
LINE
  5
271
100
AcDbEntity
  8
0
370
    35
390
0
 62
     7
 48
0.000022
100
AcDbLine
 10
1.679293
 20
4.54204
 30
0.0
 11
1.678398
 21
4.542027
 31
0.0
210
0.0
220
0.0
230
1.0
  0
LINE
  5
272
100
AcDbEntity
  8
0
370
    35
390
0
 62
     7
 48
0.000022
100
AcDbLine
 10
1.678398
 20
4.542027
 30
0.0
 11
1.677512
 21
4.542017
 31
0.0
210
0.0
220
0.0
230
1.0
  0
LINE
  5
273
100
AcDbEntity
  8
0
370
    35
390
0
 62
     7
 48
0.00003
100
AcDbLine
 10
1.677512
 20
4.542017
 30
0.0
 11
1.678302
 21
4.54293
 31
0.0
210
0.0
220
0.0
230
1.0
  0
LINE
  5
274
100
AcDbEntity
  8
0
370
    35
390
0
 62
     7
 48
0.000028
100
AcDbLine
 10
1.678302
 20
4.54293
 30
0.0
 11
1.679018
 21
4.543812
 31
0.0
210
0.0
220
0.0
230
1.0
  0
LINE
  5
275
100
AcDbEntity
  8
0
370
    35
390
0
 62
     7
 48
0.000027
100
AcDbLine
 10
1.679018
 20
4.543812
 30
0.0
 11
1.679662
 21
4.544662
 31
0.0
210
0.0
220
0.0
230
1.0
  0
LINE
  5
276
100
AcDbEntity
  8
0
370
    35
390
0
 62
     7
 48
0.000025
100
AcDbLine
 10
1.679662
 20
4.544662
 30
0.0
 11
1.680234
 21
4.545482
 31
0.0
210
0.0
220
0.0
230
1.0
  0
LINE
  5
277
100
AcDbEntity
  8
0
370
    35
390
0
 62
     7
 48
0.000023
100
AcDbLine
 10
1.680234
 20
4.545482
 30
0.0
 11
1.680733
 21
4.54627
 31
0.0
210
0.0
220
0.0
230
1.0
  0
LINE
  5
278
100
AcDbEntity
  8
0
370
    35
390
0
 62
     7
 48
0.000022
100
AcDbLine
 10
1.680733
 20
4.54627
 30
0.0
 11
1.68116
 21
4.547027
 31
0.0
210
0.0
220
0.0
230
1.0
  0
LINE
  5
279
100
AcDbEntity
  8
0
370
    35
390
0
 62
     7
 48
0.00002
100
AcDbLine
 10
1.68116
 20
4.547027
 30
0.0
 11
1.681514
 21
4.547752
 31
0.0
210
0.0
220
0.0
230
1.0
  0
LINE
  5
27A
100
AcDbEntity
  8
0
370
    35
390
0
 62
     7
 48
0.000019
100
AcDbLine
 10
1.681514
 20
4.547752
 30
0.0
 11
1.681796
 21
4.548446
 31
0.0
210
0.0
220
0.0
230
1.0
  0
LINE
  5
27B
100
AcDbEntity
  8
0
370
    35
390
0
 62
     7
 48
0.000017
100
AcDbLine
 10
1.681796
 20
4.548446
 30
0.0
 11
1.682006
 21
4.549108
 31
0.0
210
0.0
220
0.0
230
1.0
  0
LINE
  5
27C
100
AcDbEntity
  8
0
370
    35
390
0
 62
     7
 48
0.000016
100
AcDbLine
 10
1.682006
 20
4.549108
 30
0.0
 11
1.682143
 21
4.54974
 31
0.0
210
0.0
220
0.0
230
1.0
  0
LINE
  5
27D
100
AcDbEntity
  8
0
370
    35
390
0
 62
     7
 48
0.000016
100
AcDbLine
 10
1.682143
 20
4.54974
 30
0.0
 11
1.682215
 21
4.550382
 31
0.0
210
0.0
220
0.0
230
1.0
  0
LINE
  5
27E
100
AcDbEntity
  8
0
370
    35
390
0
 62
     7
 48
0.000017
100
AcDbLine
 10
1.682215
 20
4.550382
 30
0.0
 11
1.682228
 21
4.55108
 31
0.0
210
0.0
220
0.0
230
1.0
  0
LINE
  5
27F
100
AcDbEntity
  8
0
370
    35
390
0
 62
     7
 48
0.000019
100
AcDbLine
 10
1.682228
 20
4.55108
 30
0.0
 11
1.682183
 21
4.551832
 31
0.0
210
0.0
220
0.0
230
1.0
  0
LINE
  5
280
100
AcDbEntity
  8
0
370
    35
390
0
 62
     7
 48
0.00002
100
AcDbLine
 10
1.682183
 20
4.551832
 30
0.0
 11
1.682081
 21
4.552639
 31
0.0
210
0.0
220
0.0
230
1.0
  0
LINE
  5
281
100
AcDbEntity
  8
0
370
    35
390
0
 62
     7
 48
0.000022
100
AcDbLine
 10
1.682081
 20
4.552639
 30
0.0
 11
1.68192
 21
4.553501
 31
0.0
210
0.0
220
0.0
230
1.0
  0
LINE
  5
282
100
AcDbEntity
  8
0
370
    35
390
0
 62
     7
 48
0.000024
100
AcDbLine
 10
1.68192
 20
4.553501
 30
0.0
 11
1.6817
 21
4.554417
 31
0.0
210
0.0
220
0.0
230
1.0
  0
LINE
  5
283
100
AcDbEntity
  8
0
370
    35
390
0
 62
     7
 48
0.000025
100
AcDbLine
 10
1.6817
 20
4.554417
 30
0.0
 11
1.681423
 21
4.555388
 31
0.0
210
0.0
220
0.0
230
1.0
  0
LINE
  5
284
100
AcDbEntity
  8
0
370
    35
390
0
 62
     7
 48
0.000027
100
AcDbLine
 10
1.681423
 20
4.555388
 30
0.0
 11
1.681087
 21
4.556413
 31
0.0
210
0.0
220
0.0
230
1.0
  0
LINE
  5
285
100
AcDbEntity
  8
0
370
    35
390
0
 62
     7
 48
0.000029
100
AcDbLine
 10
1.681087
 20
4.556413
 30
0.0
 11
1.680693
 21
4.557493
 31
0.0
210
0.0
220
0.0
230
1.0
  0
LINE
  5
286
100
AcDbEntity
  8
0
370
    35
390
0
 62
     7
 48
0.000031
100
AcDbLine
 10
1.680693
 20
4.557493
 30
0.0
 11
1.680241
 21
4.558628
 31
0.0
210
0.0
220
0.0
230
1.0
  0
LINE
  5
287
100
AcDbEntity
  8
0
370
    35
390
0
 62
     7
 48
0.000059
100
AcDbLine
 10
1.680241
 20
4.558628
 30
0.0
 11
1.679306
 21
4.560777
 31
0.0
210
0.0
220
0.0
230
1.0
  0
LINE
  5
288
100
AcDbEntity
  8
0
370
    35
390
0
 62
     7
 48
0.0001
100
AcDbLine
 10
1.679306
 20
4.560777
 30
0.0
 11
1.677819
 21
4.564476
 31
0.0
210
0.0
220
0.0
230
1.0
  0
LINE
  5
289
100
AcDbEntity
  8
0
370
    35
390
0
 62
     7
 48
0.000038
100
AcDbLine
 10
1.677819
 20
4.564476
 30
0.0
 11
1.677275
 21
4.565896
 31
0.0
210
0.0
220
0.0
230
1.0
  0
LINE
  5
28A
100
AcDbEntity
  8
0
370
    35
390
0
 62
     7
 48
0.000481
100
AcDbLine
 10
1.677275
 20
4.565896
 30
0.0
 11
1.659504
 21
4.558535
 31
0.0
210
0.0
220
0.0
230
1.0
  0
LINE
  5
28B
100
AcDbEntity
  8
0
370
    35
390
0
 62
     7
 48
0.000063
100
AcDbLine
 10
1.659504
 20
4.558535
 30
0.0
 11
1.660463
 21
4.556219
 31
0.0
210
0.0
220
0.0
230
1.0
  0
LINE
  5
28C
100
AcDbEntity
  8
0
370
    35
390
0
 62
     7
 48
0.000424
100
AcDbLine
 10
1.660463
 20
4.556219
 30
0.0
 11
1.676146
 21
4.562715
 31
0.0
210
0.0
220
0.0
230
1.0
  0
LINE
  5
28D
100
AcDbEntity
  8
0
370
    35
390
0
 62
     7
 48
0.00003
100
AcDbLine
 10
1.676146
 20
4.562715
 30
0.0
 11
1.67664
 21
4.561629
 31
0.0
210
0.0
220
0.0
230
1.0
  0
LINE
  5
28E
100
AcDbEntity
  8
0
370
    35
390
0
 62
     7
 48
0.000026
100
AcDbLine
 10
1.67664
 20
4.561629
 30
0.0
 11
1.677076
 21
4.560693
 31
0.0
210
0.0
220
0.0
230
1.0
  0
LINE
  5
28F
100
AcDbEntity
  8
0
370
    35
390
0
 62
     7
 48
0.000026
100
AcDbLine
 10
1.677076
 20
4.560693
 30
0.0
 11
1.677513
 21
4.559728
 31
0.0
210
0.0
220
0.0
230
1.0
  0
LINE
  5
290
100
AcDbEntity
  8
0
370
    35
390
0
 62
     7
 48
0.000027
100
AcDbLine
 10
1.677513
 20
4.559728
 30
0.0
 11
1.677951
 21
4.558735
 31
0.0
210
0.0
220
0.0
230
1.0
  0
LINE
  5
291
100
AcDbEntity
  8
0
370
    35
390
0
 62
     7
 48
0.000028
100
AcDbLine
 10
1.677951
 20
4.558735
 30
0.0
 11
1.67839
 21
4.557713
 31
0.0
210
0.0
220
0.0
230
1.0
  0
LINE
  5
292
100
AcDbEntity
  8
0
370
    35
390
0
 62
     7
 48
0.000028
100
AcDbLine
 10
1.67839
 20
4.557713
 30
0.0
 11
1.67883
 21
4.556664
 31
0.0
210
0.0
220
0.0
230
1.0
  0
LINE
  5
293
100
AcDbEntity
  8
0
370
    35
390
0
 62
     7
 48
0.00004
100
AcDbLine
 10
1.67883
 20
4.556664
 30
0.0
 11
1.679407
 21
4.555157
 31
0.0
210
0.0
220
0.0
230
1.0
  0
LINE
  5
294
100
AcDbEntity
  8
0
370
    35
390
0
 62
     7
 48
0.000037
100
AcDbLine
 10
1.679407
 20
4.555157
 30
0.0
 11
1.679856
 21
4.553732
 31
0.0
210
0.0
220
0.0
230
1.0
  0
LINE
  5
295
100
AcDbEntity
  8
0
370
    35
390
0
 62
     7
 48
0.000035
100
AcDbLine
 10
1.679856
 20
4.553732
 30
0.0
 11
1.680177
 21
4.552389
 31
0.0
210
0.0
220
0.0
230
1.0
  0
LINE
  5
296
100
AcDbEntity
  8
0
370
    35
390
0
 62
     7
 48
0.000032
100
AcDbLine
 10
1.680177
 20
4.552389
 30
0.0
 11
1.680368
 21
4.55113
 31
0.0
210
0.0
220
0.0
230
1.0
  0
LINE
  5
297
100
AcDbEntity
  8
0
370
    35
390
0
 62
     7
 48
0.000029
100
AcDbLine
 10
1.680368
 20
4.55113
 30
0.0
 11
1.680431
 21
4.549953
 31
0.0
210
0.0
220
0.0
230
1.0
  0
LINE
  5
298
100
AcDbEntity
  8
0
370
    35
390
0
 62
     7
 48
0.000027
100
AcDbLine
 10
1.680431
 20
4.549953
 30
0.0
 11
1.680365
 21
4.54886
 31
0.0
210
0.0
220
0.0
230
1.0
  0
LINE
  5
299
100
AcDbEntity
  8
0
370
    35
390
0
 62
     7
 48
0.000026
100
AcDbLine
 10
1.680365
 20
4.54886
 30
0.0
 11
1.68017
 21
4.54785
 31
0.0
210
0.0
220
0.0
230
1.0
  0
LINE
  5
29A
100
AcDbEntity
  8
0
370
    35
390
0
 62
     7
 48
0.000025
100
AcDbLine
 10
1.68017
 20
4.54785
 30
0.0
 11
1.679847
 21
4.546922
 31
0.0
210
0.0
220
0.0
230
1.0
  0
LINE
  5
29B
100
AcDbEntity
  8
0
370
    35
390
0
 62
     7
 48
0.000024
100
AcDbLine
 10
1.679847
 20
4.546922
 30
0.0
 11
1.679396
 21
4.546076
 31
0.0
210
0.0
220
0.0
230
1.0
  0
LINE
  5
29C
100
AcDbEntity
  8
0
370
    35
390
0
 62
     7
 48
0.000024
100
AcDbLine
 10
1.679396
 20
4.546076
 30
0.0
 11
1.678816
 21
4.545314
 31
0.0
210
0.0
220
0.0
230
1.0
  0
LINE
  5
29D
100
AcDbEntity
  8
0
370
    35
390
0
 62
     7
 48
0.000027
100
AcDbLine
 10
1.678816
 20
4.545314
 30
0.0
 11
1.67917
 21
4.546348
 31
0.0
210
0.0
220
0.0
230
1.0
  0
LINE
  5
29E
100
AcDbEntity
  8
0
370
    35
390
0
 62
     7
 48
0.000026
100
AcDbLine
 10
1.67917
 20
4.546348
 30
0.0
 11
1.67942
 21
4.547369
 31
0.0
210
0.0
220
0.0
230
1.0
  0
LINE
  5
29F
100
AcDbEntity
  8
0
370
    35
390
0
 62
     7
 48
0.000025
100
AcDbLine
 10
1.67942
 20
4.547369
 30
0.0
 11
1.679567
 21
4.548378
 31
0.0
210
0.0
220
0.0
230
1.0
  0
LINE
  5
2A0
100
AcDbEntity
  8
0
370
    35
390
0
 62
     7
 48
0.000025
100
AcDbLine
 10
1.679567
 20
4.548378
 30
0.0
 11
1.679611
 21
4.549374
 31
0.0
210
0.0
220
0.0
230
1.0
  0
LINE
  5
2A1
100
AcDbEntity
  8
0
370
    35
390
0
 62
     7
 48
0.000025
100
AcDbLine
 10
1.679611
 20
4.549374
 30
0.0
 11
1.679552
 21
4.550357
 31
0.0
210
0.0
220
0.0
230
1.0
  0
LINE
  5
2A2
100
AcDbEntity
  8
0
370
    35
390
0
 62
     7
 48
0.000027
100
AcDbLine
 10
1.679552
 20
4.550357
 30
0.0
 11
1.679376
 21
4.551419
 31
0.0
210
0.0
220
0.0
230
1.0
  0
LINE
  5
2A3
100
AcDbEntity
  8
0
370
    35
390
0
 62
     7
 48
0.000015
100
AcDbLine
 10
1.679376
 20
4.551419
 30
0.0
 11
1.67924
 21
4.552013
 31
0.0
210
0.0
220
0.0
230
1.0
  0
LINE
  5
2A4
100
AcDbEntity
  8
0
370
    35
390
0
 62
     7
 48
0.000016
100
AcDbLine
 10
1.67924
 20
4.552013
 30
0.0
 11
1.679072
 21
4.552649
 31
0.0
210
0.0
220
0.0
230
1.0
  0
LINE
  5
2A5
100
AcDbEntity
  8
0
370
    35
390
0
 62
     7
 48
0.000018
100
AcDbLine
 10
1.679072
 20
4.552649
 30
0.0
 11
1.678871
 21
4.553328
 31
0.0
210
0.0
220
0.0
230
1.0
  0
LINE
  5
2A6
100
AcDbEntity
  8
0
370
    35
390
0
 62
     7
 48
0.000019
100
AcDbLine
 10
1.678871
 20
4.553328
 30
0.0
 11
1.678639
 21
4.554049
 31
0.0
210
0.0
220
0.0
230
1.0
  0
LINE
  5
2A7
100
AcDbEntity
  8
0
370
    35
390
0
 62
     7
 48
0.00002
100
AcDbLine
 10
1.678639
 20
4.554049
 30
0.0
 11
1.678374
 21
4.554813
 31
0.0
210
0.0
220
0.0
230
1.0
  0
LINE
  5
2A8
100
AcDbEntity
  8
0
370
    35
390
0
 62
     7
 48
0.000021
100
AcDbLine
 10
1.678374
 20
4.554813
 30
0.0
 11
1.678077
 21
4.555618
 31
0.0
210
0.0
220
0.0
230
1.0
  0
LINE
  5
2A9
100
AcDbEntity
  8
0
370
    35
390
0
 62
     7
 48
0.000023
100
AcDbLine
 10
1.678077
 20
4.555618
 30
0.0
 11
1.677748
 21
4.556466
 31
0.0
210
0.0
220
0.0
230
1.0
  0
LINE
  5
2AA
100
AcDbEntity
  8
0
370
    35
390
0
 62
     7
 48
0.000024
100
AcDbLine
 10
1.677748
 20
4.556466
 30
0.0
 11
1.677387
 21
4.557356
 31
0.0
210
0.0
220
0.0
230
1.0
  0
LINE
  5
2AB
100
AcDbEntity
  8
0
370
    35
390
0
 62
     7
 48
0.000019
100
AcDbLine
 10
1.677387
 20
4.557356
 30
0.0
 11
1.677095
 21
4.558038
 31
0.0
210
0.0
220
0.0
230
1.0
  0
LINE
  5
2AC
100
AcDbEntity
  8
0
370
    35
390
0
 62
     7
 48
0.00002
100
AcDbLine
 10
1.677095
 20
4.558038
 30
0.0
 11
1.676762
 21
4.558778
 31
0.0
210
0.0
220
0.0
230
1.0
  0
LINE
  5
2AD
100
AcDbEntity
  8
0
370
    35
390
0
 62
     7
 48
0.000022
100
AcDbLine
 10
1.676762
 20
4.558778
 30
0.0
 11
1.676388
 21
4.559575
 31
0.0
210
0.0
220
0.0
230
1.0
  0
LINE
  5
2AE
100
AcDbEntity
  8
0
370
    35
390
0
 62
     7
 48
0.000024
100
AcDbLine
 10
1.676388
 20
4.559575
 30
0.0
 11
1.675972
 21
4.560429
 31
0.0
210
0.0
220
0.0
230
1.0
  0
LINE
  5
2AF
100
AcDbEntity
  8
0
370
    35
390
0
 62
     7
 48
0.000026
100
AcDbLine
 10
1.675972
 20
4.560429
 30
0.0
 11
1.675514
 21
4.561341
 31
0.0
210
0.0
220
0.0
230
1.0
  0
LINE
  5
2B0
100
AcDbEntity
  8
0
370
    35
390
0
 62
     7
 48
0.000397
100
AcDbLine
 10
1.675514
 20
4.561341
 30
0.0
 11
1.660856
 21
4.55527
 31
0.0
210
0.0
220
0.0
230
1.0
  0
LINE
  5
2B1
100
AcDbEntity
  8
0
370
    35
390
0
 62
     7
 48
0.000155
100
AcDbLine
 10
1.660856
 20
4.55527
 30
0.0
 11
1.663231
 21
4.549536
 31
0.0
210
0.0
220
0.0
230
1.0
  0
LINE
  5
2B2
100
AcDbEntity
  8
0
370
    35
390
0
 62
     7
 48
0.000239
100
AcDbLine
 10
1.663231
 20
4.549536
 30
0.0
 11
1.672165
 21
4.546119
 31
0.0
210
0.0
220
0.0
230
1.0
  0
LINE
  5
2B3
100
AcDbEntity
  8
0
370
    35
390
0
 62
     7
 48
0.000431
100
AcDbLine
 10
1.672165
 20
4.546119
 30
0.0
 11
1.656255
 21
4.539528
 31
0.0
210
0.0
220
0.0
230
1.0
  0
LINE
  5
2B4
100
AcDbEntity
  8
0
370
    35
390
0
 62
     7
 48
0.000243
100
AcDbLine
 10
1.656255
 20
4.539528
 30
0.0
 11
1.659916
 21
4.548519
 31
0.0
210
0.0
220
0.0
230
1.0
  0
LINE
  5
2B5
100
AcDbEntity
  8
0
370
    35
390
0
 62
     7
 48
0.000235
100
AcDbLine
 10
1.659916
 20
4.548519
 30
0.0
 11
1.656314
 21
4.557214
 31
0.0
210
0.0
220
0.0
230
1.0
  0
LINE
  5
2B6
100
AcDbEntity
  8
0
370
    35
390
0
 62
     7
 48
0.000518
100
AcDbLine
 10
1.656314
 20
4.557214
 30
0.0
 11
1.637176
 21
4.549287
 31
0.0
210
0.0
220
0.0
230
1.0
  0
LINE
  5
2B7
100
AcDbEntity
  8
0
370
    35
390
0
 62
     7
 48
0.000187
100
AcDbLine
 10
1.637176
 20
4.549287
 30
0.0
 11
1.634253
 21
4.542382
 31
0.0
210
0.0
220
0.0
230
1.0
  0
LINE
  5
2B8
100
AcDbEntity
  8
0
370
    35
390
0
 62
     7
 48
0.000505
100
AcDbLine
 10
1.634253
 20
4.542382
 30
0.0
 11
1.626531
 21
4.561026
 31
0.0
210
0.0
220
0.0
230
1.0
  0
LINE
  5
2B9
100
AcDbEntity
  8
0
370
    35
390
0
 62
     7
 48
0.000214
100
AcDbLine
 10
1.626531
 20
4.561026
 30
0.0
 11
1.63403
 21
4.556881
 31
0.0
210
0.0
220
0.0
230
1.0
  0
LINE
  5
2BA
100
AcDbEntity
  8
0
370
    35
390
0
 62
     7
 48
0.000442
100
AcDbLine
 10
1.63403
 20
4.556881
 30
0.0
 11
1.650358
 21
4.563644
 31
0.0
210
0.0
220
0.0
230
1.0
  0
LINE
  5
2BB
100
AcDbEntity
  8
0
370
    35
390
0
 62
     7
 48
0.000016
100
AcDbLine
 10
1.650358
 20
4.563644
 30
0.0
 11
1.650097
 21
4.564213
 31
0.0
210
0.0
220
0.0
230
1.0
  0
LINE
  5
2BC
100
AcDbEntity
  8
0
370
    35
390
0
 62
     7
 48
0.000015
100
AcDbLine
 10
1.650097
 20
4.564213
 30
0.0
 11
1.649798
 21
4.564749
 31
0.0
210
0.0
220
0.0
230
1.0
  0
LINE
  5
2BD
100
AcDbEntity
  8
0
370
    35
390
0
 62
     7
 48
0.000015
100
AcDbLine
 10
1.649798
 20
4.564749
 30
0.0
 11
1.649461
 21
4.565252
 31
0.0
210
0.0
220
0.0
230
1.0
  0
LINE
  5
2BE
100
AcDbEntity
  8
0
370
    35
390
0
 62
     7
 48
0.000015
100
AcDbLine
 10
1.649461
 20
4.565252
 30
0.0
 11
1.649085
 21
4.565722
 31
0.0
210
0.0
220
0.0
230
1.0
  0
LINE
  5
2BF
100
AcDbEntity
  8
0
370
    35
390
0
 62
     7
 48
0.000015
100
AcDbLine
 10
1.649085
 20
4.565722
 30
0.0
 11
1.648672
 21
4.56616
 31
0.0
210
0.0
220
0.0
230
1.0
  0
LINE
  5
2C0
100
AcDbEntity
  8
0
370
    35
390
0
 62
     7
 48
0.000015
100
AcDbLine
 10
1.648672
 20
4.56616
 30
0.0
 11
1.64822
 21
4.566565
 31
0.0
210
0.0
220
0.0
230
1.0
  0
LINE
  5
2C1
100
AcDbEntity
  8
0
370
    35
390
0
 62
     7
 48
0.000015
100
AcDbLine
 10
1.64822
 20
4.566565
 30
0.0
 11
1.64773
 21
4.566938
 31
0.0
210
0.0
220
0.0
230
1.0
  0
LINE
  5
2C2
100
AcDbEntity
  8
0
370
    35
390
0
 62
     7
 48
0.000016
100
AcDbLine
 10
1.64773
 20
4.566938
 30
0.0
 11
1.647203
 21
4.567277
 31
0.0
210
0.0
220
0.0
230
1.0
  0
LINE
  5
2C3
100
AcDbEntity
  8
0
370
    35
390
0
 62
     7
 48
0.000016
100
AcDbLine
 10
1.647203
 20
4.567277
 30
0.0
 11
1.646637
 21
4.567584
 31
0.0
210
0.0
220
0.0
230
1.0
  0
LINE
  5
2C4
100
AcDbEntity
  8
0
370
    35
390
0
 62
     7
 48
0.000017
100
AcDbLine
 10
1.646637
 20
4.567584
 30
0.0
 11
1.646033
 21
4.567859
 31
0.0
210
0.0
220
0.0
230
1.0
  0
LINE
  5
2C5
100
AcDbEntity
  8
0
370
    35
390
0
 62
     7
 48
0.000029
100
AcDbLine
 10
1.646033
 20
4.567859
 30
0.0
 11
1.646531
 21
4.568911
 31
0.0
210
0.0
220
0.0
230
1.0
  0
LINE
  5
2C6
100
AcDbEntity
  8
0
370
    35
390
0
 62
     7
 48
0.000018
100
AcDbLine
 10
1.646531
 20
4.568911
 30
0.0
 11
1.647181
 21
4.568647
 31
0.0
210
0.0
220
0.0
230
1.0
  0
LINE
  5
2C7
100
AcDbEntity
  8
0
370
    35
390
0
 62
     7
 48
0.000017
100
AcDbLine
 10
1.647181
 20
4.568647
 30
0.0
 11
1.647795
 21
4.568334
 31
0.0
210
0.0
220
0.0
230
1.0
  0
LINE
  5
2C8
100
AcDbEntity
  8
0
370
    35
390
0
 62
     7
 48
0.000017
100
AcDbLine
 10
1.647795
 20
4.568334
 30
0.0
 11
1.648372
 21
4.567973
 31
0.0
210
0.0
220
0.0
230
1.0
  0
LINE
  5
2C9
100
AcDbEntity
  8
0
370
    35
390
0
 62
     7
 48
0.000017
100
AcDbLine
 10
1.648372
 20
4.567973
 30
0.0
 11
1.648912
 21
4.567562
 31
0.0
210
0.0
220
0.0
230
1.0
  0
LINE
  5
2CA
100
AcDbEntity
  8
0
370
    35
390
0
 62
     7
 48
0.000017
100
AcDbLine
 10
1.648912
 20
4.567562
 30
0.0
 11
1.649416
 21
4.567102
 31
0.0
210
0.0
220
0.0
230
1.0
  0
LINE
  5
2CB
100
AcDbEntity
  8
0
370
    35
390
0
 62
     7
 48
0.000017
100
AcDbLine
 10
1.649416
 20
4.567102
 30
0.0
 11
1.649883
 21
4.566594
 31
0.0
210
0.0
220
0.0
230
1.0
  0
LINE
  5
2CC
100
AcDbEntity
  8
0
370
    35
390
0
 62
     7
 48
0.000018
100
AcDbLine
 10
1.649883
 20
4.566594
 30
0.0
 11
1.650313
 21
4.566036
 31
0.0
210
0.0
220
0.0
230
1.0
  0
LINE
  5
2CD
100
AcDbEntity
  8
0
370
    35
390
0
 62
     7
 48
0.000018
100
AcDbLine
 10
1.650313
 20
4.566036
 30
0.0
 11
1.650706
 21
4.565429
 31
0.0
210
0.0
220
0.0
230
1.0
  0
LINE
  5
2CE
100
AcDbEntity
  8
0
370
    35
390
0
 62
     7
 48
0.000019
100
AcDbLine
 10
1.650706
 20
4.565429
 30
0.0
 11
1.651063
 21
4.564774
 31
0.0
210
0.0
220
0.0
230
1.0
  0
LINE
  5
2CF
100
AcDbEntity
  8
0
370
    35
390
0
 62
     7
 48
0.000019
100
AcDbLine
 10
1.651063
 20
4.564774
 30
0.0
 11
1.651384
 21
4.564069
 31
0.0
210
0.0
220
0.0
230
1.0
  0
LINE
  5
2D0
100
AcDbEntity
  8
0
370
    35
390
0
 62
     7
 48
0.000048
100
AcDbLine
 10
1.651384
 20
4.564069
 30
0.0
 11
1.653168
 21
4.564808
 31
0.0
210
0.0
220
0.0
230
1.0
  0
LINE
  5
2D1
100
AcDbEntity
  8
0
370
    35
390
0
 62
     7
 48
0.000015
100
AcDbLine
 10
1.653168
 20
4.564808
 30
0.0
 11
1.652983
 21
4.565394
 31
0.0
210
0.0
220
0.0
230
1.0
  0
LINE
  5
2D2
100
AcDbEntity
  8
0
370
    35
390
0
 62
     7
 48
0.000016
100
AcDbLine
 10
1.652983
 20
4.565394
 30
0.0
 11
1.652772
 21
4.565979
 31
0.0
210
0.0
220
0.0
230
1.0
  0
LINE
  5
2D3
100
AcDbEntity
  8
0
370
    35
390
0
 62
     7
 48
0.000019
100
AcDbLine
 10
1.652772
 20
4.565979
 30
0.0
 11
1.652455
 21
4.566664
 31
0.0
210
0.0
220
0.0
230
1.0
  0
LINE
  5
2D4
100
AcDbEntity
  8
0
370
    35
390
0
 62
     7
 48
0.000018
100
AcDbLine
 10
1.652455
 20
4.566664
 30
0.0
 11
1.652088
 21
4.567306
 31
0.0
210
0.0
220
0.0
230
1.0
  0
LINE
  5
2D5
100
AcDbEntity
  8
0
370
    35
390
0
 62
     7
 48
0.000018
100
AcDbLine
 10
1.652088
 20
4.567306
 30
0.0
 11
1.65167
 21
4.567905
 31
0.0
210
0.0
220
0.0
230
1.0
  0
LINE
  5
2D6
100
AcDbEntity
  8
0
370
    35
390
0
 62
     7
 48
0.000018
100
AcDbLine
 10
1.65167
 20
4.567905
 30
0.0
 11
1.651204
 21
4.568461
 31
0.0
210
0.0
220
0.0
230
1.0
  0
LINE
  5
2D7
100
AcDbEntity
  8
0
370
    35
390
0
 62
     7
 48
0.000018
100
AcDbLine
 10
1.651204
 20
4.568461
 30
0.0
 11
1.650686
 21
4.568975
 31
0.0
210
0.0
220
0.0
230
1.0
  0
LINE
  5
2D8
100
AcDbEntity
  8
0
370
    35
390
0
 62
     7
 48
0.000018
100
AcDbLine
 10
1.650686
 20
4.568975
 30
0.0
 11
1.65012
 21
4.569445
 31
0.0
210
0.0
220
0.0
230
1.0
  0
LINE
  5
2D9
100
AcDbEntity
  8
0
370
    35
390
0
 62
     7
 48
0.000019
100
AcDbLine
 10
1.65012
 20
4.569445
 30
0.0
 11
1.649503
 21
4.569872
 31
0.0
210
0.0
220
0.0
230
1.0
  0
LINE
  5
2DA
100
AcDbEntity
  8
0
370
    35
390
0
 62
     7
 48
0.000019
100
AcDbLine
 10
1.649503
 20
4.569872
 30
0.0
 11
1.648837
 21
4.570257
 31
0.0
210
0.0
220
0.0
230
1.0
  0
LINE
  5
2DB
100
AcDbEntity
  8
0
370
    35
390
0
 62
     7
 48
0.00002
100
AcDbLine
 10
1.648837
 20
4.570257
 30
0.0
 11
1.64812
 21
4.570598
 31
0.0
210
0.0
220
0.0
230
1.0
  0
LINE
  5
2DC
100
AcDbEntity
  8
0
370
    35
390
0
 62
     7
 48
0.000021
100
AcDbLine
 10
1.64812
 20
4.570598
 30
0.0
 11
1.647354
 21
4.570897
 31
0.0
210
0.0
220
0.0
230
1.0
  0
LINE
  5
2DD
100
AcDbEntity
  8
0
370
    35
390
0
 62
     7
 48
0.000018
100
AcDbLine
 10
1.647354
 20
4.570897
 30
0.0
 11
1.647852
 21
4.571415
 31
0.0
210
0.0
220
0.0
230
1.0
  0
LINE
  5
2DE
100
AcDbEntity
  8
0
370
    35
390
0
 62
     7
 48
0.000028
100
AcDbLine
 10
1.647852
 20
4.571415
 30
0.0
 11
1.648953
 21
4.571422
 31
0.0
210
0.0
220
0.0
230
1.0
  0
LINE
  5
2DF
100
AcDbEntity
  8
0
370
    35
390
0
 62
     7
 48
0.000026
100
AcDbLine
 10
1.648953
 20
4.571422
 30
0.0
 11
1.649998
 21
4.571311
 31
0.0
210
0.0
220
0.0
230
1.0
  0
LINE
  5
2E0
100
AcDbEntity
  8
0
370
    35
390
0
 62
     7
 48
0.000025
100
AcDbLine
 10
1.649998
 20
4.571311
 30
0.0
 11
1.650988
 21
4.571081
 31
0.0
210
0.0
220
0.0
230
1.0
  0
LINE
  5
2E1
100
AcDbEntity
  8
0
370
    35
390
0
 62
     7
 48
0.000025
100
AcDbLine
 10
1.650988
 20
4.571081
 30
0.0
 11
1.651922
 21
4.57073
 31
0.0
210
0.0
220
0.0
230
1.0
  0
LINE
  5
2E2
100
AcDbEntity
  8
0
370
    35
390
0
 62
     7
 48
0.000025
100
AcDbLine
 10
1.651922
 20
4.57073
 30
0.0
 11
1.652801
 21
4.570261
 31
0.0
210
0.0
220
0.0
230
1.0
  0
LINE
  5
2E3
100
AcDbEntity
  8
0
370
    35
390
0
 62
     7
 48
0.000025
100
AcDbLine
 10
1.652801
 20
4.570261
 30
0.0
 11
1.653623
 21
4.569673
 31
0.0
210
0.0
220
0.0
230
1.0
  0
LINE
  5
2E4
100
AcDbEntity
  8
0
370
    35
390
0
 62
     7
 48
0.000026
100
AcDbLine
 10
1.653623
 20
4.569673
 30
0.0
 11
1.65439
 21
4.568966
 31
0.0
210
0.0
220
0.0
230
1.0
  0
LINE
  5
2E5
100
AcDbEntity
  8
0
370
    35
390
0
 62
     7
 48
0.000027
100
AcDbLine
 10
1.65439
 20
4.568966
 30
0.0
 11
1.655102
 21
4.568139
 31
0.0
210
0.0
220
0.0
230
1.0
  0
LINE
  5
2E6
100
AcDbEntity
  8
0
370
    35
390
0
 62
     7
 48
0.000029
100
AcDbLine
 10
1.655102
 20
4.568139
 30
0.0
 11
1.655758
 21
4.567194
 31
0.0
210
0.0
220
0.0
230
1.0
  0
LINE
  5
2E7
100
AcDbEntity
  8
0
370
    35
390
0
 62
     7
 48
0.000031
100
AcDbLine
 10
1.655758
 20
4.567194
 30
0.0
 11
1.656358
 21
4.56613
 31
0.0
210
0.0
220
0.0
230
1.0
  0
LINE
  5
2E8
100
AcDbEntity
  8
0
370
    35
390
0
 62
     7
 48
0.000434
100
AcDbLine
 10
1.656358
 20
4.56613
 30
0.0
 11
1.672382
 21
4.572767
 31
0.0
210
0.0
220
0.0
230
1.0
  0
LINE
  5
2E9
100
AcDbEntity
  8
0
370
    35
390
0
 62
     7
 48
0.000192
100
AcDbLine
 10
1.672382
 20
4.572767
 30
0.0
 11
1.675157
 21
4.579923
 31
0.0
210
0.0
220
0.0
230
1.0
  0
LINE
  5
2EA
100
AcDbEntity
  8
0
370
    35
390
0
 62
     7
 48
0.001067
100
AcDbLine
 10
1.675157
 20
4.579923
 30
0.0
 11
1.691484
 21
4.540507
 31
0.0
210
0.0
220
0.0
230
1.0
  0
LINE
  5
2EB
100
AcDbEntity
  8
0
370
    35
390
0
 62
     7
 48
0.000042
100
AcDbLine
 10
1.688672
 20
4.537187
 30
0.0
 11
1.687035
 21
4.53764
 31
0.0
210
0.0
220
0.0
230
1.0
  0
LINE
  5
2EC
100
AcDbEntity
  8
0
370
    35
390
0
 62
     7
 48
0.000041
100
AcDbLine
 10
1.687035
 20
4.53764
 30
0.0
 11
1.685454
 21
4.538022
 31
0.0
210
0.0
220
0.0
230
1.0
  0
LINE
  5
2ED
100
AcDbEntity
  8
0
370
    35
390
0
 62
     7
 48
0.000039
100
AcDbLine
 10
1.685454
 20
4.538022
 30
0.0
 11
1.683927
 21
4.538331
 31
0.0
210
0.0
220
0.0
230
1.0
  0
LINE
  5
2EE
100
AcDbEntity
  8
0
370
    35
390
0
 62
     7
 48
0.000037
100
AcDbLine
 10
1.683927
 20
4.538331
 30
0.0
 11
1.682455
 21
4.538569
 31
0.0
210
0.0
220
0.0
230
1.0
  0
LINE
  5
2EF
100
AcDbEntity
  8
0
370
    35
390
0
 62
     7
 48
0.000036
100
AcDbLine
 10
1.682455
 20
4.538569
 30
0.0
 11
1.681037
 21
4.538736
 31
0.0
210
0.0
220
0.0
230
1.0
  0
LINE
  5
2F0
100
AcDbEntity
  8
0
370
    35
390
0
 62
     7
 48
0.000034
100
AcDbLine
 10
1.681037
 20
4.538736
 30
0.0
 11
1.679674
 21
4.538831
 31
0.0
210
0.0
220
0.0
230
1.0
  0
LINE
  5
2F1
100
AcDbEntity
  8
0
370
    35
390
0
 62
     7
 48
0.000033
100
AcDbLine
 10
1.679674
 20
4.538831
 30
0.0
 11
1.678366
 21
4.538853
 31
0.0
210
0.0
220
0.0
230
1.0
  0
LINE
  5
2F2
100
AcDbEntity
  8
0
370
    35
390
0
 62
     7
 48
0.000031
100
AcDbLine
 10
1.678366
 20
4.538853
 30
0.0
 11
1.677111
 21
4.538804
 31
0.0
210
0.0
220
0.0
230
1.0
  0
LINE
  5
2F3
100
AcDbEntity
  8
0
370
    35
390
0
 62
     7
 48
0.00003
100
AcDbLine
 10
1.677111
 20
4.538804
 30
0.0
 11
1.675912
 21
4.538684
 31
0.0
210
0.0
220
0.0
230
1.0
  0
LINE
  5
2F4
100
AcDbEntity
  8
0
370
    35
390
0
 62
     7
 48
0.000026
100
AcDbLine
 10
1.675912
 20
4.538684
 30
0.0
 11
1.676113
 21
4.539701
 31
0.0
210
0.0
220
0.0
230
1.0
  0
LINE
  5
2F5
100
AcDbEntity
  8
0
370
    35
390
0
 62
     7
 48
0.000033
100
AcDbLine
 10
1.676113
 20
4.539701
 30
0.0
 11
1.67744
 21
4.539866
 31
0.0
210
0.0
220
0.0
230
1.0
  0
LINE
  5
2F6
100
AcDbEntity
  8
0
370
    35
390
0
 62
     7
 48
0.000034
100
AcDbLine
 10
1.67744
 20
4.539866
 30
0.0
 11
1.678797
 21
4.539947
 31
0.0
210
0.0
220
0.0
230
1.0
  0
LINE
  5
2F7
100
AcDbEntity
  8
0
370
    35
390
0
 62
     7
 48
0.000035
100
AcDbLine
 10
1.678797
 20
4.539947
 30
0.0
 11
1.680183
 21
4.539945
 31
0.0
210
0.0
220
0.0
230
1.0
  0
LINE
  5
2F8
100
AcDbEntity
  8
0
370
    35
390
0
 62
     7
 48
0.000035
100
AcDbLine
 10
1.680183
 20
4.539945
 30
0.0
 11
1.6816
 21
4.53986
 31
0.0
210
0.0
220
0.0
230
1.0
  0
LINE
  5
2F9
100
AcDbEntity
  8
0
370
    35
390
0
 62
     7
 48
0.000036
100
AcDbLine
 10
1.6816
 20
4.53986
 30
0.0
 11
1.683046
 21
4.539693
 31
0.0
210
0.0
220
0.0
230
1.0
  0
LINE
  5
2FA
100
AcDbEntity
  8
0
370
    35
390
0
 62
     7
 48
0.000037
100
AcDbLine
 10
1.683046
 20
4.539693
 30
0.0
 11
1.684522
 21
4.539443
 31
0.0
210
0.0
220
0.0
230
1.0
  0
LINE
  5
2FB
100
AcDbEntity
  8
0
370
    35
390
0
 62
     7
 48
0.000039
100
AcDbLine
 10
1.684522
 20
4.539443
 30
0.0
 11
1.686028
 21
4.539109
 31
0.0
210
0.0
220
0.0
230
1.0
  0
LINE
  5
2FC
100
AcDbEntity
  8
0
370
    35
390
0
 62
     7
 48
0.00004
100
AcDbLine
 10
1.686028
 20
4.539109
 30
0.0
 11
1.687564
 21
4.538694
 31
0.0
210
0.0
220
0.0
230
1.0
  0
LINE
  5
2FD
100
AcDbEntity
  8
0
370
    35
390
0
 62
     7
 48
0.000041
100
AcDbLine
 10
1.687564
 20
4.538694
 30
0.0
 11
1.689129
 21
4.538195
 31
0.0
210
0.0
220
0.0
230
1.0
  0
LINE
  5
2FE
100
AcDbEntity
  8
0
370
    35
390
0
 62
     7
 48
0.000042
100
AcDbLine
 10
1.689129
 20
4.538195
 30
0.0
 11
1.690725
 21
4.537613
 31
0.0
210
0.0
220
0.0
230
1.0
  0
LINE
  5
2FF
100
AcDbEntity
  8
0
370
    35
390
0
 62
     7
 48
0.000025
100
AcDbLine
 10
1.690725
 20
4.537613
 30
0.0
 11
1.690363
 21
4.536662
 31
0.0
210
0.0
220
0.0
230
1.0
  0
LINE
  5
300
100
AcDbEntity
  8
0
370
    35
390
0
 62
     7
 48
0.000044
100
AcDbLine
 10
1.690363
 20
4.536662
 30
0.0
 11
1.688672
 21
4.537187
 31
0.0
210
0.0
220
0.0
230
1.0
  0
LINE
  5
301
100
AcDbEntity
  8
0
370
    35
390
0
 62
     7
 48
0.000031
100
AcDbLine
 10
1.65558
 20
4.536001
 30
0.0
 11
1.655741
 21
4.537225
 31
0.0
210
0.0
220
0.0
230
1.0
  0
LINE
  5
302
100
AcDbEntity
  8
0
370
    35
390
0
 62
     7
 48
0.000444
100
AcDbLine
 10
1.655741
 20
4.537225
 30
0.0
 11
1.672145
 21
4.544019
 31
0.0
210
0.0
220
0.0
230
1.0
  0
LINE
  5
303
100
AcDbEntity
  8
0
370
    35
390
0
 62
     7
 48
0.000031
100
AcDbLine
 10
1.672145
 20
4.544019
 30
0.0
 11
1.671984
 21
4.542796
 31
0.0
210
0.0
220
0.0
230
1.0
  0
LINE
  5
304
100
AcDbEntity
  8
0
370
    35
390
0
 62
     7
 48
0.000444
100
AcDbLine
 10
1.671984
 20
4.542796
 30
0.0
 11
1.65558
 21
4.536001
 31
0.0
210
0.0
220
0.0
230
1.0
  0
LINE
  5
305
100
AcDbEntity
  8
0
370
    35
390
0
 62
     7
 48
0.00044
100
AcDbLine
 10
1.654477
 20
4.552627
 30
0.0
 11
1.638225
 21
4.545896
 31
0.0
210
0.0
220
0.0
230
1.0
  0
LINE
  5
306
100
AcDbEntity
  8
0
370
    35
390
0
 62
     7
 48
0.000288
100
AcDbLine
 10
1.638225
 20
4.545896
 30
0.0
 11
1.632715
 21
4.535783
 31
0.0
210
0.0
220
0.0
230
1.0
  0
LINE
  5
307
100
AcDbEntity
  8
0
370
    35
390
0
 62
     7
 48
0.000595
100
AcDbLine
 10
1.632715
 20
4.535783
 30
0.0
 11
1.623608
 21
4.55777
 31
0.0
210
0.0
220
0.0
230
1.0
  0
LINE
  5
308
100
AcDbEntity
  8
0
370
    35
390
0
 62
     7
 48
0.000038
100
AcDbLine
 10
1.623608
 20
4.55777
 30
0.0
 11
1.624241
 21
4.559143
 31
0.0
210
0.0
220
0.0
230
1.0
  0
LINE
  5
309
100
AcDbEntity
  8
0
370
    35
390
0
 62
     7
 48
0.000563
100
AcDbLine
 10
1.624241
 20
4.559143
 30
0.0
 11
1.63286
 21
4.538335
 31
0.0
210
0.0
220
0.0
230
1.0
  0
LINE
  5
30A
100
AcDbEntity
  8
0
370
    35
390
0
 62
     7
 48
0.000237
100
AcDbLine
 10
1.63286
 20
4.538335
 30
0.0
 11
1.637376
 21
4.546656
 31
0.0
210
0.0
220
0.0
230
1.0
  0
LINE
  5
30B
100
AcDbEntity
  8
0
370
    35
390
0
 62
     7
 48
0.00048
100
AcDbLine
 10
1.637376
 20
4.546656
 30
0.0
 11
1.655109
 21
4.554001
 31
0.0
210
0.0
220
0.0
230
1.0
  0
LINE
  5
30C
100
AcDbEntity
  8
0
370
    35
390
0
 62
     7
 48
0.000207
100
AcDbLine
 10
1.655109
 20
4.554001
 30
0.0
 11
1.658271
 21
4.546369
 31
0.0
210
0.0
220
0.0
230
1.0
  0
LINE
  5
30D
100
AcDbEntity
  8
0
370
    35
390
0
 62
     7
 48
0.000041
100
AcDbLine
 10
1.658271
 20
4.546369
 30
0.0
 11
1.657701
 21
4.544843
 31
0.0
210
0.0
220
0.0
230
1.0
  0
LINE
  5
30E
100
AcDbEntity
  8
0
370
    35
390
0
 62
     7
 48
0.000211
100
AcDbLine
 10
1.657701
 20
4.544843
 30
0.0
 11
1.654477
 21
4.552627
 31
0.0
210
0.0
220
0.0
230
1.0
  0
CIRCLE
  5
30F
100
AcDbEntity
  8
0
370
    35
390
0
 62
     7
 48
0.03937
100
AcDbCircle
 10
1.72538
 20
4.604849
 30
0.0
 40
0.0057
210
0.0
220
0.0
230
1.0
  0
CIRCLE
  5
310
100
AcDbEntity
  8
0
370
    35
390
0
 62
     7
 48
0.03937
100
AcDbCircle
 10
1.679879
 20
4.495
 30
0.0
 40
0.0057
210
0.0
220
0.0
230
1.0
  0
CIRCLE
  5
311
100
AcDbEntity
  8
0
370
    35
390
0
 62
     7
 48
0.03937
100
AcDbCircle
 10
1.72538
 20
4.540501
 30
0.0
 40
0.0057
210
0.0
220
0.0
230
1.0
  0
CIRCLE
  5
312
100
AcDbEntity
  8
0
370
    35
390
0
 62
     7
 48
0.03937
100
AcDbCircle
 10
1.57003
 20
4.540501
 30
0.0
 40
0.0057
210
0.0
220
0.0
230
1.0
  0
CIRCLE
  5
313
100
AcDbEntity
  8
0
370
    35
390
0
 62
     7
 48
0.03937
100
AcDbCircle
 10
1.615531
 20
4.495
 30
0.0
 40
0.0057
210
0.0
220
0.0
230
1.0
  0
CIRCLE
  5
314
100
AcDbEntity
  8
0
370
    35
390
0
 62
     7
 48
0.03937
100
AcDbCircle
 10
1.615531
 20
4.65035
 30
0.0
 40
0.0057
210
0.0
220
0.0
230
1.0
  0
CIRCLE
  5
315
100
AcDbEntity
  8
0
370
    35
390
0
 62
     7
 48
0.03937
100
AcDbCircle
 10
1.679879
 20
4.65035
 30
0.0
 40
0.0057
210
0.0
220
0.0
230
1.0
  0
CIRCLE
  5
316
100
AcDbEntity
  8
0
370
    35
390
0
 62
     7
 48
0.03937
100
AcDbCircle
 10
1.57003
 20
4.604849
 30
0.0
 40
0.0057
210
0.0
220
0.0
230
1.0
  0
LINE
  5
317
100
AcDbEntity
  8
0
370
    35
390
0
 62
     7
 48
0.016625
100
AcDbLine
 10
1.020845
 20
1.808463
 30
0.0
 11
1.020845
 21
1.143463
 31
0.0
210
0.0
220
0.0
230
1.0
  0
LINE
  5
318
100
AcDbEntity
  8
0
370
    35
390
0
 62
     7
 48
0.006555
100
AcDbLine
 10
1.283045
 20
1.808463
 30
0.0
 11
1.020845
 21
1.808463
 31
0.0
210
0.0
220
0.0
230
1.0
  0
LINE
  5
319
100
AcDbEntity
  8
0
370
    35
390
0
 62
     7
 48
0.016625
100
AcDbLine
 10
1.283045
 20
1.808463
 30
0.0
 11
1.283045
 21
1.143463
 31
0.0
210
0.0
220
0.0
230
1.0
  0
LINE
  5
31A
100
AcDbEntity
  8
0
370
    35
390
0
 62
     7
 48
0.006555
100
AcDbLine
 10
1.283045
 20
1.143463
 30
0.0
 11
1.020845
 21
1.143463
 31
0.0
210
0.0
220
0.0
230
1.0
  0
LINE
  5
31B
100
AcDbEntity
  8
0
370
    35
390
0
 62
     7
 48
0.000651
100
AcDbLine
 10
1.283045
 20
1.808463
 30
0.0
 11
1.309095
 21
1.808463
 31
0.0
210
0.0
220
0.0
230
1.0
  0
LINE
  5
31C
100
AcDbEntity
  8
0
370
    35
390
0
 62
     7
 48
0.009989
100
AcDbLine
 10
1.309095
 20
1.808463
 30
0.0
 11
1.708645
 21
1.808463
 31
0.0
210
0.0
220
0.0
230
1.0
  0
LINE
  5
31D
100
AcDbEntity
  8
0
370
    35
390
0
 62
     7
 48
0.03937
100
AcDbLine
 10
5.273045
 20
1.808463
 30
0.0
 11
1.708645
 21
1.808463
 31
0.0
210
0.0
220
0.0
230
1.0
  0
LINE
  5
31E
100
AcDbEntity
  8
0
370
    35
390
0
 62
     7
 48
0.000651
100
AcDbLine
 10
5.273045
 20
1.808463
 30
0.0
 11
5.299095
 21
1.808463
 31
0.0
210
0.0
220
0.0
230
1.0
  0
LINE
  5
31F
100
AcDbEntity
  8
0
370
    35
390
0
 62
     7
 48
0.009989
100
AcDbLine
 10
5.299095
 20
1.808463
 30
0.0
 11
5.698645
 21
1.808463
 31
0.0
210
0.0
220
0.0
230
1.0
  0
LINE
  5
320
100
AcDbEntity
  8
0
370
    35
390
0
 62
     7
 48
0.006555
100
AcDbLine
 10
5.960845
 20
1.808463
 30
0.0
 11
5.698645
 21
1.808463
 31
0.0
210
0.0
220
0.0
230
1.0
  0
LINE
  5
321
100
AcDbEntity
  8
0
370
    35
390
0
 62
     7
 48
0.009989
100
AcDbLine
 10
1.309095
 20
1.143463
 30
0.0
 11
1.708645
 21
1.143463
 31
0.0
210
0.0
220
0.0
230
1.0
  0
LINE
  5
322
100
AcDbEntity
  8
0
370
    35
390
0
 62
     7
 48
0.000651
100
AcDbLine
 10
1.283045
 20
1.143463
 30
0.0
 11
1.309095
 21
1.143463
 31
0.0
210
0.0
220
0.0
230
1.0
  0
LINE
  5
323
100
AcDbEntity
  8
0
370
    35
390
0
 62
     7
 48
0.006555
100
AcDbLine
 10
5.960845
 20
1.143463
 30
0.0
 11
5.698645
 21
1.143463
 31
0.0
210
0.0
220
0.0
230
1.0
  0
LINE
  5
324
100
AcDbEntity
  8
0
370
    35
390
0
 62
     7
 48
0.009989
100
AcDbLine
 10
5.299095
 20
1.143463
 30
0.0
 11
5.698645
 21
1.143463
 31
0.0
210
0.0
220
0.0
230
1.0
  0
LINE
  5
325
100
AcDbEntity
  8
0
370
    35
390
0
 62
     7
 48
0.000651
100
AcDbLine
 10
5.273045
 20
1.143463
 30
0.0
 11
5.299095
 21
1.143463
 31
0.0
210
0.0
220
0.0
230
1.0
  0
LINE
  5
326
100
AcDbEntity
  8
0
370
    35
390
0
 62
     7
 48
0.03937
100
AcDbLine
 10
5.273045
 20
1.143463
 30
0.0
 11
1.708645
 21
1.143463
 31
0.0
210
0.0
220
0.0
230
1.0
  0
LINE
  5
327
100
AcDbEntity
  8
0
370
    35
390
0
 62
     7
 48
0.016625
100
AcDbLine
 10
5.960845
 20
1.808463
 30
0.0
 11
5.960845
 21
1.143463
 31
0.0
210
0.0
220
0.0
230
1.0
  0
LINE
  5
328
100
AcDbEntity
  8
0
370
    35
390
0
 62
     7
 48
0.016625
100
AcDbLine
 10
5.698645
 20
1.808463
 30
0.0
 11
5.698645
 21
1.143463
 31
0.0
210
0.0
220
0.0
230
1.0
  0
LINE
  5
329
100
AcDbEntity
  8
0
370
    35
390
0
 62
     7
 48
0.016625
100
AcDbLine
 10
5.273045
 20
1.808463
 30
0.0
 11
5.273045
 21
1.143463
 31
0.0
210
0.0
220
0.0
230
1.0
  0
LINE
  5
32A
100
AcDbEntity
  8
0
370
    35
390
0
 62
     7
 48
0.016625
100
AcDbLine
 10
1.708645
 20
1.808463
 30
0.0
 11
1.708645
 21
1.143463
 31
0.0
210
0.0
220
0.0
230
1.0
  0
ELLIPSE
  5
32B
100
AcDbEntity
  8
0
370
    35
390
0
 62
     7
 48
0.03937
100
AcDbEllipse
 10
9.250238
 20
4.445368
 30
0.0
 11
0.0796133595342993
 21
-0.1973462768435843
 31
0.0
210
0.0
220
0.0
230
1.0
 40
0.616564
 41
3.1415569611110956
 42
6.283149614700891
  0
ELLIPSE
  5
32C
100
AcDbEntity
  8
0
370
    35
390
0
 62
     7
 48
0.03937
100
AcDbEllipse
 10
9.250238
 20
4.445368
 30
0.0
 11
0.0796133595343025
 21
-0.1973462768435831
 31
0.0
210
0.0
220
0.0
230
1.0
 40
0.616564
 41
0.4276278823656198
 42
3.1415569611110956
  0
ELLIPSE
  5
32D
100
AcDbEntity
  8
0
370
    35
390
0
 62
     7
 48
0.03937
100
AcDbEllipse
 10
9.250238
 20
4.445368
 30
0.0
 11
0.0796133595342993
 21
-0.1973462768435843
 31
0.0
210
0.0
220
0.0
230
1.0
 40
0.616564
 41
6.2831496147008865
 42
6.7108131895452106
  0
ELLIPSE
  5
32E
100
AcDbEntity
  8
0
370
    35
390
0
 62
     7
 48
0.03937
100
AcDbEllipse
 10
8.375345
 20
5.382581
 30
0.0
 11
0.9240836374516829
 21
-2.2906264276487502
 31
0.0
210
0.0
220
0.0
230
1.0
 40
0.616564
 41
0.0000258740639981
 42
3.1416185276537916
  0
ELLIPSE
  5
32F
100
AcDbEntity
  8
0
370
    35
390
0
 62
     7
 48
0.03937
100
AcDbEllipse
 10
7.889809
 20
5.186706
 30
0.0
 11
0.9240836374516889
 21
-2.2906264276487476
 31
0.0
210
0.0
220
0.0
230
1.0
 40
0.616564
 41
0.0000258740639981
 42
3.1416185276537938
  0
ELLIPSE
  5
330
100
AcDbEntity
  8
0
370
    35
390
0
 62
     7
 48
0.03937
100
AcDbEllipse
 10
7.889809
 20
5.186706
 30
0.0
 11
0.9240836374516889
 21
-2.2906264276487476
 31
0.0
210
0.0
220
0.0
230
1.0
 40
0.616564
 41
5.1400168627503087
 42
6.2832111812435834
  0
ELLIPSE
  5
331
100
AcDbEntity
  8
0
370
    35
390
0
 62
     7
 48
0.03937
100
AcDbEllipse
 10
7.889809
 20
5.186706
 30
0.0
 11
0.9240836374516889
 21
-2.2906264276487476
 31
0.0
210
0.0
220
0.0
230
1.0
 40
0.616564
 41
3.141618527653792
 42
5.1400168627503087
  0
ELLIPSE
  5
332
100
AcDbEntity
  8
0
370
    35
390
0
 62
     7
 48
0.03937
100
AcDbEllipse
 10
6.989272
 20
6.952914
 30
0.0
 11
0.079613359534304
 21
-0.1973462768435827
 31
0.0
210
0.0
220
0.0
230
1.0
 40
0.616564
 41
3.1415687539035568
 42
6.2831614074933473
  0
ELLIPSE
  5
333
100
AcDbEntity
  8
0
370
    35
390
0
 62
     7
 48
0.03937
100
AcDbEllipse
 10
6.989272
 20
6.952914
 30
0.0
 11
0.0796133595343006
 21
-0.1973462768435841
 31
0.0
210
0.0
220
0.0
230
1.0
 40
0.616564
 41
2.7838223725579705
 42
3.1415687539035568
  0
ELLIPSE
  5
334
100
AcDbEntity
  8
0
370
    35
390
0
 62
     7
 48
0.03937
100
AcDbEllipse
 10
6.989272
 20
6.952914
 30
0.0
 11
0.079613359534304
 21
-0.1973462768435827
 31
0.0
210
0.0
220
0.0
230
1.0
 40
0.616564
 41
6.2831614074933455
 42
9.0670076797375536
  0
ELLIPSE
  5
335
100
AcDbEntity
  8
0
370
    35
390
0
 62
     7
 48
0.03937
100
AcDbEllipse
 10
7.80293
 20
3.43025
 30
0.0
 11
0.0796133595342962
 21
-0.1973462768435856
 31
0.0
210
0.0
220
0.0
230
1.0
 40
0.616564
 41
0.000025874064
 42
3.1416185276537902
  0
ELLIPSE
  5
336
100
AcDbEntity
  8
0
370
    35
390
0
 62
     7
 48
0.03937
100
AcDbEllipse
 10
7.80293
 20
3.43025
 30
0.0
 11
0.0796133595342979
 21
-0.1973462768435849
 31
0.0
210
0.0
220
0.0
230
1.0
 40
0.616564
 41
5.1400168627503158
 42
6.283211181243586
  0
ELLIPSE
  5
337
100
AcDbEntity
  8
0
370
    35
390
0
 62
     7
 48
0.03937
100
AcDbEllipse
 10
7.80293
 20
3.43025
 30
0.0
 11
0.0796133595342962
 21
-0.1973462768435856
 31
0.0
210
0.0
220
0.0
230
1.0
 40
0.616564
 41
3.1416185276537925
 42
5.1400168627503104
  0
ELLIPSE
  5
338
100
AcDbEntity
  8
0
370
    35
390
0
 62
     7
 48
0.03937
100
AcDbEllipse
 10
7.976687
 20
6.943163
 30
0.0
 11
0.0796133595342953
 21
-0.1973462768435859
 31
0.0
210
0.0
220
0.0
230
1.0
 40
0.616564
 41
3.1416185276537894
 42
6.2832111812435834
  0
ELLIPSE
  5
339
100
AcDbEntity
  8
0
370
    35
390
0
 62
     7
 48
0.03937
100
AcDbEllipse
 10
7.976687
 20
6.943163
 30
0.0
 11
0.0796133595342953
 21
-0.1973462768435859
 31
0.0
210
0.0
220
0.0
230
1.0
 40
0.616564
 41
1.9984242091605195
 42
3.1416185276537894
  0
ELLIPSE
  5
33A
100
AcDbEntity
  8
0
370
    35
390
0
 62
     7
 48
0.03937
100
AcDbEllipse
 10
7.976687
 20
6.943163
 30
0.0
 11
0.0796133595342953
 21
-0.1973462768435859
 31
0.0
210
0.0
220
0.0
230
1.0
 40
0.616564
 41
0.0000258740639972
 42
1.9984242091605195
  0
ELLIPSE
  5
33B
100
AcDbEntity
  8
0
370
    35
390
0
 62
     7
 48
0.03937
100
AcDbEllipse
 10
6.866408
 20
4.468909
 30
0.0
 11
0.0796133595343033
 21
-0.197346276843583
 31
0.0
210
0.0
220
0.0
230
1.0
 40
0.616564
 41
0.0000340223874967
 42
3.1416266759772915
  0
ELLIPSE
  5
33C
100
AcDbEntity
  8
0
370
    35
390
0
 62
     7
 48
0.03937
100
AcDbEllipse
 10
6.866408
 20
4.468909
 30
0.0
 11
0.0796133595343033
 21
-0.197346276843583
 31
0.0
210
0.0
220
0.0
230
1.0
 40
0.616564
 41
4.3546186993528639
 42
6.2832193295670837
  0
ELLIPSE
  5
33D
100
AcDbEntity
  8
0
370
    35
390
0
 62
     7
 48
0.03937
100
AcDbEllipse
 10
6.866408
 20
4.468909
 30
0.0
 11
0.0796133595343033
 21
-0.197346276843583
 31
0.0
210
0.0
220
0.0
230
1.0
 40
0.616564
 41
3.1416266759772893
 42
4.3546186993528639
  0
ELLIPSE
  5
33E
100
AcDbEntity
  8
0
370
    35
390
0
 62
     7
 48
0.03937
100
AcDbEllipse
 10
8.913209
 20
5.904504
 30
0.0
 11
0.0796133595342993
 21
-0.1973462768435844
 31
0.0
210
0.0
220
0.0
230
1.0
 40
0.616564
 41
3.1416266759772875
 42
6.283219329567082
  0
ELLIPSE
  5
33F
100
AcDbEntity
  8
0
370
    35
390
0
 62
     7
 48
0.03937
100
AcDbEllipse
 10
8.913209
 20
5.904504
 30
0.0
 11
0.0796133595342993
 21
-0.1973462768435844
 31
0.0
210
0.0
220
0.0
230
1.0
 40
0.616564
 41
1.213026045763073
 42
3.1416266759772875
  0
ELLIPSE
  5
340
100
AcDbEntity
  8
0
370
    35
390
0
 62
     7
 48
0.03937
100
AcDbEllipse
 10
8.913209
 20
5.904504
 30
0.0
 11
0.0796133595342993
 21
-0.1973462768435844
 31
0.0
210
0.0
220
0.0
230
1.0
 40
0.616564
 41
0.0000340223874953
 42
1.2130260457630722
  0
ELLIPSE
  5
341
100
AcDbEntity
  8
0
370
    35
390
0
 62
     7
 48
0.03937
100
AcDbEllipse
 10
6.52938
 20
5.928044
 30
0.0
 11
0.0796133595342953
 21
-0.1973462768435859
 31
0.0
210
0.0
220
0.0
230
1.0
 40
0.616564
 41
6.2831496147008856
 42
9.4247422682906823
  0
ELLIPSE
  5
342
100
AcDbEntity
  8
0
370
    35
390
0
 62
     7
 48
0.03937
100
AcDbEllipse
 10
6.52938
 20
5.928044
 30
0.0
 11
0.0796133595343025
 21
-0.1973462768435831
 31
0.0
210
0.0
220
0.0
230
1.0
 40
0.616564
 41
3.569220535955413
 42
6.2831496147008856
  0
ELLIPSE
  5
343
100
AcDbEntity
  8
0
370
    35
390
0
 62
     7
 48
0.03937
100
AcDbEllipse
 10
6.52938
 20
5.928044
 30
0.0
 11
0.0796133595342953
 21
-0.1973462768435859
 31
0.0
210
0.0
220
0.0
230
1.0
 40
0.616564
 41
3.1415569611110934
 42
3.5692205359554157
  0
ELLIPSE
  5
344
100
AcDbEntity
  8
0
370
    35
390
0
 62
     7
 48
0.03937
100
AcDbEllipse
 10
8.790345
 20
3.420499
 30
0.0
 11
0.0796133595342962
 21
-0.1973462768435858
 31
0.0
210
0.0
220
0.0
230
1.0
 40
0.616564
 41
6.2831614074933464
 42
9.424754061083144
  0
ELLIPSE
  5
345
100
AcDbEntity
  8
0
370
    35
390
0
 62
     7
 48
0.03937
100
AcDbEllipse
 10
8.790345
 20
3.420499
 30
0.0
 11
0.079613359534298
 21
-0.1973462768435851
 31
0.0
210
0.0
220
0.0
230
1.0
 40
0.616564
 41
5.9254150261477623
 42
6.2831614074933464
  0
ELLIPSE
  5
346
100
AcDbEntity
  8
0
370
    35
390
0
 62
     7
 48
0.03937
100
AcDbEllipse
 10
8.790345
 20
3.420499
 30
0.0
 11
0.0796133595342962
 21
-0.1973462768435858
 31
0.0
210
0.0
220
0.0
230
1.0
 40
0.616564
 41
3.1415687539035542
 42
5.9254150261477596
  0
ELLIPSE
  5
347
100
AcDbEntity
  8
0
370
    35
390
0
 62
     7
 48
0.03937
100
AcDbEllipse
 10
9.179928
 20
5.173966
 30
0.0
 11
0.0351862615798898
 21
-0.0872200062835491
 31
0.0
210
0.0
220
0.0
230
1.0
 40
0.616564
 41
0.0001131974608902
 42
3.1417058510506815
  0
ELLIPSE
  5
348
100
AcDbEntity
  8
0
370
    35
390
0
 62
     7
 48
0.03937
100
AcDbEllipse
 10
9.179928
 20
5.173966
 30
0.0
 11
0.0351862615798886
 21
-0.0872200062835496
 31
0.0
210
0.0
220
0.0
230
1.0
 40
0.616564
 41
6.0327159444490457
 42
6.2832985046404763
  0
ELLIPSE
  5
349
100
AcDbEntity
  8
0
370
    35
390
0
 62
     7
 48
0.03937
100
AcDbEllipse
 10
9.179928
 20
5.173966
 30
0.0
 11
0.0351862615798898
 21
-0.0872200062835491
 31
0.0
210
0.0
220
0.0
230
1.0
 40
0.616564
 41
3.1417058510506792
 42
6.0327159444490501
  0
ELLIPSE
  5
34A
100
AcDbEntity
  8
0
370
    35
390
0
 62
     7
 48
0.03937
100
AcDbEllipse
 10
9.179928
 20
5.173966
 30
0.0
 11
0.0277225091235486
 21
-0.0687187928294632
 31
0.0
210
0.0
220
0.0
230
1.0
 40
0.616564
 41
0.000113197460889
 42
3.1417058510506797
  0
ELLIPSE
  5
34B
100
AcDbEntity
  8
0
370
    35
390
0
 62
     7
 48
0.03937
100
AcDbEllipse
 10
9.179928
 20
5.173966
 30
0.0
 11
0.0277225091235486
 21
-0.0687187928294632
 31
0.0
210
0.0
220
0.0
230
1.0
 40
0.616564
 41
6.0327159444490501
 42
6.2832985046404763
  0
ELLIPSE
  5
34C
100
AcDbEntity
  8
0
370
    35
390
0
 62
     7
 48
0.03937
100
AcDbEllipse
 10
9.179928
 20
5.173966
 30
0.0
 11
0.0277225091235486
 21
-0.0687187928294633
 31
0.0
210
0.0
220
0.0
230
1.0
 40
0.616564
 41
3.1417058510506823
 42
6.0327159444490528
  0
LINE
  5
34D
100
AcDbEntity
  8
0
370
    35
390
0
 62
     7
 48
0.000125
100
AcDbLine
 10
9.162174
 20
5.173875
 30
0.0
 11
9.166253
 21
5.170993
 31
0.0
210
0.0
220
0.0
230
1.0
  0
LINE
  5
34E
100
AcDbEntity
  8
0
370
    35
390
0
 62
     7
 48
0.000012
100
AcDbLine
 10
9.166253
 20
5.170993
 30
0.0
 11
9.166665
 21
5.170717
 31
0.0
210
0.0
220
0.0
230
1.0
  0
LINE
  5
34F
100
AcDbEntity
  8
0
370
    35
390
0
 62
     7
 48
0.000013
100
AcDbLine
 10
9.166665
 20
5.170717
 30
0.0
 11
9.167093
 21
5.170444
 31
0.0
210
0.0
220
0.0
230
1.0
  0
LINE
  5
350
100
AcDbEntity
  8
0
370
    35
390
0
 62
     7
 48
0.000013
100
AcDbLine
 10
9.167093
 20
5.170444
 30
0.0
 11
9.167537
 21
5.170175
 31
0.0
210
0.0
220
0.0
230
1.0
  0
LINE
  5
351
100
AcDbEntity
  8
0
370
    35
390
0
 62
     7
 48
0.000013
100
AcDbLine
 10
9.167537
 20
5.170175
 30
0.0
 11
9.167997
 21
5.16991
 31
0.0
210
0.0
220
0.0
230
1.0
  0
LINE
  5
352
100
AcDbEntity
  8
0
370
    35
390
0
 62
     7
 48
0.000014
100
AcDbLine
 10
9.167997
 20
5.16991
 30
0.0
 11
9.168473
 21
5.169649
 31
0.0
210
0.0
220
0.0
230
1.0
  0
LINE
  5
353
100
AcDbEntity
  8
0
370
    35
390
0
 62
     7
 48
0.000014
100
AcDbLine
 10
9.168473
 20
5.169649
 30
0.0
 11
9.168965
 21
5.169392
 31
0.0
210
0.0
220
0.0
230
1.0
  0
LINE
  5
354
100
AcDbEntity
  8
0
370
    35
390
0
 62
     7
 48
0.000014
100
AcDbLine
 10
9.168965
 20
5.169392
 30
0.0
 11
9.169474
 21
5.169138
 31
0.0
210
0.0
220
0.0
230
1.0
  0
LINE
  5
355
100
AcDbEntity
  8
0
370
    35
390
0
 62
     7
 48
0.000015
100
AcDbLine
 10
9.169474
 20
5.169138
 30
0.0
 11
9.169998
 21
5.168887
 31
0.0
210
0.0
220
0.0
230
1.0
  0
LINE
  5
356
100
AcDbEntity
  8
0
370
    35
390
0
 62
     7
 48
0.000015
100
AcDbLine
 10
9.169998
 20
5.168887
 30
0.0
 11
9.170539
 21
5.168641
 31
0.0
210
0.0
220
0.0
230
1.0
  0
LINE
  5
357
100
AcDbEntity
  8
0
370
    35
390
0
 62
     7
 48
0.000015
100
AcDbLine
 10
9.170539
 20
5.168641
 30
0.0
 11
9.171096
 21
5.168398
 31
0.0
210
0.0
220
0.0
230
1.0
  0
LINE
  5
358
100
AcDbEntity
  8
0
370
    35
390
0
 62
     7
 48
0.000016
100
AcDbLine
 10
9.171096
 20
5.168398
 30
0.0
 11
9.170833
 21
5.167813
 31
0.0
210
0.0
220
0.0
230
1.0
  0
LINE
  5
359
100
AcDbEntity
  8
0
370
    35
390
0
 62
     7
 48
0.000015
100
AcDbLine
 10
9.170833
 20
5.167813
 30
0.0
 11
9.170301
 21
5.167582
 31
0.0
210
0.0
220
0.0
230
1.0
  0
LINE
  5
35A
100
AcDbEntity
  8
0
370
    35
390
0
 62
     7
 48
0.000014
100
AcDbLine
 10
9.170301
 20
5.167582
 30
0.0
 11
9.16981
 21
5.16733
 31
0.0
210
0.0
220
0.0
230
1.0
  0
LINE
  5
35B
100
AcDbEntity
  8
0
370
    35
390
0
 62
     7
 48
0.000013
100
AcDbLine
 10
9.16981
 20
5.16733
 30
0.0
 11
9.16936
 21
5.16706
 31
0.0
210
0.0
220
0.0
230
1.0
  0
LINE
  5
35C
100
AcDbEntity
  8
0
370
    35
390
0
 62
     7
 48
0.000013
100
AcDbLine
 10
9.16936
 20
5.16706
 30
0.0
 11
9.168953
 21
5.166769
 31
0.0
210
0.0
220
0.0
230
1.0
  0
LINE
  5
35D
100
AcDbEntity
  8
0
370
    35
390
0
 62
     7
 48
0.000012
100
AcDbLine
 10
9.168953
 20
5.166769
 30
0.0
 11
9.168587
 21
5.166459
 31
0.0
210
0.0
220
0.0
230
1.0
  0
LINE
  5
35E
100
AcDbEntity
  8
0
370
    35
390
0
 62
     7
 48
0.000012
100
AcDbLine
 10
9.168587
 20
5.166459
 30
0.0
 11
9.168263
 21
5.166129
 31
0.0
210
0.0
220
0.0
230
1.0
  0
LINE
  5
35F
100
AcDbEntity
  8
0
370
    35
390
0
 62
     7
 48
0.000011
100
AcDbLine
 10
9.168263
 20
5.166129
 30
0.0
 11
9.16798
 21
5.16578
 31
0.0
210
0.0
220
0.0
230
1.0
  0
LINE
  5
360
100
AcDbEntity
  8
0
370
    35
390
0
 62
     7
 48
0.000011
100
AcDbLine
 10
9.16798
 20
5.16578
 30
0.0
 11
9.167739
 21
5.165411
 31
0.0
210
0.0
220
0.0
230
1.0
  0
LINE
  5
361
100
AcDbEntity
  8
0
370
    35
390
0
 62
     7
 48
0.000011
100
AcDbLine
 10
9.167739
 20
5.165411
 30
0.0
 11
9.16754
 21
5.165023
 31
0.0
210
0.0
220
0.0
230
1.0
  0
LINE
  5
362
100
AcDbEntity
  8
0
370
    35
390
0
 62
     7
 48
0.000011
100
AcDbLine
 10
9.16754
 20
5.165023
 30
0.0
 11
9.167382
 21
5.164615
 31
0.0
210
0.0
220
0.0
230
1.0
  0
LINE
  5
363
100
AcDbEntity
  8
0
370
    35
390
0
 62
     7
 48
0.000011
100
AcDbLine
 10
9.167382
 20
5.164615
 30
0.0
 11
9.167262
 21
5.164174
 31
0.0
210
0.0
220
0.0
230
1.0
  0
LINE
  5
364
100
AcDbEntity
  8
0
370
    35
390
0
 62
     7
 48
0.000012
100
AcDbLine
 10
9.167262
 20
5.164174
 30
0.0
 11
9.167176
 21
5.163689
 31
0.0
210
0.0
220
0.0
230
1.0
  0
LINE
  5
365
100
AcDbEntity
  8
0
370
    35
390
0
 62
     7
 48
0.000013
100
AcDbLine
 10
9.167176
 20
5.163689
 30
0.0
 11
9.167123
 21
5.16316
 31
0.0
210
0.0
220
0.0
230
1.0
  0
LINE
  5
366
100
AcDbEntity
  8
0
370
    35
390
0
 62
     7
 48
0.000014
100
AcDbLine
 10
9.167123
 20
5.16316
 30
0.0
 11
9.167104
 21
5.162586
 31
0.0
210
0.0
220
0.0
230
1.0
  0
LINE
  5
367
100
AcDbEntity
  8
0
370
    35
390
0
 62
     7
 48
0.000015
100
AcDbLine
 10
9.167104
 20
5.162586
 30
0.0
 11
9.167119
 21
5.161967
 31
0.0
210
0.0
220
0.0
230
1.0
  0
LINE
  5
368
100
AcDbEntity
  8
0
370
    35
390
0
 62
     7
 48
0.000017
100
AcDbLine
 10
9.167119
 20
5.161967
 30
0.0
 11
9.167167
 21
5.161304
 31
0.0
210
0.0
220
0.0
230
1.0
  0
LINE
  5
369
100
AcDbEntity
  8
0
370
    35
390
0
 62
     7
 48
0.000018
100
AcDbLine
 10
9.167167
 20
5.161304
 30
0.0
 11
9.167248
 21
5.160596
 31
0.0
210
0.0
220
0.0
230
1.0
  0
LINE
  5
36A
100
AcDbEntity
  8
0
370
    35
390
0
 62
     7
 48
0.000019
100
AcDbLine
 10
9.167248
 20
5.160596
 30
0.0
 11
9.167364
 21
5.159843
 31
0.0
210
0.0
220
0.0
230
1.0
  0
LINE
  5
36B
100
AcDbEntity
  8
0
370
    35
390
0
 62
     7
 48
0.00002
100
AcDbLine
 10
9.167364
 20
5.159843
 30
0.0
 11
9.167513
 21
5.159046
 31
0.0
210
0.0
220
0.0
230
1.0
  0
LINE
  5
36C
100
AcDbEntity
  8
0
370
    35
390
0
 62
     7
 48
0.000022
100
AcDbLine
 10
9.167513
 20
5.159046
 30
0.0
 11
9.167696
 21
5.158205
 31
0.0
210
0.0
220
0.0
230
1.0
  0
LINE
  5
36D
100
AcDbEntity
  8
0
370
    35
390
0
 62
     7
 48
0.000018
100
AcDbLine
 10
9.167696
 20
5.158205
 30
0.0
 11
9.167863
 21
5.157498
 31
0.0
210
0.0
220
0.0
230
1.0
  0
LINE
  5
36E
100
AcDbEntity
  8
0
370
    35
390
0
 62
     7
 48
0.000018
100
AcDbLine
 10
9.167863
 20
5.157498
 30
0.0
 11
9.16804
 21
5.15679
 31
0.0
210
0.0
220
0.0
230
1.0
  0
LINE
  5
36F
100
AcDbEntity
  8
0
370
    35
390
0
 62
     7
 48
0.000018
100
AcDbLine
 10
9.16804
 20
5.15679
 30
0.0
 11
9.168224
 21
5.156083
 31
0.0
210
0.0
220
0.0
230
1.0
  0
LINE
  5
370
100
AcDbEntity
  8
0
370
    35
390
0
 62
     7
 48
0.000018
100
AcDbLine
 10
9.168224
 20
5.156083
 30
0.0
 11
9.168417
 21
5.155376
 31
0.0
210
0.0
220
0.0
230
1.0
  0
LINE
  5
371
100
AcDbEntity
  8
0
370
    35
390
0
 62
     7
 48
0.000018
100
AcDbLine
 10
9.168417
 20
5.155376
 30
0.0
 11
9.168619
 21
5.154668
 31
0.0
210
0.0
220
0.0
230
1.0
  0
LINE
  5
372
100
AcDbEntity
  8
0
370
    35
390
0
 62
     7
 48
0.000723
100
AcDbLine
 10
9.168619
 20
5.154668
 30
0.0
 11
9.197539
 21
5.153913
 31
0.0
210
0.0
220
0.0
230
1.0
  0
LINE
  5
373
100
AcDbEntity
  8
0
370
    35
390
0
 62
     7
 48
0.000124
100
AcDbLine
 10
9.197539
 20
5.153913
 30
0.0
 11
9.199366
 21
5.158518
 31
0.0
210
0.0
220
0.0
230
1.0
  0
LINE
  5
374
100
AcDbEntity
  8
0
370
    35
390
0
 62
     7
 48
0.000461
100
AcDbLine
 10
9.199366
 20
5.158518
 30
0.0
 11
9.203511
 21
5.14057
 31
0.0
210
0.0
220
0.0
230
1.0
  0
LINE
  5
375
100
AcDbEntity
  8
0
370
    35
390
0
 62
     7
 48
0.000176
100
AcDbLine
 10
9.203511
 20
5.14057
 30
0.0
 11
9.199132
 21
5.146098
 31
0.0
210
0.0
220
0.0
230
1.0
  0
LINE
  5
376
100
AcDbEntity
  8
0
370
    35
390
0
 62
     7
 48
0.000661
100
AcDbLine
 10
9.199132
 20
5.146098
 30
0.0
 11
9.172686
 21
5.14636
 31
0.0
210
0.0
220
0.0
230
1.0
  0
LINE
  5
377
100
AcDbEntity
  8
0
370
    35
390
0
 62
     7
 48
0.000071
100
AcDbLine
 10
9.172686
 20
5.14636
 30
0.0
 11
9.173303
 21
5.143572
 31
0.0
210
0.0
220
0.0
230
1.0
  0
LINE
  5
378
100
AcDbEntity
  8
0
370
    35
390
0
 62
     7
 48
0.00002
100
AcDbLine
 10
9.173303
 20
5.143572
 30
0.0
 11
9.173496
 21
5.142786
 31
0.0
210
0.0
220
0.0
230
1.0
  0
LINE
  5
379
100
AcDbEntity
  8
0
370
    35
390
0
 62
     7
 48
0.000019
100
AcDbLine
 10
9.173496
 20
5.142786
 30
0.0
 11
9.173698
 21
5.142046
 31
0.0
210
0.0
220
0.0
230
1.0
  0
LINE
  5
37A
100
AcDbEntity
  8
0
370
    35
390
0
 62
     7
 48
0.000018
100
AcDbLine
 10
9.173698
 20
5.142046
 30
0.0
 11
9.173912
 21
5.141354
 31
0.0
210
0.0
220
0.0
230
1.0
  0
LINE
  5
37B
100
AcDbEntity
  8
0
370
    35
390
0
 62
     7
 48
0.000017
100
AcDbLine
 10
9.173912
 20
5.141354
 30
0.0
 11
9.174137
 21
5.140707
 31
0.0
210
0.0
220
0.0
230
1.0
  0
LINE
  5
37C
100
AcDbEntity
  8
0
370
    35
390
0
 62
     7
 48
0.000016
100
AcDbLine
 10
9.174137
 20
5.140707
 30
0.0
 11
9.174372
 21
5.140108
 31
0.0
210
0.0
220
0.0
230
1.0
  0
LINE
  5
37D
100
AcDbEntity
  8
0
370
    35
390
0
 62
     7
 48
0.000015
100
AcDbLine
 10
9.174372
 20
5.140108
 30
0.0
 11
9.174618
 21
5.139554
 31
0.0
210
0.0
220
0.0
230
1.0
  0
LINE
  5
37E
100
AcDbEntity
  8
0
370
    35
390
0
 62
     7
 48
0.000014
100
AcDbLine
 10
9.174618
 20
5.139554
 30
0.0
 11
9.174874
 21
5.139048
 31
0.0
210
0.0
220
0.0
230
1.0
  0
LINE
  5
37F
100
AcDbEntity
  8
0
370
    35
390
0
 62
     7
 48
0.000026
100
AcDbLine
 10
9.174874
 20
5.139048
 30
0.0
 11
9.17542
 21
5.138174
 31
0.0
210
0.0
220
0.0
230
1.0
  0
LINE
  5
380
100
AcDbEntity
  8
0
370
    35
390
0
 62
     7
 48
0.000023
100
AcDbLine
 10
9.17542
 20
5.138174
 30
0.0
 11
9.176016
 21
5.137477
 31
0.0
210
0.0
220
0.0
230
1.0
  0
LINE
  5
381
100
AcDbEntity
  8
0
370
    35
390
0
 62
     7
 48
0.000023
100
AcDbLine
 10
9.176016
 20
5.137477
 30
0.0
 11
9.17671
 21
5.1369
 31
0.0
210
0.0
220
0.0
230
1.0
  0
LINE
  5
382
100
AcDbEntity
  8
0
370
    35
390
0
 62
     7
 48
0.000023
100
AcDbLine
 10
9.17671
 20
5.1369
 30
0.0
 11
9.177508
 21
5.136432
 31
0.0
210
0.0
220
0.0
230
1.0
  0
LINE
  5
383
100
AcDbEntity
  8
0
370
    35
390
0
 62
     7
 48
0.000012
100
AcDbLine
 10
9.177508
 20
5.136432
 30
0.0
 11
9.177947
 21
5.13624
 31
0.0
210
0.0
220
0.0
230
1.0
  0
LINE
  5
384
100
AcDbEntity
  8
0
370
    35
390
0
 62
     7
 48
0.000012
100
AcDbLine
 10
9.177947
 20
5.13624
 30
0.0
 11
9.178411
 21
5.136075
 31
0.0
210
0.0
220
0.0
230
1.0
  0
LINE
  5
385
100
AcDbEntity
  8
0
370
    35
390
0
 62
     7
 48
0.000013
100
AcDbLine
 10
9.178411
 20
5.136075
 30
0.0
 11
9.178902
 21
5.135938
 31
0.0
210
0.0
220
0.0
230
1.0
  0
LINE
  5
386
100
AcDbEntity
  8
0
370
    35
390
0
 62
     7
 48
0.000013
100
AcDbLine
 10
9.178902
 20
5.135938
 30
0.0
 11
9.17942
 21
5.135829
 31
0.0
210
0.0
220
0.0
230
1.0
  0
LINE
  5
387
100
AcDbEntity
  8
0
370
    35
390
0
 62
     7
 48
0.000014
100
AcDbLine
 10
9.17942
 20
5.135829
 30
0.0
 11
9.179963
 21
5.135747
 31
0.0
210
0.0
220
0.0
230
1.0
  0
LINE
  5
388
100
AcDbEntity
  8
0
370
    35
390
0
 62
     7
 48
0.000026
100
AcDbLine
 10
9.179963
 20
5.135747
 30
0.0
 11
9.180199
 21
5.134725
 31
0.0
210
0.0
220
0.0
230
1.0
  0
LINE
  5
389
100
AcDbEntity
  8
0
370
    35
390
0
 62
     7
 48
0.000016
100
AcDbLine
 10
9.180199
 20
5.134725
 30
0.0
 11
9.179573
 21
5.134833
 31
0.0
210
0.0
220
0.0
230
1.0
  0
LINE
  5
38A
100
AcDbEntity
  8
0
370
    35
390
0
 62
     7
 48
0.000015
100
AcDbLine
 10
9.179573
 20
5.134833
 30
0.0
 11
9.178977
 21
5.13497
 31
0.0
210
0.0
220
0.0
230
1.0
  0
LINE
  5
38B
100
AcDbEntity
  8
0
370
    35
390
0
 62
     7
 48
0.000015
100
AcDbLine
 10
9.178977
 20
5.13497
 30
0.0
 11
9.178412
 21
5.135138
 31
0.0
210
0.0
220
0.0
230
1.0
  0
LINE
  5
38C
100
AcDbEntity
  8
0
370
    35
390
0
 62
     7
 48
0.000014
100
AcDbLine
 10
9.178412
 20
5.135138
 30
0.0
 11
9.177878
 21
5.135335
 31
0.0
210
0.0
220
0.0
230
1.0
  0
LINE
  5
38D
100
AcDbEntity
  8
0
370
    35
390
0
 62
     7
 48
0.000014
100
AcDbLine
 10
9.177878
 20
5.135335
 30
0.0
 11
9.177374
 21
5.135562
 31
0.0
210
0.0
220
0.0
230
1.0
  0
LINE
  5
38E
100
AcDbEntity
  8
0
370
    35
390
0
 62
     7
 48
0.000013
100
AcDbLine
 10
9.177374
 20
5.135562
 30
0.0
 11
9.176901
 21
5.135818
 31
0.0
210
0.0
220
0.0
230
1.0
  0
LINE
  5
38F
100
AcDbEntity
  8
0
370
    35
390
0
 62
     7
 48
0.000013
100
AcDbLine
 10
9.176901
 20
5.135818
 30
0.0
 11
9.17646
 21
5.136105
 31
0.0
210
0.0
220
0.0
230
1.0
  0
LINE
  5
390
100
AcDbEntity
  8
0
370
    35
390
0
 62
     7
 48
0.000013
100
AcDbLine
 10
9.17646
 20
5.136105
 30
0.0
 11
9.176048
 21
5.136422
 31
0.0
210
0.0
220
0.0
230
1.0
  0
LINE
  5
391
100
AcDbEntity
  8
0
370
    35
390
0
 62
     7
 48
0.000013
100
AcDbLine
 10
9.176048
 20
5.136422
 30
0.0
 11
9.175668
 21
5.136768
 31
0.0
210
0.0
220
0.0
230
1.0
  0
LINE
  5
392
100
AcDbEntity
  8
0
370
    35
390
0
 62
     7
 48
0.000026
100
AcDbLine
 10
9.175668
 20
5.136768
 30
0.0
 11
9.17499
 21
5.137561
 31
0.0
210
0.0
220
0.0
230
1.0
  0
LINE
  5
393
100
AcDbEntity
  8
0
370
    35
390
0
 62
     7
 48
0.000014
100
AcDbLine
 10
9.17499
 20
5.137561
 30
0.0
 11
9.174675
 21
5.138028
 31
0.0
210
0.0
220
0.0
230
1.0
  0
LINE
  5
394
100
AcDbEntity
  8
0
370
    35
390
0
 62
     7
 48
0.000015
100
AcDbLine
 10
9.174675
 20
5.138028
 30
0.0
 11
9.174372
 21
5.138545
 31
0.0
210
0.0
220
0.0
230
1.0
  0
LINE
  5
395
100
AcDbEntity
  8
0
370
    35
390
0
 62
     7
 48
0.000016
100
AcDbLine
 10
9.174372
 20
5.138545
 30
0.0
 11
9.174083
 21
5.139113
 31
0.0
210
0.0
220
0.0
230
1.0
  0
LINE
  5
396
100
AcDbEntity
  8
0
370
    35
390
0
 62
     7
 48
0.000017
100
AcDbLine
 10
9.174083
 20
5.139113
 30
0.0
 11
9.173806
 21
5.139731
 31
0.0
210
0.0
220
0.0
230
1.0
  0
LINE
  5
397
100
AcDbEntity
  8
0
370
    35
390
0
 62
     7
 48
0.000018
100
AcDbLine
 10
9.173806
 20
5.139731
 30
0.0
 11
9.173541
 21
5.1404
 31
0.0
210
0.0
220
0.0
230
1.0
  0
LINE
  5
398
100
AcDbEntity
  8
0
370
    35
390
0
 62
     7
 48
0.000019
100
AcDbLine
 10
9.173541
 20
5.1404
 30
0.0
 11
9.17329
 21
5.141119
 31
0.0
210
0.0
220
0.0
230
1.0
  0
LINE
  5
399
100
AcDbEntity
  8
0
370
    35
390
0
 62
     7
 48
0.00002
100
AcDbLine
 10
9.17329
 20
5.141119
 30
0.0
 11
9.173051
 21
5.141888
 31
0.0
210
0.0
220
0.0
230
1.0
  0
LINE
  5
39A
100
AcDbEntity
  8
0
370
    35
390
0
 62
     7
 48
0.000021
100
AcDbLine
 10
9.173051
 20
5.141888
 30
0.0
 11
9.172825
 21
5.142708
 31
0.0
210
0.0
220
0.0
230
1.0
  0
LINE
  5
39B
100
AcDbEntity
  8
0
370
    35
390
0
 62
     7
 48
0.000022
100
AcDbLine
 10
9.172825
 20
5.142708
 30
0.0
 11
9.172612
 21
5.143578
 31
0.0
210
0.0
220
0.0
230
1.0
  0
LINE
  5
39C
100
AcDbEntity
  8
0
370
    35
390
0
 62
     7
 48
0.00006
100
AcDbLine
 10
9.172612
 20
5.143578
 30
0.0
 11
9.172095
 21
5.145934
 31
0.0
210
0.0
220
0.0
230
1.0
  0
LINE
  5
39D
100
AcDbEntity
  8
0
370
    35
390
0
 62
     7
 48
0.000037
100
AcDbLine
 10
9.172095
 20
5.145934
 30
0.0
 11
9.170693
 21
5.146379
 31
0.0
210
0.0
220
0.0
230
1.0
  0
LINE
  5
39E
100
AcDbEntity
  8
0
370
    35
390
0
 62
     7
 48
0.00002
100
AcDbLine
 10
9.170693
 20
5.146379
 30
0.0
 11
9.170818
 21
5.145587
 31
0.0
210
0.0
220
0.0
230
1.0
  0
LINE
  5
39F
100
AcDbEntity
  8
0
370
    35
390
0
 62
     7
 48
0.00002
100
AcDbLine
 10
9.170818
 20
5.145587
 30
0.0
 11
9.170953
 21
5.144809
 31
0.0
210
0.0
220
0.0
230
1.0
  0
LINE
  5
3A0
100
AcDbEntity
  8
0
370
    35
390
0
 62
     7
 48
0.000019
100
AcDbLine
 10
9.170953
 20
5.144809
 30
0.0
 11
9.171097
 21
5.144048
 31
0.0
210
0.0
220
0.0
230
1.0
  0
LINE
  5
3A1
100
AcDbEntity
  8
0
370
    35
390
0
 62
     7
 48
0.000019
100
AcDbLine
 10
9.171097
 20
5.144048
 30
0.0
 11
9.17125
 21
5.143302
 31
0.0
210
0.0
220
0.0
230
1.0
  0
LINE
  5
3A2
100
AcDbEntity
  8
0
370
    35
390
0
 62
     7
 48
0.000019
100
AcDbLine
 10
9.17125
 20
5.143302
 30
0.0
 11
9.171413
 21
5.142571
 31
0.0
210
0.0
220
0.0
230
1.0
  0
LINE
  5
3A3
100
AcDbEntity
  8
0
370
    35
390
0
 62
     7
 48
0.000025
100
AcDbLine
 10
9.171413
 20
5.142571
 30
0.0
 11
9.171654
 21
5.141586
 31
0.0
210
0.0
220
0.0
230
1.0
  0
LINE
  5
3A4
100
AcDbEntity
  8
0
370
    35
390
0
 62
     7
 48
0.000024
100
AcDbLine
 10
9.171654
 20
5.141586
 30
0.0
 11
9.171911
 21
5.140657
 31
0.0
210
0.0
220
0.0
230
1.0
  0
LINE
  5
3A5
100
AcDbEntity
  8
0
370
    35
390
0
 62
     7
 48
0.000023
100
AcDbLine
 10
9.171911
 20
5.140657
 30
0.0
 11
9.172182
 21
5.139785
 31
0.0
210
0.0
220
0.0
230
1.0
  0
LINE
  5
3A6
100
AcDbEntity
  8
0
370
    35
390
0
 62
     7
 48
0.000022
100
AcDbLine
 10
9.172182
 20
5.139785
 30
0.0
 11
9.172468
 21
5.138968
 31
0.0
210
0.0
220
0.0
230
1.0
  0
LINE
  5
3A7
100
AcDbEntity
  8
0
370
    35
390
0
 62
     7
 48
0.00002
100
AcDbLine
 10
9.172468
 20
5.138968
 30
0.0
 11
9.172769
 21
5.138208
 31
0.0
210
0.0
220
0.0
230
1.0
  0
LINE
  5
3A8
100
AcDbEntity
  8
0
370
    35
390
0
 62
     7
 48
0.000019
100
AcDbLine
 10
9.172769
 20
5.138208
 30
0.0
 11
9.173085
 21
5.137504
 31
0.0
210
0.0
220
0.0
230
1.0
  0
LINE
  5
3A9
100
AcDbEntity
  8
0
370
    35
390
0
 62
     7
 48
0.000018
100
AcDbLine
 10
9.173085
 20
5.137504
 30
0.0
 11
9.173415
 21
5.136857
 31
0.0
210
0.0
220
0.0
230
1.0
  0
LINE
  5
3AA
100
AcDbEntity
  8
0
370
    35
390
0
 62
     7
 48
0.000017
100
AcDbLine
 10
9.173415
 20
5.136857
 30
0.0
 11
9.17376
 21
5.136266
 31
0.0
210
0.0
220
0.0
230
1.0
  0
LINE
  5
3AB
100
AcDbEntity
  8
0
370
    35
390
0
 62
     7
 48
0.000016
100
AcDbLine
 10
9.17376
 20
5.136266
 30
0.0
 11
9.174121
 21
5.135731
 31
0.0
210
0.0
220
0.0
230
1.0
  0
LINE
  5
3AC
100
AcDbEntity
  8
0
370
    35
390
0
 62
     7
 48
0.000015
100
AcDbLine
 10
9.174121
 20
5.135731
 30
0.0
 11
9.174495
 21
5.135252
 31
0.0
210
0.0
220
0.0
230
1.0
  0
LINE
  5
3AD
100
AcDbEntity
  8
0
370
    35
390
0
 62
     7
 48
0.000015
100
AcDbLine
 10
9.174495
 20
5.135252
 30
0.0
 11
9.174893
 21
5.134821
 31
0.0
210
0.0
220
0.0
230
1.0
  0
LINE
  5
3AE
100
AcDbEntity
  8
0
370
    35
390
0
 62
     7
 48
0.000014
100
AcDbLine
 10
9.174893
 20
5.134821
 30
0.0
 11
9.175319
 21
5.13443
 31
0.0
210
0.0
220
0.0
230
1.0
  0
LINE
  5
3AF
100
AcDbEntity
  8
0
370
    35
390
0
 62
     7
 48
0.000014
100
AcDbLine
 10
9.175319
 20
5.13443
 30
0.0
 11
9.175775
 21
5.134079
 31
0.0
210
0.0
220
0.0
230
1.0
  0
LINE
  5
3B0
100
AcDbEntity
  8
0
370
    35
390
0
 62
     7
 48
0.000014
100
AcDbLine
 10
9.175775
 20
5.134079
 30
0.0
 11
9.17626
 21
5.133768
 31
0.0
210
0.0
220
0.0
230
1.0
  0
LINE
  5
3B1
100
AcDbEntity
  8
0
370
    35
390
0
 62
     7
 48
0.000015
100
AcDbLine
 10
9.17626
 20
5.133768
 30
0.0
 11
9.176774
 21
5.133496
 31
0.0
210
0.0
220
0.0
230
1.0
  0
LINE
  5
3B2
100
AcDbEntity
  8
0
370
    35
390
0
 62
     7
 48
0.000015
100
AcDbLine
 10
9.176774
 20
5.133496
 30
0.0
 11
9.177318
 21
5.133263
 31
0.0
210
0.0
220
0.0
230
1.0
  0
LINE
  5
3B3
100
AcDbEntity
  8
0
370
    35
390
0
 62
     7
 48
0.000015
100
AcDbLine
 10
9.177318
 20
5.133263
 30
0.0
 11
9.177891
 21
5.133071
 31
0.0
210
0.0
220
0.0
230
1.0
  0
LINE
  5
3B4
100
AcDbEntity
  8
0
370
    35
390
0
 62
     7
 48
0.000016
100
AcDbLine
 10
9.177891
 20
5.133071
 30
0.0
 11
9.178493
 21
5.132918
 31
0.0
210
0.0
220
0.0
230
1.0
  0
LINE
  5
3B5
100
AcDbEntity
  8
0
370
    35
390
0
 62
     7
 48
0.000016
100
AcDbLine
 10
9.178493
 20
5.132918
 30
0.0
 11
9.179124
 21
5.132805
 31
0.0
210
0.0
220
0.0
230
1.0
  0
LINE
  5
3B6
100
AcDbEntity
  8
0
370
    35
390
0
 62
     7
 48
0.000017
100
AcDbLine
 10
9.179124
 20
5.132805
 30
0.0
 11
9.179785
 21
5.132731
 31
0.0
210
0.0
220
0.0
230
1.0
  0
LINE
  5
3B7
100
AcDbEntity
  8
0
370
    35
390
0
 62
     7
 48
0.000025
100
AcDbLine
 10
9.179785
 20
5.132731
 30
0.0
 11
9.179229
 21
5.131911
 31
0.0
210
0.0
220
0.0
230
1.0
  0
LINE
  5
3B8
100
AcDbEntity
  8
0
370
    35
390
0
 62
     7
 48
0.000019
100
AcDbLine
 10
9.179229
 20
5.131911
 30
0.0
 11
9.178555
 21
5.131526
 31
0.0
210
0.0
220
0.0
230
1.0
  0
LINE
  5
3B9
100
AcDbEntity
  8
0
370
    35
390
0
 62
     7
 48
0.00002
100
AcDbLine
 10
9.178555
 20
5.131526
 30
0.0
 11
9.177873
 21
5.131103
 31
0.0
210
0.0
220
0.0
230
1.0
  0
LINE
  5
3BA
100
AcDbEntity
  8
0
370
    35
390
0
 62
     7
 48
0.000021
100
AcDbLine
 10
9.177873
 20
5.131103
 30
0.0
 11
9.177182
 21
5.130644
 31
0.0
210
0.0
220
0.0
230
1.0
  0
LINE
  5
3BB
100
AcDbEntity
  8
0
370
    35
390
0
 62
     7
 48
0.000021
100
AcDbLine
 10
9.177182
 20
5.130644
 30
0.0
 11
9.176483
 21
5.130148
 31
0.0
210
0.0
220
0.0
230
1.0
  0
LINE
  5
3BC
100
AcDbEntity
  8
0
370
    35
390
0
 62
     7
 48
0.000022
100
AcDbLine
 10
9.176483
 20
5.130148
 30
0.0
 11
9.175776
 21
5.129616
 31
0.0
210
0.0
220
0.0
230
1.0
  0
LINE
  5
3BD
100
AcDbEntity
  8
0
370
    35
390
0
 62
     7
 48
0.000023
100
AcDbLine
 10
9.175776
 20
5.129616
 30
0.0
 11
9.17506
 21
5.129046
 31
0.0
210
0.0
220
0.0
230
1.0
  0
LINE
  5
3BE
100
AcDbEntity
  8
0
370
    35
390
0
 62
     7
 48
0.000024
100
AcDbLine
 10
9.17506
 20
5.129046
 30
0.0
 11
9.174335
 21
5.12844
 31
0.0
210
0.0
220
0.0
230
1.0
  0
LINE
  5
3BF
100
AcDbEntity
  8
0
370
    35
390
0
 62
     7
 48
0.000024
100
AcDbLine
 10
9.174335
 20
5.12844
 30
0.0
 11
9.173602
 21
5.127797
 31
0.0
210
0.0
220
0.0
230
1.0
  0
LINE
  5
3C0
100
AcDbEntity
  8
0
370
    35
390
0
 62
     7
 48
0.000025
100
AcDbLine
 10
9.173602
 20
5.127797
 30
0.0
 11
9.172861
 21
5.127117
 31
0.0
210
0.0
220
0.0
230
1.0
  0
LINE
  5
3C1
100
AcDbEntity
  8
0
370
    35
390
0
 62
     7
 48
0.001209
100
AcDbLine
 10
9.172861
 20
5.127117
 30
0.0
 11
9.161727
 21
5.174173
 31
0.0
210
0.0
220
0.0
230
1.0
  0
LINE
  5
3C2
100
AcDbEntity
  8
0
370
    35
390
0
 62
     7
 48
0.000013
100
AcDbLine
 10
9.161727
 20
5.174173
 30
0.0
 11
9.162174
 21
5.173875
 31
0.0
210
0.0
220
0.0
230
1.0
  0
LINE
  5
3C3
100
AcDbEntity
  8
0
370
    35
390
0
 62
     7
 48
0.000022
100
AcDbLine
 10
9.163454
 20
5.176081
 30
0.0
 11
9.164142
 21
5.175525
 31
0.0
210
0.0
220
0.0
230
1.0
  0
LINE
  5
3C4
100
AcDbEntity
  8
0
370
    35
390
0
 62
     7
 48
0.000023
100
AcDbLine
 10
9.164142
 20
5.175525
 30
0.0
 11
9.164892
 21
5.174964
 31
0.0
210
0.0
220
0.0
230
1.0
  0
LINE
  5
3C5
100
AcDbEntity
  8
0
370
    35
390
0
 62
     7
 48
0.000025
100
AcDbLine
 10
9.164892
 20
5.174964
 30
0.0
 11
9.165705
 21
5.174395
 31
0.0
210
0.0
220
0.0
230
1.0
  0
LINE
  5
3C6
100
AcDbEntity
  8
0
370
    35
390
0
 62
     7
 48
0.000026
100
AcDbLine
 10
9.165705
 20
5.174395
 30
0.0
 11
9.166582
 21
5.173822
 31
0.0
210
0.0
220
0.0
230
1.0
  0
LINE
  5
3C7
100
AcDbEntity
  8
0
370
    35
390
0
 62
     7
 48
0.000028
100
AcDbLine
 10
9.166582
 20
5.173822
 30
0.0
 11
9.167521
 21
5.173241
 31
0.0
210
0.0
220
0.0
230
1.0
  0
LINE
  5
3C8
100
AcDbEntity
  8
0
370
    35
390
0
 62
     7
 48
0.000029
100
AcDbLine
 10
9.167521
 20
5.173241
 30
0.0
 11
9.168523
 21
5.172655
 31
0.0
210
0.0
220
0.0
230
1.0
  0
LINE
  5
3C9
100
AcDbEntity
  8
0
370
    35
390
0
 62
     7
 48
0.00003
100
AcDbLine
 10
9.168523
 20
5.172655
 30
0.0
 11
9.169588
 21
5.172063
 31
0.0
210
0.0
220
0.0
230
1.0
  0
LINE
  5
3CA
100
AcDbEntity
  8
0
370
    35
390
0
 62
     7
 48
0.000032
100
AcDbLine
 10
9.169588
 20
5.172063
 30
0.0
 11
9.170715
 21
5.171464
 31
0.0
210
0.0
220
0.0
230
1.0
  0
LINE
  5
3CB
100
AcDbEntity
  8
0
370
    35
390
0
 62
     7
 48
0.000033
100
AcDbLine
 10
9.170715
 20
5.171464
 30
0.0
 11
9.171906
 21
5.170859
 31
0.0
210
0.0
220
0.0
230
1.0
  0
LINE
  5
3CC
100
AcDbEntity
  8
0
370
    35
390
0
 62
     7
 48
0.000025
100
AcDbLine
 10
9.171906
 20
5.170859
 30
0.0
 11
9.171903
 21
5.16984
 31
0.0
210
0.0
220
0.0
230
1.0
  0
LINE
  5
3CD
100
AcDbEntity
  8
0
370
    35
390
0
 62
     7
 48
0.000041
100
AcDbLine
 10
9.171903
 20
5.16984
 30
0.0
 11
9.170436
 21
5.17055
 31
0.0
210
0.0
220
0.0
230
1.0
  0
LINE
  5
3CE
100
AcDbEntity
  8
0
370
    35
390
0
 62
     7
 48
0.000032
100
AcDbLine
 10
9.170436
 20
5.17055
 30
0.0
 11
9.169303
 21
5.171136
 31
0.0
210
0.0
220
0.0
230
1.0
  0
LINE
  5
3CF
100
AcDbEntity
  8
0
370
    35
390
0
 62
     7
 48
0.00003
100
AcDbLine
 10
9.169303
 20
5.171136
 30
0.0
 11
9.168238
 21
5.171717
 31
0.0
210
0.0
220
0.0
230
1.0
  0
LINE
  5
3D0
100
AcDbEntity
  8
0
370
    35
390
0
 62
     7
 48
0.000029
100
AcDbLine
 10
9.168238
 20
5.171717
 30
0.0
 11
9.167241
 21
5.172293
 31
0.0
210
0.0
220
0.0
230
1.0
  0
LINE
  5
3D1
100
AcDbEntity
  8
0
370
    35
390
0
 62
     7
 48
0.000027
100
AcDbLine
 10
9.167241
 20
5.172293
 30
0.0
 11
9.166312
 21
5.172864
 31
0.0
210
0.0
220
0.0
230
1.0
  0
LINE
  5
3D2
100
AcDbEntity
  8
0
370
    35
390
0
 62
     7
 48
0.000026
100
AcDbLine
 10
9.166312
 20
5.172864
 30
0.0
 11
9.165451
 21
5.173431
 31
0.0
210
0.0
220
0.0
230
1.0
  0
LINE
  5
3D3
100
AcDbEntity
  8
0
370
    35
390
0
 62
     7
 48
0.000024
100
AcDbLine
 10
9.165451
 20
5.173431
 30
0.0
 11
9.164657
 21
5.173993
 31
0.0
210
0.0
220
0.0
230
1.0
  0
LINE
  5
3D4
100
AcDbEntity
  8
0
370
    35
390
0
 62
     7
 48
0.000023
100
AcDbLine
 10
9.164657
 20
5.173993
 30
0.0
 11
9.163932
 21
5.174551
 31
0.0
210
0.0
220
0.0
230
1.0
  0
LINE
  5
3D5
100
AcDbEntity
  8
0
370
    35
390
0
 62
     7
 48
0.000021
100
AcDbLine
 10
9.163932
 20
5.174551
 30
0.0
 11
9.163274
 21
5.175104
 31
0.0
210
0.0
220
0.0
230
1.0
  0
LINE
  5
3D6
100
AcDbEntity
  8
0
370
    35
390
0
 62
     7
 48
0.00002
100
AcDbLine
 10
9.163274
 20
5.175104
 30
0.0
 11
9.162685
 21
5.175653
 31
0.0
210
0.0
220
0.0
230
1.0
  0
LINE
  5
3D7
100
AcDbEntity
  8
0
370
    35
390
0
 62
     7
 48
0.000025
100
AcDbLine
 10
9.162685
 20
5.175653
 30
0.0
 11
9.16283
 21
5.176631
 31
0.0
210
0.0
220
0.0
230
1.0
  0
LINE
  5
3D8
100
AcDbEntity
  8
0
370
    35
390
0
 62
     7
 48
0.000021
100
AcDbLine
 10
9.16283
 20
5.176631
 30
0.0
 11
9.163454
 21
5.176081
 31
0.0
210
0.0
220
0.0
230
1.0
  0
LINE
  5
3D9
100
AcDbEntity
  8
0
370
    35
390
0
 62
     7
 48
0.000016
100
AcDbLine
 10
9.169288
 20
5.165491
 30
0.0
 11
9.169209
 21
5.164857
 31
0.0
210
0.0
220
0.0
230
1.0
  0
LINE
  5
3DA
100
AcDbEntity
  8
0
370
    35
390
0
 62
     7
 48
0.000016
100
AcDbLine
 10
9.169209
 20
5.164857
 30
0.0
 11
9.169161
 21
5.164204
 31
0.0
210
0.0
220
0.0
230
1.0
  0
LINE
  5
3DB
100
AcDbEntity
  8
0
370
    35
390
0
 62
     7
 48
0.000017
100
AcDbLine
 10
9.169161
 20
5.164204
 30
0.0
 11
9.169144
 21
5.163529
 31
0.0
210
0.0
220
0.0
230
1.0
  0
LINE
  5
3DC
100
AcDbEntity
  8
0
370
    35
390
0
 62
     7
 48
0.000017
100
AcDbLine
 10
9.169144
 20
5.163529
 30
0.0
 11
9.169159
 21
5.162833
 31
0.0
210
0.0
220
0.0
230
1.0
  0
LINE
  5
3DD
100
AcDbEntity
  8
0
370
    35
390
0
 62
     7
 48
0.000018
100
AcDbLine
 10
9.169159
 20
5.162833
 30
0.0
 11
9.169205
 21
5.162117
 31
0.0
210
0.0
220
0.0
230
1.0
  0
LINE
  5
3DE
100
AcDbEntity
  8
0
370
    35
390
0
 62
     7
 48
0.000019
100
AcDbLine
 10
9.169205
 20
5.162117
 30
0.0
 11
9.169283
 21
5.161381
 31
0.0
210
0.0
220
0.0
230
1.0
  0
LINE
  5
3DF
100
AcDbEntity
  8
0
370
    35
390
0
 62
     7
 48
0.000019
100
AcDbLine
 10
9.169283
 20
5.161381
 30
0.0
 11
9.169391
 21
5.160624
 31
0.0
210
0.0
220
0.0
230
1.0
  0
LINE
  5
3E0
100
AcDbEntity
  8
0
370
    35
390
0
 62
     7
 48
0.00002
100
AcDbLine
 10
9.169391
 20
5.160624
 30
0.0
 11
9.169531
 21
5.159845
 31
0.0
210
0.0
220
0.0
230
1.0
  0
LINE
  5
3E1
100
AcDbEntity
  8
0
370
    35
390
0
 62
     7
 48
0.00002
100
AcDbLine
 10
9.169531
 20
5.159845
 30
0.0
 11
9.169702
 21
5.159047
 31
0.0
210
0.0
220
0.0
230
1.0
  0
LINE
  5
3E2
100
AcDbEntity
  8
0
370
    35
390
0
 62
     7
 48
0.000014
100
AcDbLine
 10
9.169702
 20
5.159047
 30
0.0
 11
9.169836
 21
5.158498
 31
0.0
210
0.0
220
0.0
230
1.0
  0
LINE
  5
3E3
100
AcDbEntity
  8
0
370
    35
390
0
 62
     7
 48
0.000015
100
AcDbLine
 10
9.169836
 20
5.158498
 30
0.0
 11
9.169988
 21
5.157934
 31
0.0
210
0.0
220
0.0
230
1.0
  0
LINE
  5
3E4
100
AcDbEntity
  8
0
370
    35
390
0
 62
     7
 48
0.000015
100
AcDbLine
 10
9.169988
 20
5.157934
 30
0.0
 11
9.170157
 21
5.157356
 31
0.0
210
0.0
220
0.0
230
1.0
  0
LINE
  5
3E5
100
AcDbEntity
  8
0
370
    35
390
0
 62
     7
 48
0.000668
100
AcDbLine
 10
9.170157
 20
5.157356
 30
0.0
 11
9.196893
 21
5.157054
 31
0.0
210
0.0
220
0.0
230
1.0
  0
LINE
  5
3E6
100
AcDbEntity
  8
0
370
    35
390
0
 62
     7
 48
0.000179
100
AcDbLine
 10
9.196893
 20
5.157054
 30
0.0
 11
9.200448
 21
5.163249
 31
0.0
210
0.0
220
0.0
230
1.0
  0
LINE
  5
3E7
100
AcDbEntity
  8
0
370
    35
390
0
 62
     7
 48
0.000515
100
AcDbLine
 10
9.200448
 20
5.163249
 30
0.0
 11
9.205083
 21
5.143179
 31
0.0
210
0.0
220
0.0
230
1.0
  0
LINE
  5
3E8
100
AcDbEntity
  8
0
370
    35
390
0
 62
     7
 48
0.000026
100
AcDbLine
 10
9.205083
 20
5.143179
 30
0.0
 11
9.204574
 21
5.142283
 31
0.0
210
0.0
220
0.0
230
1.0
  0
LINE
  5
3E9
100
AcDbEntity
  8
0
370
    35
390
0
 62
     7
 48
0.000483
100
AcDbLine
 10
9.204574
 20
5.142283
 30
0.0
 11
9.200229
 21
5.161096
 31
0.0
210
0.0
220
0.0
230
1.0
  0
LINE
  5
3EA
100
AcDbEntity
  8
0
370
    35
390
0
 62
     7
 48
0.000149
100
AcDbLine
 10
9.200229
 20
5.161096
 30
0.0
 11
9.197378
 21
5.155874
 31
0.0
210
0.0
220
0.0
230
1.0
  0
LINE
  5
3EB
100
AcDbEntity
  8
0
370
    35
390
0
 62
     7
 48
0.000692
100
AcDbLine
 10
9.197378
 20
5.155874
 30
0.0
 11
9.169682
 21
5.156147
 31
0.0
210
0.0
220
0.0
230
1.0
  0
LINE
  5
3EC
100
AcDbEntity
  8
0
370
    35
390
0
 62
     7
 48
0.000055
100
AcDbLine
 10
9.169682
 20
5.156147
 30
0.0
 11
9.169166
 21
5.158268
 31
0.0
210
0.0
220
0.0
230
1.0
  0
LINE
  5
3ED
100
AcDbEntity
  8
0
370
    35
390
0
 62
     7
 48
0.000019
100
AcDbLine
 10
9.169166
 20
5.158268
 30
0.0
 11
9.169
 21
5.159008
 31
0.0
210
0.0
220
0.0
230
1.0
  0
LINE
  5
3EE
100
AcDbEntity
  8
0
370
    35
390
0
 62
     7
 48
0.000018
100
AcDbLine
 10
9.169
 20
5.159008
 30
0.0
 11
9.168851
 21
5.159703
 31
0.0
210
0.0
220
0.0
230
1.0
  0
LINE
  5
3EF
100
AcDbEntity
  8
0
370
    35
390
0
 62
     7
 48
0.000017
100
AcDbLine
 10
9.168851
 20
5.159703
 30
0.0
 11
9.168721
 21
5.160354
 31
0.0
210
0.0
220
0.0
230
1.0
  0
LINE
  5
3F0
100
AcDbEntity
  8
0
370
    35
390
0
 62
     7
 48
0.000015
100
AcDbLine
 10
9.168721
 20
5.160354
 30
0.0
 11
9.16861
 21
5.16096
 31
0.0
210
0.0
220
0.0
230
1.0
  0
LINE
  5
3F1
100
AcDbEntity
  8
0
370
    35
390
0
 62
     7
 48
0.000014
100
AcDbLine
 10
9.16861
 20
5.16096
 30
0.0
 11
9.168517
 21
5.161522
 31
0.0
210
0.0
220
0.0
230
1.0
  0
LINE
  5
3F2
100
AcDbEntity
  8
0
370
    35
390
0
 62
     7
 48
0.000025
100
AcDbLine
 10
9.168517
 20
5.161522
 30
0.0
 11
9.168387
 21
5.162513
 31
0.0
210
0.0
220
0.0
230
1.0
  0
LINE
  5
3F3
100
AcDbEntity
  8
0
370
    35
390
0
 62
     7
 48
0.00002
100
AcDbLine
 10
9.168387
 20
5.162513
 30
0.0
 11
9.168331
 21
5.163325
 31
0.0
210
0.0
220
0.0
230
1.0
  0
LINE
  5
3F4
100
AcDbEntity
  8
0
370
    35
390
0
 62
     7
 48
0.000016
100
AcDbLine
 10
9.168331
 20
5.163325
 30
0.0
 11
9.16835
 21
5.163975
 31
0.0
210
0.0
220
0.0
230
1.0
  0
LINE
  5
3F5
100
AcDbEntity
  8
0
370
    35
390
0
 62
     7
 48
0.000015
100
AcDbLine
 10
9.16835
 20
5.163975
 30
0.0
 11
9.168446
 21
5.164551
 31
0.0
210
0.0
220
0.0
230
1.0
  0
LINE
  5
3F6
100
AcDbEntity
  8
0
370
    35
390
0
 62
     7
 48
0.000014
100
AcDbLine
 10
9.168446
 20
5.164551
 30
0.0
 11
9.16862
 21
5.165068
 31
0.0
210
0.0
220
0.0
230
1.0
  0
LINE
  5
3F7
100
AcDbEntity
  8
0
370
    35
390
0
 62
     7
 48
0.000013
100
AcDbLine
 10
9.16862
 20
5.165068
 30
0.0
 11
9.168872
 21
5.165526
 31
0.0
210
0.0
220
0.0
230
1.0
  0
LINE
  5
3F8
100
AcDbEntity
  8
0
370
    35
390
0
 62
     7
 48
0.000013
100
AcDbLine
 10
9.168872
 20
5.165526
 30
0.0
 11
9.169203
 21
5.165925
 31
0.0
210
0.0
220
0.0
230
1.0
  0
LINE
  5
3F9
100
AcDbEntity
  8
0
370
    35
390
0
 62
     7
 48
0.000007
100
AcDbLine
 10
9.169203
 20
5.165925
 30
0.0
 11
9.169398
 21
5.166103
 31
0.0
210
0.0
220
0.0
230
1.0
  0
LINE
  5
3FA
100
AcDbEntity
  8
0
370
    35
390
0
 62
     7
 48
0.000016
100
AcDbLine
 10
9.169398
 20
5.166103
 30
0.0
 11
9.169288
 21
5.165491
 31
0.0
210
0.0
220
0.0
230
1.0
  0
LINE
  5
3FB
100
AcDbEntity
  8
0
370
    35
390
0
 62
     7
 48
0.000018
100
AcDbLine
 10
9.151475
 20
5.218556
 30
0.0
 11
9.152012
 21
5.218078
 31
0.0
210
0.0
220
0.0
230
1.0
  0
LINE
  5
3FC
100
AcDbEntity
  8
0
370
    35
390
0
 62
     7
 48
0.000017
100
AcDbLine
 10
9.152012
 20
5.218078
 30
0.0
 11
9.152522
 21
5.217629
 31
0.0
210
0.0
220
0.0
230
1.0
  0
LINE
  5
3FD
100
AcDbEntity
  8
0
370
    35
390
0
 62
     7
 48
0.000016
100
AcDbLine
 10
9.152522
 20
5.217629
 30
0.0
 11
9.153008
 21
5.217208
 31
0.0
210
0.0
220
0.0
230
1.0
  0
LINE
  5
3FE
100
AcDbEntity
  8
0
370
    35
390
0
 62
     7
 48
0.000015
100
AcDbLine
 10
9.153008
 20
5.217208
 30
0.0
 11
9.153469
 21
5.216815
 31
0.0
210
0.0
220
0.0
230
1.0
  0
LINE
  5
3FF
100
AcDbEntity
  8
0
370
    35
390
0
 62
     7
 48
0.000014
100
AcDbLine
 10
9.153469
 20
5.216815
 30
0.0
 11
9.153904
 21
5.21645
 31
0.0
210
0.0
220
0.0
230
1.0
  0
LINE
  5
400
100
AcDbEntity
  8
0
370
    35
390
0
 62
     7
 48
0.000013
100
AcDbLine
 10
9.153904
 20
5.21645
 30
0.0
 11
9.154315
 21
5.216113
 31
0.0
210
0.0
220
0.0
230
1.0
  0
LINE
  5
401
100
AcDbEntity
  8
0
370
    35
390
0
 62
     7
 48
0.000012
100
AcDbLine
 10
9.154315
 20
5.216113
 30
0.0
 11
9.154701
 21
5.215804
 31
0.0
210
0.0
220
0.0
230
1.0
  0
LINE
  5
402
100
AcDbEntity
  8
0
370
    35
390
0
 62
     7
 48
0.000022
100
AcDbLine
 10
9.154701
 20
5.215804
 30
0.0
 11
9.155397
 21
5.21527
 31
0.0
210
0.0
220
0.0
230
1.0
  0
LINE
  5
403
100
AcDbEntity
  8
0
370
    35
390
0
 62
     7
 48
0.000019
100
AcDbLine
 10
9.155397
 20
5.21527
 30
0.0
 11
9.156021
 21
5.214829
 31
0.0
210
0.0
220
0.0
230
1.0
  0
LINE
  5
404
100
AcDbEntity
  8
0
370
    35
390
0
 62
     7
 48
0.000022
100
AcDbLine
 10
9.156021
 20
5.214829
 30
0.0
 11
9.156749
 21
5.214361
 31
0.0
210
0.0
220
0.0
230
1.0
  0
LINE
  5
405
100
AcDbEntity
  8
0
370
    35
390
0
 62
     7
 48
0.000012
100
AcDbLine
 10
9.156749
 20
5.214361
 30
0.0
 11
9.157162
 21
5.21411
 31
0.0
210
0.0
220
0.0
230
1.0
  0
LINE
  5
406
100
AcDbEntity
  8
0
370
    35
390
0
 62
     7
 48
0.000013
100
AcDbLine
 10
9.157162
 20
5.21411
 30
0.0
 11
9.157609
 21
5.213846
 31
0.0
210
0.0
220
0.0
230
1.0
  0
LINE
  5
407
100
AcDbEntity
  8
0
370
    35
390
0
 62
     7
 48
0.000014
100
AcDbLine
 10
9.157609
 20
5.213846
 30
0.0
 11
9.158088
 21
5.213571
 31
0.0
210
0.0
220
0.0
230
1.0
  0
LINE
  5
408
100
AcDbEntity
  8
0
370
    35
390
0
 62
     7
 48
0.000015
100
AcDbLine
 10
9.158088
 20
5.213571
 30
0.0
 11
9.158599
 21
5.213285
 31
0.0
210
0.0
220
0.0
230
1.0
  0
LINE
  5
409
100
AcDbEntity
  8
0
370
    35
390
0
 62
     7
 48
0.000016
100
AcDbLine
 10
9.158599
 20
5.213285
 30
0.0
 11
9.159144
 21
5.212986
 31
0.0
210
0.0
220
0.0
230
1.0
  0
LINE
  5
40A
100
AcDbEntity
  8
0
370
    35
390
0
 62
     7
 48
0.000016
100
AcDbLine
 10
9.159144
 20
5.212986
 30
0.0
 11
9.159722
 21
5.212676
 31
0.0
210
0.0
220
0.0
230
1.0
  0
LINE
  5
40B
100
AcDbEntity
  8
0
370
    35
390
0
 62
     7
 48
0.000017
100
AcDbLine
 10
9.159722
 20
5.212676
 30
0.0
 11
9.160333
 21
5.212355
 31
0.0
210
0.0
220
0.0
230
1.0
  0
LINE
  5
40C
100
AcDbEntity
  8
0
370
    35
390
0
 62
     7
 48
0.000017
100
AcDbLine
 10
9.160333
 20
5.212355
 30
0.0
 11
9.160937
 21
5.212035
 31
0.0
210
0.0
220
0.0
230
1.0
  0
LINE
  5
40D
100
AcDbEntity
  8
0
370
    35
390
0
 62
     7
 48
0.000019
100
AcDbLine
 10
9.160937
 20
5.212035
 30
0.0
 11
9.160359
 21
5.211525
 31
0.0
210
0.0
220
0.0
230
1.0
  0
LINE
  5
40E
100
AcDbEntity
  8
0
370
    35
390
0
 62
     7
 48
0.000018
100
AcDbLine
 10
9.160359
 20
5.211525
 30
0.0
 11
9.159832
 21
5.211014
 31
0.0
210
0.0
220
0.0
230
1.0
  0
LINE
  5
40F
100
AcDbEntity
  8
0
370
    35
390
0
 62
     7
 48
0.000017
100
AcDbLine
 10
9.159832
 20
5.211014
 30
0.0
 11
9.159356
 21
5.210505
 31
0.0
210
0.0
220
0.0
230
1.0
  0
LINE
  5
410
100
AcDbEntity
  8
0
370
    35
390
0
 62
     7
 48
0.000017
100
AcDbLine
 10
9.159356
 20
5.210505
 30
0.0
 11
9.15893
 21
5.209996
 31
0.0
210
0.0
220
0.0
230
1.0
  0
LINE
  5
411
100
AcDbEntity
  8
0
370
    35
390
0
 62
     7
 48
0.000016
100
AcDbLine
 10
9.15893
 20
5.209996
 30
0.0
 11
9.158555
 21
5.209488
 31
0.0
210
0.0
220
0.0
230
1.0
  0
LINE
  5
412
100
AcDbEntity
  8
0
370
    35
390
0
 62
     7
 48
0.000015
100
AcDbLine
 10
9.158555
 20
5.209488
 30
0.0
 11
9.158231
 21
5.208979
 31
0.0
210
0.0
220
0.0
230
1.0
  0
LINE
  5
413
100
AcDbEntity
  8
0
370
    35
390
0
 62
     7
 48
0.000014
100
AcDbLine
 10
9.158231
 20
5.208979
 30
0.0
 11
9.157958
 21
5.208473
 31
0.0
210
0.0
220
0.0
230
1.0
  0
LINE
  5
414
100
AcDbEntity
  8
0
370
    35
390
0
 62
     7
 48
0.000014
100
AcDbLine
 10
9.157958
 20
5.208473
 30
0.0
 11
9.157736
 21
5.207966
 31
0.0
210
0.0
220
0.0
230
1.0
  0
LINE
  5
415
100
AcDbEntity
  8
0
370
    35
390
0
 62
     7
 48
0.000013
100
AcDbLine
 10
9.157736
 20
5.207966
 30
0.0
 11
9.157564
 21
5.207461
 31
0.0
210
0.0
220
0.0
230
1.0
  0
LINE
  5
416
100
AcDbEntity
  8
0
370
    35
390
0
 62
     7
 48
0.000013
100
AcDbLine
 10
9.157564
 20
5.207461
 30
0.0
 11
9.157443
 21
5.206956
 31
0.0
210
0.0
220
0.0
230
1.0
  0
LINE
  5
417
100
AcDbEntity
  8
0
370
    35
390
0
 62
     7
 48
0.000014
100
AcDbLine
 10
9.157443
 20
5.206956
 30
0.0
 11
9.157366
 21
5.206417
 31
0.0
210
0.0
220
0.0
230
1.0
  0
LINE
  5
418
100
AcDbEntity
  8
0
370
    35
390
0
 62
     7
 48
0.000015
100
AcDbLine
 10
9.157366
 20
5.206417
 30
0.0
 11
9.157326
 21
5.205807
 31
0.0
210
0.0
220
0.0
230
1.0
  0
LINE
  5
419
100
AcDbEntity
  8
0
370
    35
390
0
 62
     7
 48
0.000017
100
AcDbLine
 10
9.157326
 20
5.205807
 30
0.0
 11
9.157324
 21
5.205129
 31
0.0
210
0.0
220
0.0
230
1.0
  0
LINE
  5
41A
100
AcDbEntity
  8
0
370
    35
390
0
 62
     7
 48
0.000019
100
AcDbLine
 10
9.157324
 20
5.205129
 30
0.0
 11
9.157359
 21
5.20438
 31
0.0
210
0.0
220
0.0
230
1.0
  0
LINE
  5
41B
100
AcDbEntity
  8
0
370
    35
390
0
 62
     7
 48
0.000021
100
AcDbLine
 10
9.157359
 20
5.20438
 30
0.0
 11
9.157431
 21
5.203561
 31
0.0
210
0.0
220
0.0
230
1.0
  0
LINE
  5
41C
100
AcDbEntity
  8
0
370
    35
390
0
 62
     7
 48
0.000022
100
AcDbLine
 10
9.157431
 20
5.203561
 30
0.0
 11
9.157541
 21
5.202673
 31
0.0
210
0.0
220
0.0
230
1.0
  0
LINE
  5
41D
100
AcDbEntity
  8
0
370
    35
390
0
 62
     7
 48
0.000024
100
AcDbLine
 10
9.157541
 20
5.202673
 30
0.0
 11
9.157688
 21
5.201715
 31
0.0
210
0.0
220
0.0
230
1.0
  0
LINE
  5
41E
100
AcDbEntity
  8
0
370
    35
390
0
 62
     7
 48
0.000026
100
AcDbLine
 10
9.157688
 20
5.201715
 30
0.0
 11
9.157873
 21
5.200688
 31
0.0
210
0.0
220
0.0
230
1.0
  0
LINE
  5
41F
100
AcDbEntity
  8
0
370
    35
390
0
 62
     7
 48
0.000028
100
AcDbLine
 10
9.157873
 20
5.200688
 30
0.0
 11
9.158094
 21
5.199591
 31
0.0
210
0.0
220
0.0
230
1.0
  0
LINE
  5
420
100
AcDbEntity
  8
0
370
    35
390
0
 62
     7
 48
0.00003
100
AcDbLine
 10
9.158094
 20
5.199591
 30
0.0
 11
9.158353
 21
5.198424
 31
0.0
210
0.0
220
0.0
230
1.0
  0
LINE
  5
421
100
AcDbEntity
  8
0
370
    35
390
0
 62
     7
 48
0.000058
100
AcDbLine
 10
9.158353
 20
5.198424
 30
0.0
 11
9.158897
 21
5.196185
 31
0.0
210
0.0
220
0.0
230
1.0
  0
LINE
  5
422
100
AcDbEntity
  8
0
370
    35
390
0
 62
     7
 48
0.000098
100
AcDbLine
 10
9.158897
 20
5.196185
 30
0.0
 11
9.15975
 21
5.192375
 31
0.0
210
0.0
220
0.0
230
1.0
  0
LINE
  5
423
100
AcDbEntity
  8
0
370
    35
390
0
 62
     7
 48
0.000037
100
AcDbLine
 10
9.15975
 20
5.192375
 30
0.0
 11
9.160059
 21
5.190922
 31
0.0
210
0.0
220
0.0
230
1.0
  0
LINE
  5
424
100
AcDbEntity
  8
0
370
    35
390
0
 62
     7
 48
0.000311
100
AcDbLine
 10
9.160059
 20
5.190922
 30
0.0
 11
9.172498
 21
5.190799
 31
0.0
210
0.0
220
0.0
230
1.0
  0
LINE
  5
425
100
AcDbEntity
  8
0
370
    35
390
0
 62
     7
 48
0.000061
100
AcDbLine
 10
9.172498
 20
5.190799
 30
0.0
 11
9.171945
 21
5.193196
 31
0.0
210
0.0
220
0.0
230
1.0
  0
LINE
  5
426
100
AcDbEntity
  8
0
370
    35
390
0
 62
     7
 48
0.000274
100
AcDbLine
 10
9.171945
 20
5.193196
 30
0.0
 11
9.160968
 21
5.193304
 31
0.0
210
0.0
220
0.0
230
1.0
  0
LINE
  5
427
100
AcDbEntity
  8
0
370
    35
390
0
 62
     7
 48
0.000029
100
AcDbLine
 10
9.160968
 20
5.193304
 30
0.0
 11
9.160678
 21
5.194443
 31
0.0
210
0.0
220
0.0
230
1.0
  0
LINE
  5
428
100
AcDbEntity
  8
0
370
    35
390
0
 62
     7
 48
0.000025
100
AcDbLine
 10
9.160678
 20
5.194443
 30
0.0
 11
9.160421
 21
5.19543
 31
0.0
210
0.0
220
0.0
230
1.0
  0
LINE
  5
429
100
AcDbEntity
  8
0
370
    35
390
0
 62
     7
 48
0.000026
100
AcDbLine
 10
9.160421
 20
5.19543
 30
0.0
 11
9.160165
 21
5.196442
 31
0.0
210
0.0
220
0.0
230
1.0
  0
LINE
  5
42A
100
AcDbEntity
  8
0
370
    35
390
0
 62
     7
 48
0.000027
100
AcDbLine
 10
9.160165
 20
5.196442
 30
0.0
 11
9.15991
 21
5.197479
 31
0.0
210
0.0
220
0.0
230
1.0
  0
LINE
  5
42B
100
AcDbEntity
  8
0
370
    35
390
0
 62
     7
 48
0.000027
100
AcDbLine
 10
9.15991
 20
5.197479
 30
0.0
 11
9.159655
 21
5.198541
 31
0.0
210
0.0
220
0.0
230
1.0
  0
LINE
  5
42C
100
AcDbEntity
  8
0
370
    35
390
0
 62
     7
 48
0.000028
100
AcDbLine
 10
9.159655
 20
5.198541
 30
0.0
 11
9.159401
 21
5.199628
 31
0.0
210
0.0
220
0.0
230
1.0
  0
LINE
  5
42D
100
AcDbEntity
  8
0
370
    35
390
0
 62
     7
 48
0.000039
100
AcDbLine
 10
9.159401
 20
5.199628
 30
0.0
 11
9.159073
 21
5.20117
 31
0.0
210
0.0
220
0.0
230
1.0
  0
LINE
  5
42E
100
AcDbEntity
  8
0
370
    35
390
0
 62
     7
 48
0.000036
100
AcDbLine
 10
9.159073
 20
5.20117
 30
0.0
 11
9.158829
 21
5.202592
 31
0.0
210
0.0
220
0.0
230
1.0
  0
LINE
  5
42F
100
AcDbEntity
  8
0
370
    35
390
0
 62
     7
 48
0.000033
100
AcDbLine
 10
9.158829
 20
5.202592
 30
0.0
 11
9.158669
 21
5.203893
 31
0.0
210
0.0
220
0.0
230
1.0
  0
LINE
  5
430
100
AcDbEntity
  8
0
370
    35
390
0
 62
     7
 48
0.00003
100
AcDbLine
 10
9.158669
 20
5.203893
 30
0.0
 11
9.158593
 21
5.205072
 31
0.0
210
0.0
220
0.0
230
1.0
  0
LINE
  5
431
100
AcDbEntity
  8
0
370
    35
390
0
 62
     7
 48
0.000026
100
AcDbLine
 10
9.158593
 20
5.205072
 30
0.0
 11
9.158601
 21
5.206132
 31
0.0
210
0.0
220
0.0
230
1.0
  0
LINE
  5
432
100
AcDbEntity
  8
0
370
    35
390
0
 62
     7
 48
0.000024
100
AcDbLine
 10
9.158601
 20
5.206132
 30
0.0
 11
9.158694
 21
5.20707
 31
0.0
210
0.0
220
0.0
230
1.0
  0
LINE
  5
433
100
AcDbEntity
  8
0
370
    35
390
0
 62
     7
 48
0.000021
100
AcDbLine
 10
9.158694
 20
5.20707
 30
0.0
 11
9.158871
 21
5.207887
 31
0.0
210
0.0
220
0.0
230
1.0
  0
LINE
  5
434
100
AcDbEntity
  8
0
370
    35
390
0
 62
     7
 48
0.000019
100
AcDbLine
 10
9.158871
 20
5.207887
 30
0.0
 11
9.159131
 21
5.208584
 31
0.0
210
0.0
220
0.0
230
1.0
  0
LINE
  5
435
100
AcDbEntity
  8
0
370
    35
390
0
 62
     7
 48
0.000017
100
AcDbLine
 10
9.159131
 20
5.208584
 30
0.0
 11
9.159476
 21
5.209161
 31
0.0
210
0.0
220
0.0
230
1.0
  0
LINE
  5
436
100
AcDbEntity
  8
0
370
    35
390
0
 62
     7
 48
0.000016
100
AcDbLine
 10
9.159476
 20
5.209161
 30
0.0
 11
9.159905
 21
5.209616
 31
0.0
210
0.0
220
0.0
230
1.0
  0
LINE
  5
437
100
AcDbEntity
  8
0
370
    35
390
0
 62
     7
 48
0.000021
100
AcDbLine
 10
9.159905
 20
5.209616
 30
0.0
 11
9.159618
 21
5.208837
 31
0.0
210
0.0
220
0.0
230
1.0
  0
LINE
  5
438
100
AcDbEntity
  8
0
370
    35
390
0
 62
     7
 48
0.000021
100
AcDbLine
 10
9.159618
 20
5.208837
 30
0.0
 11
9.159403
 21
5.208031
 31
0.0
210
0.0
220
0.0
230
1.0
  0
LINE
  5
439
100
AcDbEntity
  8
0
370
    35
390
0
 62
     7
 48
0.000021
100
AcDbLine
 10
9.159403
 20
5.208031
 30
0.0
 11
9.159259
 21
5.207198
 31
0.0
210
0.0
220
0.0
230
1.0
  0
LINE
  5
43A
100
AcDbEntity
  8
0
370
    35
390
0
 62
     7
 48
0.000022
100
AcDbLine
 10
9.159259
 20
5.207198
 30
0.0
 11
9.159185
 21
5.206337
 31
0.0
210
0.0
220
0.0
230
1.0
  0
LINE
  5
43B
100
AcDbEntity
  8
0
370
    35
390
0
 62
     7
 48
0.000022
100
AcDbLine
 10
9.159185
 20
5.206337
 30
0.0
 11
9.159183
 21
5.205449
 31
0.0
210
0.0
220
0.0
230
1.0
  0
LINE
  5
43C
100
AcDbEntity
  8
0
370
    35
390
0
 62
     7
 48
0.000025
100
AcDbLine
 10
9.159183
 20
5.205449
 30
0.0
 11
9.159257
 21
5.20445
 31
0.0
210
0.0
220
0.0
230
1.0
  0
LINE
  5
43D
100
AcDbEntity
  8
0
370
    35
390
0
 62
     7
 48
0.000014
100
AcDbLine
 10
9.159257
 20
5.20445
 30
0.0
 11
9.159323
 21
5.203876
 31
0.0
210
0.0
220
0.0
230
1.0
  0
LINE
  5
43E
100
AcDbEntity
  8
0
370
    35
390
0
 62
     7
 48
0.000016
100
AcDbLine
 10
9.159323
 20
5.203876
 30
0.0
 11
9.159411
 21
5.203253
 31
0.0
210
0.0
220
0.0
230
1.0
  0
LINE
  5
43F
100
AcDbEntity
  8
0
370
    35
390
0
 62
     7
 48
0.000017
100
AcDbLine
 10
9.159411
 20
5.203253
 30
0.0
 11
9.159518
 21
5.202581
 31
0.0
210
0.0
220
0.0
230
1.0
  0
LINE
  5
440
100
AcDbEntity
  8
0
370
    35
390
0
 62
     7
 48
0.000018
100
AcDbLine
 10
9.159518
 20
5.202581
 30
0.0
 11
9.159645
 21
5.20186
 31
0.0
210
0.0
220
0.0
230
1.0
  0
LINE
  5
441
100
AcDbEntity
  8
0
370
    35
390
0
 62
     7
 48
0.00002
100
AcDbLine
 10
9.159645
 20
5.20186
 30
0.0
 11
9.159792
 21
5.201089
 31
0.0
210
0.0
220
0.0
230
1.0
  0
LINE
  5
442
100
AcDbEntity
  8
0
370
    35
390
0
 62
     7
 48
0.000021
100
AcDbLine
 10
9.159792
 20
5.201089
 30
0.0
 11
9.15996
 21
5.20027
 31
0.0
210
0.0
220
0.0
230
1.0
  0
LINE
  5
443
100
AcDbEntity
  8
0
370
    35
390
0
 62
     7
 48
0.000022
100
AcDbLine
 10
9.15996
 20
5.20027
 30
0.0
 11
9.160147
 21
5.1994
 31
0.0
210
0.0
220
0.0
230
1.0
  0
LINE
  5
444
100
AcDbEntity
  8
0
370
    35
390
0
 62
     7
 48
0.000024
100
AcDbLine
 10
9.160147
 20
5.1994
 30
0.0
 11
9.160355
 21
5.198483
 31
0.0
210
0.0
220
0.0
230
1.0
  0
LINE
  5
445
100
AcDbEntity
  8
0
370
    35
390
0
 62
     7
 48
0.000018
100
AcDbLine
 10
9.160355
 20
5.198483
 30
0.0
 11
9.160524
 21
5.197774
 31
0.0
210
0.0
220
0.0
230
1.0
  0
LINE
  5
446
100
AcDbEntity
  8
0
370
    35
390
0
 62
     7
 48
0.00002
100
AcDbLine
 10
9.160524
 20
5.197774
 30
0.0
 11
9.160719
 21
5.196999
 31
0.0
210
0.0
220
0.0
230
1.0
  0
LINE
  5
447
100
AcDbEntity
  8
0
370
    35
390
0
 62
     7
 48
0.000022
100
AcDbLine
 10
9.160719
 20
5.196999
 30
0.0
 11
9.160939
 21
5.196159
 31
0.0
210
0.0
220
0.0
230
1.0
  0
LINE
  5
448
100
AcDbEntity
  8
0
370
    35
390
0
 62
     7
 48
0.000023
100
AcDbLine
 10
9.160939
 20
5.196159
 30
0.0
 11
9.161186
 21
5.195252
 31
0.0
210
0.0
220
0.0
230
1.0
  0
LINE
  5
449
100
AcDbEntity
  8
0
370
    35
390
0
 62
     7
 48
0.000025
100
AcDbLine
 10
9.161186
 20
5.195252
 30
0.0
 11
9.161459
 21
5.194278
 31
0.0
210
0.0
220
0.0
230
1.0
  0
LINE
  5
44A
100
AcDbEntity
  8
0
370
    35
390
0
 62
     7
 48
0.000256
100
AcDbLine
 10
9.161459
 20
5.194278
 30
0.0
 11
9.171718
 21
5.194177
 31
0.0
210
0.0
220
0.0
230
1.0
  0
LINE
  5
44B
100
AcDbEntity
  8
0
370
    35
390
0
 62
     7
 48
0.000152
100
AcDbLine
 10
9.171718
 20
5.194177
 30
0.0
 11
9.170348
 21
5.200108
 31
0.0
210
0.0
220
0.0
230
1.0
  0
LINE
  5
44C
100
AcDbEntity
  8
0
370
    35
390
0
 62
     7
 48
0.000217
100
AcDbLine
 10
9.170348
 20
5.200108
 30
0.0
 11
9.164405
 21
5.206436
 31
0.0
210
0.0
220
0.0
230
1.0
  0
LINE
  5
44D
100
AcDbEntity
  8
0
370
    35
390
0
 62
     7
 48
0.000278
100
AcDbLine
 10
9.164405
 20
5.206436
 30
0.0
 11
9.175541
 21
5.206326
 31
0.0
210
0.0
220
0.0
230
1.0
  0
LINE
  5
44E
100
AcDbEntity
  8
0
370
    35
390
0
 62
     7
 48
0.000179
100
AcDbLine
 10
9.175541
 20
5.206326
 30
0.0
 11
9.172653
 21
5.199772
 31
0.0
210
0.0
220
0.0
230
1.0
  0
LINE
  5
44F
100
AcDbEntity
  8
0
370
    35
390
0
 62
     7
 48
0.000231
100
AcDbLine
 10
9.172653
 20
5.199772
 30
0.0
 11
9.174731
 21
5.190777
 31
0.0
210
0.0
220
0.0
230
1.0
  0
LINE
  5
450
100
AcDbEntity
  8
0
370
    35
390
0
 62
     7
 48
0.000335
100
AcDbLine
 10
9.174731
 20
5.190777
 30
0.0
 11
9.188127
 21
5.190645
 31
0.0
210
0.0
220
0.0
230
1.0
  0
LINE
  5
451
100
AcDbEntity
  8
0
370
    35
390
0
 62
     7
 48
0.000137
100
AcDbLine
 10
9.188127
 20
5.190645
 30
0.0
 11
9.19042
 21
5.195639
 31
0.0
210
0.0
220
0.0
230
1.0
  0
LINE
  5
452
100
AcDbEntity
  8
0
370
    35
390
0
 62
     7
 48
0.000495
100
AcDbLine
 10
9.19042
 20
5.195639
 30
0.0
 11
9.194875
 21
5.176354
 31
0.0
210
0.0
220
0.0
230
1.0
  0
LINE
  5
453
100
AcDbEntity
  8
0
370
    35
390
0
 62
     7
 48
0.000203
100
AcDbLine
 10
9.194875
 20
5.176354
 30
0.0
 11
9.189941
 21
5.18279
 31
0.0
210
0.0
220
0.0
230
1.0
  0
LINE
  5
454
100
AcDbEntity
  8
0
370
    35
390
0
 62
     7
 48
0.000286
100
AcDbLine
 10
9.189941
 20
5.18279
 30
0.0
 11
9.178512
 21
5.182903
 31
0.0
210
0.0
220
0.0
230
1.0
  0
LINE
  5
455
100
AcDbEntity
  8
0
370
    35
390
0
 62
     7
 48
0.000015
100
AcDbLine
 10
9.178512
 20
5.182903
 30
0.0
 11
9.178665
 21
5.182305
 31
0.0
210
0.0
220
0.0
230
1.0
  0
LINE
  5
456
100
AcDbEntity
  8
0
370
    35
390
0
 62
     7
 48
0.000015
100
AcDbLine
 10
9.178665
 20
5.182305
 30
0.0
 11
9.178846
 21
5.181722
 31
0.0
210
0.0
220
0.0
230
1.0
  0
LINE
  5
457
100
AcDbEntity
  8
0
370
    35
390
0
 62
     7
 48
0.000015
100
AcDbLine
 10
9.178846
 20
5.181722
 30
0.0
 11
9.179054
 21
5.181154
 31
0.0
210
0.0
220
0.0
230
1.0
  0
LINE
  5
458
100
AcDbEntity
  8
0
370
    35
390
0
 62
     7
 48
0.000015
100
AcDbLine
 10
9.179054
 20
5.181154
 30
0.0
 11
9.17929
 21
5.1806
 31
0.0
210
0.0
220
0.0
230
1.0
  0
LINE
  5
459
100
AcDbEntity
  8
0
370
    35
390
0
 62
     7
 48
0.000015
100
AcDbLine
 10
9.17929
 20
5.1806
 30
0.0
 11
9.179553
 21
5.180061
 31
0.0
210
0.0
220
0.0
230
1.0
  0
LINE
  5
45A
100
AcDbEntity
  8
0
370
    35
390
0
 62
     7
 48
0.000015
100
AcDbLine
 10
9.179553
 20
5.180061
 30
0.0
 11
9.179843
 21
5.179537
 31
0.0
210
0.0
220
0.0
230
1.0
  0
LINE
  5
45B
100
AcDbEntity
  8
0
370
    35
390
0
 62
     7
 48
0.000015
100
AcDbLine
 10
9.179843
 20
5.179537
 30
0.0
 11
9.180161
 21
5.179027
 31
0.0
210
0.0
220
0.0
230
1.0
  0
LINE
  5
45C
100
AcDbEntity
  8
0
370
    35
390
0
 62
     7
 48
0.000015
100
AcDbLine
 10
9.180161
 20
5.179027
 30
0.0
 11
9.180506
 21
5.178532
 31
0.0
210
0.0
220
0.0
230
1.0
  0
LINE
  5
45D
100
AcDbEntity
  8
0
370
    35
390
0
 62
     7
 48
0.000015
100
AcDbLine
 10
9.180506
 20
5.178532
 30
0.0
 11
9.180878
 21
5.178051
 31
0.0
210
0.0
220
0.0
230
1.0
  0
LINE
  5
45E
100
AcDbEntity
  8
0
370
    35
390
0
 62
     7
 48
0.000015
100
AcDbLine
 10
9.180878
 20
5.178051
 30
0.0
 11
9.181278
 21
5.177585
 31
0.0
210
0.0
220
0.0
230
1.0
  0
LINE
  5
45F
100
AcDbEntity
  8
0
370
    35
390
0
 62
     7
 48
0.000021
100
AcDbLine
 10
9.181278
 20
5.177585
 30
0.0
 11
9.180893
 21
5.176844
 31
0.0
210
0.0
220
0.0
230
1.0
  0
LINE
  5
460
100
AcDbEntity
  8
0
370
    35
390
0
 62
     7
 48
0.000016
100
AcDbLine
 10
9.180893
 20
5.176844
 30
0.0
 11
9.180461
 21
5.177318
 31
0.0
210
0.0
220
0.0
230
1.0
  0
LINE
  5
461
100
AcDbEntity
  8
0
370
    35
390
0
 62
     7
 48
0.000016
100
AcDbLine
 10
9.180461
 20
5.177318
 30
0.0
 11
9.180056
 21
5.177822
 31
0.0
210
0.0
220
0.0
230
1.0
  0
LINE
  5
462
100
AcDbEntity
  8
0
370
    35
390
0
 62
     7
 48
0.000016
100
AcDbLine
 10
9.180056
 20
5.177822
 30
0.0
 11
9.179678
 21
5.178354
 31
0.0
210
0.0
220
0.0
230
1.0
  0
LINE
  5
463
100
AcDbEntity
  8
0
370
    35
390
0
 62
     7
 48
0.000017
100
AcDbLine
 10
9.179678
 20
5.178354
 30
0.0
 11
9.179328
 21
5.178917
 31
0.0
210
0.0
220
0.0
230
1.0
  0
LINE
  5
464
100
AcDbEntity
  8
0
370
    35
390
0
 62
     7
 48
0.000017
100
AcDbLine
 10
9.179328
 20
5.178917
 30
0.0
 11
9.179004
 21
5.179508
 31
0.0
210
0.0
220
0.0
230
1.0
  0
LINE
  5
465
100
AcDbEntity
  8
0
370
    35
390
0
 62
     7
 48
0.000017
100
AcDbLine
 10
9.179004
 20
5.179508
 30
0.0
 11
9.178708
 21
5.180129
 31
0.0
210
0.0
220
0.0
230
1.0
  0
LINE
  5
466
100
AcDbEntity
  8
0
370
    35
390
0
 62
     7
 48
0.000018
100
AcDbLine
 10
9.178708
 20
5.180129
 30
0.0
 11
9.178439
 21
5.18078
 31
0.0
210
0.0
220
0.0
230
1.0
  0
LINE
  5
467
100
AcDbEntity
  8
0
370
    35
390
0
 62
     7
 48
0.000018
100
AcDbLine
 10
9.178439
 20
5.18078
 30
0.0
 11
9.178197
 21
5.181461
 31
0.0
210
0.0
220
0.0
230
1.0
  0
LINE
  5
468
100
AcDbEntity
  8
0
370
    35
390
0
 62
     7
 48
0.000019
100
AcDbLine
 10
9.178197
 20
5.181461
 30
0.0
 11
9.177982
 21
5.182171
 31
0.0
210
0.0
220
0.0
230
1.0
  0
LINE
  5
469
100
AcDbEntity
  8
0
370
    35
390
0
 62
     7
 48
0.000019
100
AcDbLine
 10
9.177982
 20
5.182171
 30
0.0
 11
9.177794
 21
5.18291
 31
0.0
210
0.0
220
0.0
230
1.0
  0
LINE
  5
46A
100
AcDbEntity
  8
0
370
    35
390
0
 62
     7
 48
0.000031
100
AcDbLine
 10
9.177794
 20
5.18291
 30
0.0
 11
9.176545
 21
5.182922
 31
0.0
210
0.0
220
0.0
230
1.0
  0
LINE
  5
46B
100
AcDbEntity
  8
0
370
    35
390
0
 62
     7
 48
0.000015
100
AcDbLine
 10
9.176545
 20
5.182922
 30
0.0
 11
9.176646
 21
5.182338
 31
0.0
210
0.0
220
0.0
230
1.0
  0
LINE
  5
46C
100
AcDbEntity
  8
0
370
    35
390
0
 62
     7
 48
0.000015
100
AcDbLine
 10
9.176646
 20
5.182338
 30
0.0
 11
9.176764
 21
5.181745
 31
0.0
210
0.0
220
0.0
230
1.0
  0
LINE
  5
46D
100
AcDbEntity
  8
0
370
    35
390
0
 62
     7
 48
0.000019
100
AcDbLine
 10
9.176764
 20
5.181745
 30
0.0
 11
9.176951
 21
5.181023
 31
0.0
210
0.0
220
0.0
230
1.0
  0
LINE
  5
46E
100
AcDbEntity
  8
0
370
    35
390
0
 62
     7
 48
0.000018
100
AcDbLine
 10
9.176951
 20
5.181023
 30
0.0
 11
9.177173
 21
5.180322
 31
0.0
210
0.0
220
0.0
230
1.0
  0
LINE
  5
46F
100
AcDbEntity
  8
0
370
    35
390
0
 62
     7
 48
0.000018
100
AcDbLine
 10
9.177173
 20
5.180322
 30
0.0
 11
9.177432
 21
5.179639
 31
0.0
210
0.0
220
0.0
230
1.0
  0
LINE
  5
470
100
AcDbEntity
  8
0
370
    35
390
0
 62
     7
 48
0.000018
100
AcDbLine
 10
9.177432
 20
5.179639
 30
0.0
 11
9.177726
 21
5.178976
 31
0.0
210
0.0
220
0.0
230
1.0
  0
LINE
  5
471
100
AcDbEntity
  8
0
370
    35
390
0
 62
     7
 48
0.000018
100
AcDbLine
 10
9.177726
 20
5.178976
 30
0.0
 11
9.178056
 21
5.178332
 31
0.0
210
0.0
220
0.0
230
1.0
  0
LINE
  5
472
100
AcDbEntity
  8
0
370
    35
390
0
 62
     7
 48
0.000018
100
AcDbLine
 10
9.178056
 20
5.178332
 30
0.0
 11
9.178422
 21
5.177707
 31
0.0
210
0.0
220
0.0
230
1.0
  0
LINE
  5
473
100
AcDbEntity
  8
0
370
    35
390
0
 62
     7
 48
0.000018
100
AcDbLine
 10
9.178422
 20
5.177707
 30
0.0
 11
9.178824
 21
5.177102
 31
0.0
210
0.0
220
0.0
230
1.0
  0
LINE
  5
474
100
AcDbEntity
  8
0
370
    35
390
0
 62
     7
 48
0.000018
100
AcDbLine
 10
9.178824
 20
5.177102
 30
0.0
 11
9.179262
 21
5.176516
 31
0.0
210
0.0
220
0.0
230
1.0
  0
LINE
  5
475
100
AcDbEntity
  8
0
370
    35
390
0
 62
     7
 48
0.000018
100
AcDbLine
 10
9.179262
 20
5.176516
 30
0.0
 11
9.179735
 21
5.175949
 31
0.0
210
0.0
220
0.0
230
1.0
  0
LINE
  5
476
100
AcDbEntity
  8
0
370
    35
390
0
 62
     7
 48
0.000019
100
AcDbLine
 10
9.179735
 20
5.175949
 30
0.0
 11
9.180245
 21
5.175401
 31
0.0
210
0.0
220
0.0
230
1.0
  0
LINE
  5
477
100
AcDbEntity
  8
0
370
    35
390
0
 62
     7
 48
0.000011
100
AcDbLine
 10
9.180245
 20
5.175401
 30
0.0
 11
9.179883
 21
5.17513
 31
0.0
210
0.0
220
0.0
230
1.0
  0
LINE
  5
478
100
AcDbEntity
  8
0
370
    35
390
0
 62
     7
 48
0.000021
100
AcDbLine
 10
9.179883
 20
5.17513
 30
0.0
 11
9.179132
 21
5.175533
 31
0.0
210
0.0
220
0.0
230
1.0
  0
LINE
  5
479
100
AcDbEntity
  8
0
370
    35
390
0
 62
     7
 48
0.000021
100
AcDbLine
 10
9.179132
 20
5.175533
 30
0.0
 11
9.178424
 21
5.176019
 31
0.0
210
0.0
220
0.0
230
1.0
  0
LINE
  5
47A
100
AcDbEntity
  8
0
370
    35
390
0
 62
     7
 48
0.000022
100
AcDbLine
 10
9.178424
 20
5.176019
 30
0.0
 11
9.177759
 21
5.17659
 31
0.0
210
0.0
220
0.0
230
1.0
  0
LINE
  5
47B
100
AcDbEntity
  8
0
370
    35
390
0
 62
     7
 48
0.000023
100
AcDbLine
 10
9.177759
 20
5.17659
 30
0.0
 11
9.177137
 21
5.177245
 31
0.0
210
0.0
220
0.0
230
1.0
  0
LINE
  5
47C
100
AcDbEntity
  8
0
370
    35
390
0
 62
     7
 48
0.000023
100
AcDbLine
 10
9.177137
 20
5.177245
 30
0.0
 11
9.176558
 21
5.177985
 31
0.0
210
0.0
220
0.0
230
1.0
  0
LINE
  5
47D
100
AcDbEntity
  8
0
370
    35
390
0
 62
     7
 48
0.000025
100
AcDbLine
 10
9.176558
 20
5.177985
 30
0.0
 11
9.176023
 21
5.178808
 31
0.0
210
0.0
220
0.0
230
1.0
  0
LINE
  5
47E
100
AcDbEntity
  8
0
370
    35
390
0
 62
     7
 48
0.000026
100
AcDbLine
 10
9.176023
 20
5.178808
 30
0.0
 11
9.175531
 21
5.179716
 31
0.0
210
0.0
220
0.0
230
1.0
  0
LINE
  5
47F
100
AcDbEntity
  8
0
370
    35
390
0
 62
     7
 48
0.000027
100
AcDbLine
 10
9.175531
 20
5.179716
 30
0.0
 11
9.175082
 21
5.180708
 31
0.0
210
0.0
220
0.0
230
1.0
  0
LINE
  5
480
100
AcDbEntity
  8
0
370
    35
390
0
 62
     7
 48
0.000029
100
AcDbLine
 10
9.175082
 20
5.180708
 30
0.0
 11
9.174675
 21
5.181784
 31
0.0
210
0.0
220
0.0
230
1.0
  0
LINE
  5
481
100
AcDbEntity
  8
0
370
    35
390
0
 62
     7
 48
0.00003
100
AcDbLine
 10
9.174675
 20
5.181784
 30
0.0
 11
9.174312
 21
5.182944
 31
0.0
210
0.0
220
0.0
230
1.0
  0
LINE
  5
482
100
AcDbEntity
  8
0
370
    35
390
0
 62
     7
 48
0.00028
100
AcDbLine
 10
9.174312
 20
5.182944
 30
0.0
 11
9.163096
 21
5.183055
 31
0.0
210
0.0
220
0.0
230
1.0
  0
LINE
  5
483
100
AcDbEntity
  8
0
370
    35
390
0
 62
     7
 48
0.000143
100
AcDbLine
 10
9.163096
 20
5.183055
 30
0.0
 11
9.160892
 21
5.177786
 31
0.0
210
0.0
220
0.0
230
1.0
  0
LINE
  5
484
100
AcDbEntity
  8
0
370
    35
390
0
 62
     7
 48
0.001046
100
AcDbLine
 10
9.160892
 20
5.177786
 30
0.0
 11
9.151475
 21
5.218556
 31
0.0
210
0.0
220
0.0
230
1.0
  0
LINE
  5
485
100
AcDbEntity
  8
0
370
    35
390
0
 62
     7
 48
0.000037
100
AcDbLine
 10
9.153538
 20
5.220434
 30
0.0
 11
9.154634
 21
5.219427
 31
0.0
210
0.0
220
0.0
230
1.0
  0
LINE
  5
486
100
AcDbEntity
  8
0
370
    35
390
0
 62
     7
 48
0.000035
100
AcDbLine
 10
9.154634
 20
5.219427
 30
0.0
 11
9.155695
 21
5.218504
 31
0.0
210
0.0
220
0.0
230
1.0
  0
LINE
  5
487
100
AcDbEntity
  8
0
370
    35
390
0
 62
     7
 48
0.000033
100
AcDbLine
 10
9.155695
 20
5.218504
 30
0.0
 11
9.156723
 21
5.217663
 31
0.0
210
0.0
220
0.0
230
1.0
  0
LINE
  5
488
100
AcDbEntity
  8
0
370
    35
390
0
 62
     7
 48
0.000031
100
AcDbLine
 10
9.156723
 20
5.217663
 30
0.0
 11
9.157717
 21
5.216907
 31
0.0
210
0.0
220
0.0
230
1.0
  0
LINE
  5
489
100
AcDbEntity
  8
0
370
    35
390
0
 62
     7
 48
0.000029
100
AcDbLine
 10
9.157717
 20
5.216907
 30
0.0
 11
9.158676
 21
5.216233
 31
0.0
210
0.0
220
0.0
230
1.0
  0
LINE
  5
48A
100
AcDbEntity
  8
0
370
    35
390
0
 62
     7
 48
0.000027
100
AcDbLine
 10
9.158676
 20
5.216233
 30
0.0
 11
9.159602
 21
5.215643
 31
0.0
210
0.0
220
0.0
230
1.0
  0
LINE
  5
48B
100
AcDbEntity
  8
0
370
    35
390
0
 62
     7
 48
0.000026
100
AcDbLine
 10
9.159602
 20
5.215643
 30
0.0
 11
9.160493
 21
5.215137
 31
0.0
210
0.0
220
0.0
230
1.0
  0
LINE
  5
48C
100
AcDbEntity
  8
0
370
    35
390
0
 62
     7
 48
0.000024
100
AcDbLine
 10
9.160493
 20
5.215137
 30
0.0
 11
9.16135
 21
5.214714
 31
0.0
210
0.0
220
0.0
230
1.0
  0
LINE
  5
48D
100
AcDbEntity
  8
0
370
    35
390
0
 62
     7
 48
0.000022
100
AcDbLine
 10
9.16135
 20
5.214714
 30
0.0
 11
9.162174
 21
5.214374
 31
0.0
210
0.0
220
0.0
230
1.0
  0
LINE
  5
48E
100
AcDbEntity
  8
0
370
    35
390
0
 62
     7
 48
0.000021
100
AcDbLine
 10
9.162174
 20
5.214374
 30
0.0
 11
9.161992
 21
5.213553
 31
0.0
210
0.0
220
0.0
230
1.0
  0
LINE
  5
48F
100
AcDbEntity
  8
0
370
    35
390
0
 62
     7
 48
0.000024
100
AcDbLine
 10
9.161992
 20
5.213553
 30
0.0
 11
9.16108
 21
5.213902
 31
0.0
210
0.0
220
0.0
230
1.0
  0
LINE
  5
490
100
AcDbEntity
  8
0
370
    35
390
0
 62
     7
 48
0.000026
100
AcDbLine
 10
9.16108
 20
5.213902
 30
0.0
 11
9.160151
 21
5.214335
 31
0.0
210
0.0
220
0.0
230
1.0
  0
LINE
  5
491
100
AcDbEntity
  8
0
370
    35
390
0
 62
     7
 48
0.000027
100
AcDbLine
 10
9.160151
 20
5.214335
 30
0.0
 11
9.159206
 21
5.214852
 31
0.0
210
0.0
220
0.0
230
1.0
  0
LINE
  5
492
100
AcDbEntity
  8
0
370
    35
390
0
 62
     7
 48
0.000028
100
AcDbLine
 10
9.159206
 20
5.214852
 30
0.0
 11
9.158244
 21
5.215452
 31
0.0
210
0.0
220
0.0
230
1.0
  0
LINE
  5
493
100
AcDbEntity
  8
0
370
    35
390
0
 62
     7
 48
0.00003
100
AcDbLine
 10
9.158244
 20
5.215452
 30
0.0
 11
9.157265
 21
5.216137
 31
0.0
210
0.0
220
0.0
230
1.0
  0
LINE
  5
494
100
AcDbEntity
  8
0
370
    35
390
0
 62
     7
 48
0.000031
100
AcDbLine
 10
9.157265
 20
5.216137
 30
0.0
 11
9.156269
 21
5.216906
 31
0.0
210
0.0
220
0.0
230
1.0
  0
LINE
  5
495
100
AcDbEntity
  8
0
370
    35
390
0
 62
     7
 48
0.000033
100
AcDbLine
 10
9.156269
 20
5.216906
 30
0.0
 11
9.155257
 21
5.217759
 31
0.0
210
0.0
220
0.0
230
1.0
  0
LINE
  5
496
100
AcDbEntity
  8
0
370
    35
390
0
 62
     7
 48
0.000035
100
AcDbLine
 10
9.155257
 20
5.217759
 30
0.0
 11
9.154227
 21
5.218696
 31
0.0
210
0.0
220
0.0
230
1.0
  0
LINE
  5
497
100
AcDbEntity
  8
0
370
    35
390
0
 62
     7
 48
0.000037
100
AcDbLine
 10
9.154227
 20
5.218696
 30
0.0
 11
9.153182
 21
5.219717
 31
0.0
210
0.0
220
0.0
230
1.0
  0
LINE
  5
498
100
AcDbEntity
  8
0
370
    35
390
0
 62
     7
 48
0.000038
100
AcDbLine
 10
9.153182
 20
5.219717
 30
0.0
 11
9.152119
 21
5.220822
 31
0.0
210
0.0
220
0.0
230
1.0
  0
LINE
  5
499
100
AcDbEntity
  8
0
370
    35
390
0
 62
     7
 48
0.000019
100
AcDbLine
 10
9.152119
 20
5.220822
 30
0.0
 11
9.152407
 21
5.221524
 31
0.0
210
0.0
220
0.0
230
1.0
  0
LINE
  5
49A
100
AcDbEntity
  8
0
370
    35
390
0
 62
     7
 48
0.000039
100
AcDbLine
 10
9.152407
 20
5.221524
 30
0.0
 11
9.153538
 21
5.220434
 31
0.0
210
0.0
220
0.0
230
1.0
  0
LINE
  5
49B
100
AcDbEntity
  8
0
370
    35
390
0
 62
     7
 48
0.000026
100
AcDbLine
 10
9.176155
 20
5.209181
 30
0.0
 11
9.175992
 21
5.208164
 31
0.0
210
0.0
220
0.0
230
1.0
  0
LINE
  5
49C
100
AcDbEntity
  8
0
370
    35
390
0
 62
     7
 48
0.000287
100
AcDbLine
 10
9.175992
 20
5.208164
 30
0.0
 11
9.16451
 21
5.208277
 31
0.0
210
0.0
220
0.0
230
1.0
  0
LINE
  5
49D
100
AcDbEntity
  8
0
370
    35
390
0
 62
     7
 48
0.000026
100
AcDbLine
 10
9.16451
 20
5.208277
 30
0.0
 11
9.164673
 21
5.209295
 31
0.0
210
0.0
220
0.0
230
1.0
  0
LINE
  5
49E
100
AcDbEntity
  8
0
370
    35
390
0
 62
     7
 48
0.000287
100
AcDbLine
 10
9.164673
 20
5.209295
 30
0.0
 11
9.176155
 21
5.209181
 31
0.0
210
0.0
220
0.0
230
1.0
  0
LINE
  5
49F
100
AcDbEntity
  8
0
370
    35
390
0
 62
     7
 48
0.000284
100
AcDbLine
 10
9.176183
 20
5.194133
 30
0.0
 11
9.187559
 21
5.194021
 31
0.0
210
0.0
220
0.0
230
1.0
  0
LINE
  5
4A0
100
AcDbEntity
  8
0
370
    35
390
0
 62
     7
 48
0.000201
100
AcDbLine
 10
9.187559
 20
5.194021
 30
0.0
 11
9.191757
 21
5.200876
 31
0.0
210
0.0
220
0.0
230
1.0
  0
LINE
  5
4A1
100
AcDbEntity
  8
0
370
    35
390
0
 62
     7
 48
0.000584
100
AcDbLine
 10
9.191757
 20
5.200876
 30
0.0
 11
9.197009
 21
5.178135
 31
0.0
210
0.0
220
0.0
230
1.0
  0
LINE
  5
4A2
100
AcDbEntity
  8
0
370
    35
390
0
 62
     7
 48
0.000027
100
AcDbLine
 10
9.197009
 20
5.178135
 30
0.0
 11
9.196518
 21
5.177161
 31
0.0
210
0.0
220
0.0
230
1.0
  0
LINE
  5
4A3
100
AcDbEntity
  8
0
370
    35
390
0
 62
     7
 48
0.000552
100
AcDbLine
 10
9.196518
 20
5.177161
 30
0.0
 11
9.191547
 21
5.198684
 31
0.0
210
0.0
220
0.0
230
1.0
  0
LINE
  5
4A4
100
AcDbEntity
  8
0
370
    35
390
0
 62
     7
 48
0.000165
100
AcDbLine
 10
9.191547
 20
5.198684
 30
0.0
 11
9.188105
 21
5.193036
 31
0.0
210
0.0
220
0.0
230
1.0
  0
LINE
  5
4A5
100
AcDbEntity
  8
0
370
    35
390
0
 62
     7
 48
0.00031
100
AcDbLine
 10
9.188105
 20
5.193036
 30
0.0
 11
9.175692
 21
5.193159
 31
0.0
210
0.0
220
0.0
230
1.0
  0
LINE
  5
4A6
100
AcDbEntity
  8
0
370
    35
390
0
 62
     7
 48
0.000203
100
AcDbLine
 10
9.175692
 20
5.193159
 30
0.0
 11
9.173869
 21
5.201053
 31
0.0
210
0.0
220
0.0
230
1.0
  0
LINE
  5
4A7
100
AcDbEntity
  8
0
370
    35
390
0
 62
     7
 48
0.00003
100
AcDbLine
 10
9.173869
 20
5.201053
 30
0.0
 11
9.174323
 21
5.202185
 31
0.0
210
0.0
220
0.0
230
1.0
  0
LINE
  5
4A8
100
AcDbEntity
  8
0
370
    35
390
0
 62
     7
 48
0.000207
100
AcDbLine
 10
9.174323
 20
5.202185
 30
0.0
 11
9.176183
 21
5.194133
 31
0.0
210
0.0
220
0.0
230
1.0
  0
ELLIPSE
  5
4A9
100
AcDbEntity
  8
0
370
    35
390
0
 62
     7
 48
0.03937
100
AcDbEllipse
 10
9.125559
 20
5.174503
 30
0.0
 11
0.0021325007018115
 21
-0.0052860609868816
 31
0.0
210
0.0
220
0.0
230
1.0
 40
0.616564
 41
0.0001131974608659
 42
3.1417058510507423
  0
ELLIPSE
  5
4AA
100
AcDbEntity
  8
0
370
    35
390
0
 62
     7
 48
0.03937
100
AcDbEllipse
 10
9.125559
 20
5.174503
 30
0.0
 11
0.0021325007018115
 21
-0.0052860609868816
 31
0.0
210
0.0
220
0.0
230
1.0
 40
0.616564
 41
6.0327159444489968
 42
6.2832985046404524
  0
ELLIPSE
  5
4AB
100
AcDbEntity
  8
0
370
    35
390
0
 62
     7
 48
0.03937
100
AcDbEllipse
 10
9.125559
 20
5.174503
 30
0.0
 11
0.0021325007018115
 21
-0.0052860609868816
 31
0.0
210
0.0
220
0.0
230
1.0
 40
0.616564
 41
3.1417058510506588
 42
6.032715944449067
  0
ELLIPSE
  5
4AC
100
AcDbEntity
  8
0
370
    35
390
0
 62
     7
 48
0.03937
100
AcDbEllipse
 10
9.16137
 20
5.25431
 30
0.0
 11
0.0021325007018115
 21
-0.0052860609868818
 31
0.0
210
0.0
220
0.0
230
1.0
 40
0.616564
 41
0.0001131974608958
 42
3.1417058510506317
  0
ELLIPSE
  5
4AD
100
AcDbEntity
  8
0
370
    35
390
0
 62
     7
 48
0.03937
100
AcDbEllipse
 10
9.16137
 20
5.25431
 30
0.0
 11
0.0021325007018115
 21
-0.0052860609868818
 31
0.0
210
0.0
220
0.0
230
1.0
 40
0.616564
 41
6.0327159444490182
 42
6.2832985046404835
  0
ELLIPSE
  5
4AE
100
AcDbEntity
  8
0
370
    35
390
0
 62
     7
 48
0.03937
100
AcDbEllipse
 10
9.16137
 20
5.25431
 30
0.0
 11
0.0021325007018115
 21
-0.0052860609868818
 31
0.0
210
0.0
220
0.0
230
1.0
 40
0.616564
 41
3.1417058510506664
 42
6.0327159444490199
  0
ELLIPSE
  5
4AF
100
AcDbEntity
  8
0
370
    35
390
0
 62
     7
 48
0.03937
100
AcDbEllipse
 10
9.128361
 20
5.231157
 30
0.0
 11
0.0021325007018116
 21
-0.0052860609868817
 31
0.0
210
0.0
220
0.0
230
1.0
 40
0.616564
 41
0.0001131974608436
 42
3.1417058510507201
  0
ELLIPSE
  5
4B0
100
AcDbEntity
  8
0
370
    35
390
0
 62
     7
 48
0.03937
100
AcDbEllipse
 10
9.128361
 20
5.231157
 30
0.0
 11
0.0021325007018116
 21
-0.0052860609868817
 31
0.0
210
0.0
220
0.0
230
1.0
 40
0.616564
 41
6.0327159444489826
 42
6.2832985046404284
  0
ELLIPSE
  5
4B1
100
AcDbEntity
  8
0
370
    35
390
0
 62
     7
 48
0.03937
100
AcDbEllipse
 10
9.128361
 20
5.231157
 30
0.0
 11
0.0021325007018116
 21
-0.0052860609868817
 31
0.0
210
0.0
220
0.0
230
1.0
 40
0.616564
 41
3.1417058510506366
 42
6.032715944449067
  0
ELLIPSE
  5
4B2
100
AcDbEntity
  8
0
370
    35
390
0
 62
     7
 48
0.03937
100
AcDbEllipse
 10
9.234297
 20
5.173429
 30
0.0
 11
0.0021325007018117
 21
-0.0052860609868817
 31
0.0
210
0.0
220
0.0
230
1.0
 40
0.616564
 41
0.0001131974608958
 42
3.141705851050689
  0
ELLIPSE
  5
4B3
100
AcDbEntity
  8
0
370
    35
390
0
 62
     7
 48
0.03937
100
AcDbEllipse
 10
9.234297
 20
5.173429
 30
0.0
 11
0.0021325007018117
 21
-0.0052860609868817
 31
0.0
210
0.0
220
0.0
230
1.0
 40
0.616564
 41
6.0327159444489844
 42
6.2832985046404817
  0
ELLIPSE
  5
4B4
100
AcDbEntity
  8
0
370
    35
390
0
 62
     7
 48
0.03937
100
AcDbEllipse
 10
9.234297
 20
5.173429
 30
0.0
 11
0.0021325007018117
 21
-0.0052860609868816
 31
0.0
210
0.0
220
0.0
230
1.0
 40
0.616564
 41
3.141705851050689
 42
6.032715944449067
  0
ELLIPSE
  5
4B5
100
AcDbEntity
  8
0
370
    35
390
0
 62
     7
 48
0.03937
100
AcDbEllipse
 10
9.205251
 20
5.230398
 30
0.0
 11
0.0021325007018116
 21
-0.0052860609868816
 31
0.0
210
0.0
220
0.0
230
1.0
 40
0.616564
 41
0.0001131974608958
 42
3.1417058510506064
  0
ELLIPSE
  5
4B6
100
AcDbEntity
  8
0
370
    35
390
0
 62
     7
 48
0.03937
100
AcDbEllipse
 10
9.205251
 20
5.230398
 30
0.0
 11
0.0021325007018116
 21
-0.0052860609868816
 31
0.0
210
0.0
220
0.0
230
1.0
 40
0.616564
 41
6.0327159444490324
 42
6.2832985046404817
  0
ELLIPSE
  5
4B7
100
AcDbEntity
  8
0
370
    35
390
0
 62
     7
 48
0.03937
100
AcDbEllipse
 10
9.205251
 20
5.230398
 30
0.0
 11
0.0021325007018115
 21
-0.0052860609868816
 31
0.0
210
0.0
220
0.0
230
1.0
 40
0.616564
 41
3.1417058510506068
 42
6.032715944449067
  0
ELLIPSE
  5
4B8
100
AcDbEntity
  8
0
370
    35
390
0
 62
     7
 48
0.03937
100
AcDbEllipse
 10
9.198486
 20
5.093623
 30
0.0
 11
0.0021325007018115
 21
-0.0052860609868817
 31
0.0
210
0.0
220
0.0
230
1.0
 40
0.616564
 41
3.1417058510506366
 42
6.2832985046405128
  0
ELLIPSE
  5
4B9
100
AcDbEntity
  8
0
370
    35
390
0
 62
     7
 48
0.03937
100
AcDbEllipse
 10
9.198486
 20
5.093623
 30
0.0
 11
0.0021325007018114
 21
-0.0052860609868817
 31
0.0
210
0.0
220
0.0
230
1.0
 40
0.616564
 41
2.8911232908591908
 42
3.1417058510506366
  0
ELLIPSE
  5
4BA
100
AcDbEntity
  8
0
370
    35
390
0
 62
     7
 48
0.03937
100
AcDbEllipse
 10
9.198486
 20
5.093623
 30
0.0
 11
0.0021325007018115
 21
-0.0052860609868817
 31
0.0
210
0.0
220
0.0
230
1.0
 40
0.616564
 41
0.0001131974608436
 42
2.8911232908592743
  0
ELLIPSE
  5
4BB
100
AcDbEntity
  8
0
370
    35
390
0
 62
     7
 48
0.03937
100
AcDbEllipse
 10
9.154605
 20
5.117535
 30
0.0
 11
0.0021325007018115
 21
-0.0052860609868817
 31
0.0
210
0.0
220
0.0
230
1.0
 40
0.616564
 41
3.141705851050689
 42
6.2832985046404302
  0
ELLIPSE
  5
4BC
100
AcDbEntity
  8
0
370
    35
390
0
 62
     7
 48
0.03937
100
AcDbEllipse
 10
9.154605
 20
5.117535
 30
0.0
 11
0.0021325007018116
 21
-0.0052860609868816
 31
0.0
210
0.0
220
0.0
230
1.0
 40
0.616564
 41
2.8911232908592401
 42
3.141705851050689
  0
ELLIPSE
  5
4BD
100
AcDbEntity
  8
0
370
    35
390
0
 62
     7
 48
0.03937
100
AcDbEllipse
 10
9.154605
 20
5.117535
 30
0.0
 11
0.0021325007018115
 21
-0.0052860609868817
 31
0.0
210
0.0
220
0.0
230
1.0
 40
0.616564
 41
0.0001131974608436
 42
2.8911232908593241
  0
ELLIPSE
  5
4BE
100
AcDbEntity
  8
0
370
    35
390
0
 62
     7
 48
0.03937
100
AcDbEllipse
 10
9.231495
 20
5.116775
 30
0.0
 11
0.0021325007018116
 21
-0.0052860609868817
 31
0.0
210
0.0
220
0.0
230
1.0
 40
0.616564
 41
3.1417058510507694
 42
6.2832985046403138
  0
ELLIPSE
  5
4BF
100
AcDbEntity
  8
0
370
    35
390
0
 62
     7
 48
0.03937
100
AcDbEllipse
 10
9.231495
 20
5.116775
 30
0.0
 11
0.0021325007018117
 21
-0.0052860609868817
 31
0.0
210
0.0
220
0.0
230
1.0
 40
0.616564
 41
2.8911232908592743
 42
3.1417058510507698
  0
ELLIPSE
  5
4C0
100
AcDbEntity
  8
0
370
    35
390
0
 62
     7
 48
0.03937
100
AcDbEllipse
 10
9.231495
 20
5.116775
 30
0.0
 11
0.0021325007018116
 21
-0.0052860609868816
 31
0.0
210
0.0
220
0.0
230
1.0
 40
0.616564
 41
0.0001131974608137
 42
2.8911232908593574
  0
LINE
  5
4C1
100
AcDbEntity
  8
0
370
    35
390
0
 62
     7
 48
0.00028
100
AcDbLine
 10
9.178474
 20
5.184623
 30
0.0
 11
9.167258
 21
5.184734
 31
0.0
210
0.0
220
0.0
230
1.0
  0
LINE
  5
4C2
100
AcDbEntity
  8
0
370
    35
390
0
 62
     7
 48
0.000021
100
AcDbLine
 10
9.17873
 20
5.183804
 30
0.0
 11
9.178474
 21
5.184623
 31
0.0
210
0.0
220
0.0
230
1.0
  0
LINE
  5
4C3
100
AcDbEntity
  8
0
370
    35
390
0
 62
     7
 48
0.000031
100
AcDbLine
 10
9.181956
 20
5.184589
 30
0.0
 11
9.180707
 21
5.184601
 31
0.0
210
0.0
220
0.0
230
1.0
  0
LINE
  5
4C4
100
AcDbEntity
  8
0
370
    35
390
0
 62
     7
 48
0.000007
100
AcDbLine
 10
9.182024
 20
5.18432
 30
0.0
 11
9.181956
 21
5.184589
 31
0.0
210
0.0
220
0.0
230
1.0
  0
LINE
  5
4C5
100
AcDbEntity
  8
0
370
    35
390
0
 62
     7
 48
0.000258
100
AcDbLine
 10
9.192998
 20
5.18448
 30
0.0
 11
9.182674
 21
5.184582
 31
0.0
210
0.0
220
0.0
230
1.0
  0
LINE
  5
4C6
100
AcDbEntity
  8
0
370
    35
390
0
 62
     7
 48
0.000133
100
AcDbLine
 10
9.173851
 20
5.202489
 30
0.0
 11
9.170197
 21
5.206379
 31
0.0
210
0.0
220
0.0
230
1.0
  0
LINE
  5
4C7
100
AcDbEntity
  8
0
370
    35
390
0
 62
     7
 48
0.000007
100
AcDbLine
 10
9.173779
 20
5.194898
 30
0.0
 11
9.17351
 21
5.1949
 31
0.0
210
0.0
220
0.0
230
1.0
  0
LINE
  5
4C8
100
AcDbEntity
  8
0
370
    35
390
0
 62
     7
 48
0.000133
100
AcDbLine
 10
9.158235
 20
5.208986
 30
0.0
 11
9.157034
 21
5.214188
 31
0.0
210
0.0
220
0.0
230
1.0
  0
LINE
  5
4C9
100
AcDbEntity
  8
0
370
    35
390
0
 62
     7
 48
0.000191
100
AcDbLine
 10
9.164129
 20
5.183472
 30
0.0
 11
9.162413
 21
5.190899
 31
0.0
210
0.0
220
0.0
230
1.0
  0
LINE
  5
4CA
100
AcDbEntity
  8
0
370
    35
390
0
 62
     7
 48
0.000112
100
AcDbLine
 10
9.163096
 20
5.183055
 30
0.0
 11
9.167258
 21
5.184734
 31
0.0
210
0.0
220
0.0
230
1.0
  0
LINE
  5
4CB
100
AcDbEntity
  8
0
370
    35
390
0
 62
     7
 48
0.000112
100
AcDbLine
 10
9.174312
 20
5.182944
 30
0.0
 11
9.178474
 21
5.184623
 31
0.0
210
0.0
220
0.0
230
1.0
  0
LINE
  5
4CC
100
AcDbEntity
  8
0
370
    35
390
0
 62
     7
 48
0.000052
100
AcDbLine
 10
9.174675
 20
5.181784
 30
0.0
 11
9.176607
 21
5.182563
 31
0.0
210
0.0
220
0.0
230
1.0
  0
LINE
  5
4CD
100
AcDbEntity
  8
0
370
    35
390
0
 62
     7
 48
0.000048
100
AcDbLine
 10
9.175082
 20
5.180708
 30
0.0
 11
9.176848
 21
5.181421
 31
0.0
210
0.0
220
0.0
230
1.0
  0
LINE
  5
4CE
100
AcDbEntity
  8
0
370
    35
390
0
 62
     7
 48
0.000044
100
AcDbLine
 10
9.175531
 20
5.179716
 30
0.0
 11
9.177157
 21
5.180372
 31
0.0
210
0.0
220
0.0
230
1.0
  0
LINE
  5
4CF
100
AcDbEntity
  8
0
370
    35
390
0
 62
     7
 48
0.000041
100
AcDbLine
 10
9.176023
 20
5.178808
 30
0.0
 11
9.177531
 21
5.179416
 31
0.0
210
0.0
220
0.0
230
1.0
  0
LINE
  5
4D0
100
AcDbEntity
  8
0
370
    35
390
0
 62
     7
 48
0.000037
100
AcDbLine
 10
9.176558
 20
5.177985
 30
0.0
 11
9.177947
 21
5.178545
 31
0.0
210
0.0
220
0.0
230
1.0
  0
LINE
  5
4D1
100
AcDbEntity
  8
0
370
    35
390
0
 62
     7
 48
0.000034
100
AcDbLine
 10
9.177137
 20
5.177245
 30
0.0
 11
9.178395
 21
5.177753
 31
0.0
210
0.0
220
0.0
230
1.0
  0
LINE
  5
4D2
100
AcDbEntity
  8
0
370
    35
390
0
 62
     7
 48
0.00003
100
AcDbLine
 10
9.177759
 20
5.17659
 30
0.0
 11
9.178871
 21
5.177039
 31
0.0
210
0.0
220
0.0
230
1.0
  0
LINE
  5
4D3
100
AcDbEntity
  8
0
370
    35
390
0
 62
     7
 48
0.000025
100
AcDbLine
 10
9.178424
 20
5.176019
 30
0.0
 11
9.179361
 21
5.176397
 31
0.0
210
0.0
220
0.0
230
1.0
  0
LINE
  5
4D4
100
AcDbEntity
  8
0
370
    35
390
0
 62
     7
 48
0.000019
100
AcDbLine
 10
9.179132
 20
5.175533
 30
0.0
 11
9.179852
 21
5.175823
 31
0.0
210
0.0
220
0.0
230
1.0
  0
LINE
  5
4D5
100
AcDbEntity
  8
0
370
    35
390
0
 62
     7
 48
0.000112
100
AcDbLine
 10
9.176545
 20
5.182922
 30
0.0
 11
9.180707
 21
5.184601
 31
0.0
210
0.0
220
0.0
230
1.0
  0
LINE
  5
4D6
100
AcDbEntity
  8
0
370
    35
390
0
 62
     7
 48
0.000112
100
AcDbLine
 10
9.177794
 20
5.18291
 30
0.0
 11
9.181956
 21
5.184589
 31
0.0
210
0.0
220
0.0
230
1.0
  0
LINE
  5
4D7
100
AcDbEntity
  8
0
370
    35
390
0
 62
     7
 48
0.000018
100
AcDbLine
 10
9.177982
 20
5.182171
 30
0.0
 11
9.178633
 21
5.182433
 31
0.0
210
0.0
220
0.0
230
1.0
  0
LINE
  5
4D8
100
AcDbEntity
  8
0
370
    35
390
0
 62
     7
 48
0.000017
100
AcDbLine
 10
9.178197
 20
5.181461
 30
0.0
 11
9.178846
 21
5.181723
 31
0.0
210
0.0
220
0.0
230
1.0
  0
LINE
  5
4D9
100
AcDbEntity
  8
0
370
    35
390
0
 62
     7
 48
0.000018
100
AcDbLine
 10
9.178439
 20
5.18078
 30
0.0
 11
9.1791
 21
5.181047
 31
0.0
210
0.0
220
0.0
230
1.0
  0
LINE
  5
4DA
100
AcDbEntity
  8
0
370
    35
390
0
 62
     7
 48
0.000018
100
AcDbLine
 10
9.178708
 20
5.180129
 30
0.0
 11
9.179386
 21
5.180403
 31
0.0
210
0.0
220
0.0
230
1.0
  0
LINE
  5
4DB
100
AcDbEntity
  8
0
370
    35
390
0
 62
     7
 48
0.000019
100
AcDbLine
 10
9.179004
 20
5.179508
 30
0.0
 11
9.179703
 21
5.17979
 31
0.0
210
0.0
220
0.0
230
1.0
  0
LINE
  5
4DC
100
AcDbEntity
  8
0
370
    35
390
0
 62
     7
 48
0.000019
100
AcDbLine
 10
9.179328
 20
5.178917
 30
0.0
 11
9.180048
 21
5.179207
 31
0.0
210
0.0
220
0.0
230
1.0
  0
LINE
  5
4DD
100
AcDbEntity
  8
0
370
    35
390
0
 62
     7
 48
0.00002
100
AcDbLine
 10
9.179678
 20
5.178354
 30
0.0
 11
9.180421
 21
5.178654
 31
0.0
210
0.0
220
0.0
230
1.0
  0
LINE
  5
4DE
100
AcDbEntity
  8
0
370
    35
390
0
 62
     7
 48
0.000021
100
AcDbLine
 10
9.180056
 20
5.177822
 30
0.0
 11
9.180818
 21
5.178129
 31
0.0
210
0.0
220
0.0
230
1.0
  0
LINE
  5
4DF
100
AcDbEntity
  8
0
370
    35
390
0
 62
     7
 48
0.000021
100
AcDbLine
 10
9.180461
 20
5.177318
 30
0.0
 11
9.181238
 21
5.177632
 31
0.0
210
0.0
220
0.0
230
1.0
  0
LINE
  5
4E0
100
AcDbEntity
  8
0
370
    35
390
0
 62
     7
 48
0.000112
100
AcDbLine
 10
9.178512
 20
5.182903
 30
0.0
 11
9.182674
 21
5.184582
 31
0.0
210
0.0
220
0.0
230
1.0
  0
LINE
  5
4E1
100
AcDbEntity
  8
0
370
    35
390
0
 62
     7
 48
0.000085
100
AcDbLine
 10
9.189941
 20
5.18279
 30
0.0
 11
9.193094
 21
5.184062
 31
0.0
210
0.0
220
0.0
230
1.0
  0
LINE
  5
4E2
100
AcDbEntity
  8
0
370
    35
390
0
 62
     7
 48
0.000085
100
AcDbLine
 10
9.188127
 20
5.190645
 30
0.0
 11
9.19128
 21
5.191917
 31
0.0
210
0.0
220
0.0
230
1.0
  0
LINE
  5
4E3
100
AcDbEntity
  8
0
370
    35
390
0
 62
     7
 48
0.00008
100
AcDbLine
 10
9.170348
 20
5.200108
 30
0.0
 11
9.173332
 21
5.201312
 31
0.0
210
0.0
220
0.0
230
1.0
  0
LINE
  5
4E4
100
AcDbEntity
  8
0
370
    35
390
0
 62
     7
 48
0.000055
100
AcDbLine
 10
9.171718
 20
5.194177
 30
0.0
 11
9.173756
 21
5.194999
 31
0.0
210
0.0
220
0.0
230
1.0
  0
LINE
  5
4E5
100
AcDbEntity
  8
0
370
    35
390
0
 62
     7
 48
0.000008
100
AcDbLine
 10
9.159476
 20
5.209161
 30
0.0
 11
9.159783
 21
5.209284
 31
0.0
210
0.0
220
0.0
230
1.0
  0
LINE
  5
4E6
100
AcDbEntity
  8
0
370
    35
390
0
 62
     7
 48
0.000013
100
AcDbLine
 10
9.159131
 20
5.208584
 30
0.0
 11
9.159601
 21
5.208774
 31
0.0
210
0.0
220
0.0
230
1.0
  0
LINE
  5
4E7
100
AcDbEntity
  8
0
370
    35
390
0
 62
     7
 48
0.000015
100
AcDbLine
 10
9.158871
 20
5.207887
 30
0.0
 11
9.159424
 21
5.20811
 31
0.0
210
0.0
220
0.0
230
1.0
  0
LINE
  5
4E8
100
AcDbEntity
  8
0
370
    35
390
0
 62
     7
 48
0.000016
100
AcDbLine
 10
9.158694
 20
5.20707
 30
0.0
 11
9.159277
 21
5.207305
 31
0.0
210
0.0
220
0.0
230
1.0
  0
LINE
  5
4E9
100
AcDbEntity
  8
0
370
    35
390
0
 62
     7
 48
0.000016
100
AcDbLine
 10
9.158601
 20
5.206132
 30
0.0
 11
9.159188
 21
5.206369
 31
0.0
210
0.0
220
0.0
230
1.0
  0
LINE
  5
4EA
100
AcDbEntity
  8
0
370
    35
390
0
 62
     7
 48
0.000016
100
AcDbLine
 10
9.158593
 20
5.205072
 30
0.0
 11
9.159193
 21
5.205314
 31
0.0
210
0.0
220
0.0
230
1.0
  0
LINE
  5
4EB
100
AcDbEntity
  8
0
370
    35
390
0
 62
     7
 48
0.000017
100
AcDbLine
 10
9.158669
 20
5.203893
 30
0.0
 11
9.159292
 21
5.204144
 31
0.0
210
0.0
220
0.0
230
1.0
  0
LINE
  5
4EC
100
AcDbEntity
  8
0
370
    35
390
0
 62
     7
 48
0.000017
100
AcDbLine
 10
9.158829
 20
5.202592
 30
0.0
 11
9.159474
 21
5.202852
 31
0.0
210
0.0
220
0.0
230
1.0
  0
LINE
  5
4ED
100
AcDbEntity
  8
0
370
    35
390
0
 62
     7
 48
0.000018
100
AcDbLine
 10
9.159073
 20
5.20117
 30
0.0
 11
9.159726
 21
5.201434
 31
0.0
210
0.0
220
0.0
230
1.0
  0
LINE
  5
4EE
100
AcDbEntity
  8
0
370
    35
390
0
 62
     7
 48
0.000017
100
AcDbLine
 10
9.159401
 20
5.199628
 30
0.0
 11
9.160042
 21
5.199887
 31
0.0
210
0.0
220
0.0
230
1.0
  0
LINE
  5
4EF
100
AcDbEntity
  8
0
370
    35
390
0
 62
     7
 48
0.000017
100
AcDbLine
 10
9.159655
 20
5.198541
 30
0.0
 11
9.160284
 21
5.198795
 31
0.0
210
0.0
220
0.0
230
1.0
  0
LINE
  5
4F0
100
AcDbEntity
  8
0
370
    35
390
0
 62
     7
 48
0.000017
100
AcDbLine
 10
9.15991
 20
5.197479
 30
0.0
 11
9.160535
 21
5.197731
 31
0.0
210
0.0
220
0.0
230
1.0
  0
LINE
  5
4F1
100
AcDbEntity
  8
0
370
    35
390
0
 62
     7
 48
0.000017
100
AcDbLine
 10
9.160165
 20
5.196442
 30
0.0
 11
9.160798
 21
5.196697
 31
0.0
210
0.0
220
0.0
230
1.0
  0
LINE
  5
4F2
100
AcDbEntity
  8
0
370
    35
390
0
 62
     7
 48
0.000017
100
AcDbLine
 10
9.160421
 20
5.19543
 30
0.0
 11
9.161067
 21
5.19569
 31
0.0
210
0.0
220
0.0
230
1.0
  0
LINE
  5
4F3
100
AcDbEntity
  8
0
370
    35
390
0
 62
     7
 48
0.000064
100
AcDbLine
 10
9.160968
 20
5.193304
 30
0.0
 11
9.163337
 21
5.19426
 31
0.0
210
0.0
220
0.0
230
1.0
  0
LINE
  5
4F4
100
AcDbEntity
  8
0
370
    35
390
0
 62
     7
 48
0.000055
100
AcDbLine
 10
9.171945
 20
5.193196
 30
0.0
 11
9.173982
 21
5.194018
 31
0.0
210
0.0
220
0.0
230
1.0
  0
LINE
  5
4F5
100
AcDbEntity
  8
0
370
    35
390
0
 62
     7
 48
0.000055
100
AcDbLine
 10
9.172498
 20
5.190799
 30
0.0
 11
9.174536
 21
5.191622
 31
0.0
210
0.0
220
0.0
230
1.0
  0
LINE
  5
4F6
100
AcDbEntity
  8
0
370
    35
390
0
 62
     7
 48
0.000111
100
AcDbLine
 10
9.168206
 20
5.166059
 30
0.0
 11
9.167181
 21
5.170391
 31
0.0
210
0.0
220
0.0
230
1.0
  0
LINE
  5
4F7
100
AcDbEntity
  8
0
370
    35
390
0
 62
     7
 48
0.000191
100
AcDbLine
 10
9.172673
 20
5.147178
 30
0.0
 11
9.170915
 21
5.154608
 31
0.0
210
0.0
220
0.0
230
1.0
  0
LINE
  5
4F8
100
AcDbEntity
  8
0
370
    35
390
0
 62
     7
 48
0.000098
100
AcDbLine
 10
9.176671
 20
5.130282
 30
0.0
 11
9.175772
 21
5.134081
 31
0.0
210
0.0
220
0.0
230
1.0
  0
LINE
  5
4F9
100
AcDbEntity
  8
0
370
    35
390
0
 62
     7
 48
0.00003
100
AcDbLine
 10
9.175998
 20
5.147696
 30
0.0
 11
9.174854
 21
5.148058
 31
0.0
210
0.0
220
0.0
230
1.0
  0
LINE
  5
4FA
100
AcDbEntity
  8
0
370
    35
390
0
 62
     7
 48
0.000625
100
AcDbLine
 10
9.201843
 20
5.147792
 30
0.0
 11
9.176848
 21
5.148039
 31
0.0
210
0.0
220
0.0
230
1.0
  0
LINE
  5
4FB
100
AcDbEntity
  8
0
370
    35
390
0
 62
     7
 48
0.000112
100
AcDbLine
 10
9.170693
 20
5.146379
 30
0.0
 11
9.174854
 21
5.148058
 31
0.0
210
0.0
220
0.0
230
1.0
  0
LINE
  5
4FC
100
AcDbEntity
  8
0
370
    35
390
0
 62
     7
 48
0.000017
100
AcDbLine
 10
9.172095
 20
5.145934
 30
0.0
 11
9.172724
 21
5.146188
 31
0.0
210
0.0
220
0.0
230
1.0
  0
LINE
  5
4FD
100
AcDbEntity
  8
0
370
    35
390
0
 62
     7
 48
0.000017
100
AcDbLine
 10
9.172612
 20
5.143578
 30
0.0
 11
9.173245
 21
5.143834
 31
0.0
210
0.0
220
0.0
230
1.0
  0
LINE
  5
4FE
100
AcDbEntity
  8
0
370
    35
390
0
 62
     7
 48
0.000017
100
AcDbLine
 10
9.172825
 20
5.142708
 30
0.0
 11
9.173453
 21
5.142961
 31
0.0
210
0.0
220
0.0
230
1.0
  0
LINE
  5
4FF
100
AcDbEntity
  8
0
370
    35
390
0
 62
     7
 48
0.000017
100
AcDbLine
 10
9.173051
 20
5.141888
 30
0.0
 11
9.173673
 21
5.142139
 31
0.0
210
0.0
220
0.0
230
1.0
  0
LINE
  5
500
100
AcDbEntity
  8
0
370
    35
390
0
 62
     7
 48
0.000017
100
AcDbLine
 10
9.17329
 20
5.141119
 30
0.0
 11
9.173908
 21
5.141368
 31
0.0
210
0.0
220
0.0
230
1.0
  0
LINE
  5
501
100
AcDbEntity
  8
0
370
    35
390
0
 62
     7
 48
0.000017
100
AcDbLine
 10
9.173541
 20
5.1404
 30
0.0
 11
9.17416
 21
5.140649
 31
0.0
210
0.0
220
0.0
230
1.0
  0
LINE
  5
502
100
AcDbEntity
  8
0
370
    35
390
0
 62
     7
 48
0.000017
100
AcDbLine
 10
9.173806
 20
5.139731
 30
0.0
 11
9.174428
 21
5.139982
 31
0.0
210
0.0
220
0.0
230
1.0
  0
LINE
  5
503
100
AcDbEntity
  8
0
370
    35
390
0
 62
     7
 48
0.000017
100
AcDbLine
 10
9.174083
 20
5.139113
 30
0.0
 11
9.174713
 21
5.139367
 31
0.0
210
0.0
220
0.0
230
1.0
  0
LINE
  5
504
100
AcDbEntity
  8
0
370
    35
390
0
 62
     7
 48
0.000018
100
AcDbLine
 10
9.174372
 20
5.138545
 30
0.0
 11
9.175024
 21
5.138808
 31
0.0
210
0.0
220
0.0
230
1.0
  0
LINE
  5
505
100
AcDbEntity
  8
0
370
    35
390
0
 62
     7
 48
0.000018
100
AcDbLine
 10
9.174675
 20
5.138028
 30
0.0
 11
9.175343
 21
5.138297
 31
0.0
210
0.0
220
0.0
230
1.0
  0
LINE
  5
506
100
AcDbEntity
  8
0
370
    35
390
0
 62
     7
 48
0.000019
100
AcDbLine
 10
9.17499
 20
5.137561
 30
0.0
 11
9.175699
 21
5.137847
 31
0.0
210
0.0
220
0.0
230
1.0
  0
LINE
  5
507
100
AcDbEntity
  8
0
370
    35
390
0
 62
     7
 48
0.000022
100
AcDbLine
 10
9.175668
 20
5.136768
 30
0.0
 11
9.176476
 21
5.137094
 31
0.0
210
0.0
220
0.0
230
1.0
  0
LINE
  5
508
100
AcDbEntity
  8
0
370
    35
390
0
 62
     7
 48
0.000024
100
AcDbLine
 10
9.176048
 20
5.136422
 30
0.0
 11
9.176923
 21
5.136775
 31
0.0
210
0.0
220
0.0
230
1.0
  0
LINE
  5
509
100
AcDbEntity
  8
0
370
    35
390
0
 62
     7
 48
0.000026
100
AcDbLine
 10
9.17646
 20
5.136105
 30
0.0
 11
9.177411
 21
5.136489
 31
0.0
210
0.0
220
0.0
230
1.0
  0
LINE
  5
50A
100
AcDbEntity
  8
0
370
    35
390
0
 62
     7
 48
0.000028
100
AcDbLine
 10
9.176901
 20
5.135818
 30
0.0
 11
9.177947
 21
5.13624
 31
0.0
210
0.0
220
0.0
230
1.0
  0
LINE
  5
50B
100
AcDbEntity
  8
0
370
    35
390
0
 62
     7
 48
0.000032
100
AcDbLine
 10
9.177374
 20
5.135562
 30
0.0
 11
9.178551
 21
5.136036
 31
0.0
210
0.0
220
0.0
230
1.0
  0
LINE
  5
50C
100
AcDbEntity
  8
0
370
    35
390
0
 62
     7
 48
0.000036
100
AcDbLine
 10
9.177878
 20
5.135335
 30
0.0
 11
9.179212
 21
5.135873
 31
0.0
210
0.0
220
0.0
230
1.0
  0
LINE
  5
50D
100
AcDbEntity
  8
0
370
    35
390
0
 62
     7
 48
0.000041
100
AcDbLine
 10
9.178412
 20
5.135138
 30
0.0
 11
9.179933
 21
5.135751
 31
0.0
210
0.0
220
0.0
230
1.0
  0
LINE
  5
50E
100
AcDbEntity
  8
0
370
    35
390
0
 62
     7
 48
0.000029
100
AcDbLine
 10
9.178977
 20
5.13497
 30
0.0
 11
9.180043
 21
5.1354
 31
0.0
210
0.0
220
0.0
230
1.0
  0
LINE
  5
50F
100
AcDbEntity
  8
0
370
    35
390
0
 62
     7
 48
0.000015
100
AcDbLine
 10
9.179573
 20
5.134833
 30
0.0
 11
9.180123
 21
5.135055
 31
0.0
210
0.0
220
0.0
230
1.0
  0
LINE
  5
510
100
AcDbEntity
  8
0
370
    35
390
0
 62
     7
 48
0.000112
100
AcDbLine
 10
9.172686
 20
5.14636
 30
0.0
 11
9.176848
 21
5.148039
 31
0.0
210
0.0
220
0.0
230
1.0
  0
LINE
  5
511
100
AcDbEntity
  8
0
370
    35
390
0
 62
     7
 48
0.000077
100
AcDbLine
 10
9.199132
 20
5.146098
 30
0.0
 11
9.20197
 21
5.147243
 31
0.0
210
0.0
220
0.0
230
1.0
  0
LINE
  5
512
100
AcDbEntity
  8
0
370
    35
390
0
 62
     7
 48
0.000071
100
AcDbLine
 10
9.197539
 20
5.153913
 30
0.0
 11
9.200183
 21
5.15498
 31
0.0
210
0.0
220
0.0
230
1.0
  0
LINE
  5
513
100
AcDbEntity
  8
0
370
    35
390
0
 62
     7
 48
0.000066
100
AcDbLine
 10
9.16451
 20
5.208277
 30
0.0
 11
9.166975
 21
5.209272
 31
0.0
210
0.0
220
0.0
230
1.0
  0
LINE
  5
514
100
AcDbEntity
  8
0
370
    35
390
0
 62
     7
 48
0.000023
100
AcDbLine
 10
9.162685
 20
5.175653
 30
0.0
 11
9.163552
 21
5.176003
 31
0.0
210
0.0
220
0.0
230
1.0
  0
LINE
  5
515
100
AcDbEntity
  8
0
370
    35
390
0
 62
     7
 48
0.000025
100
AcDbLine
 10
9.163274
 20
5.175104
 30
0.0
 11
9.164204
 21
5.175479
 31
0.0
210
0.0
220
0.0
230
1.0
  0
LINE
  5
516
100
AcDbEntity
  8
0
370
    35
390
0
 62
     7
 48
0.000027
100
AcDbLine
 10
9.163932
 20
5.174551
 30
0.0
 11
9.164915
 21
5.174948
 31
0.0
210
0.0
220
0.0
230
1.0
  0
LINE
  5
517
100
AcDbEntity
  8
0
370
    35
390
0
 62
     7
 48
0.000028
100
AcDbLine
 10
9.164657
 20
5.173993
 30
0.0
 11
9.165687
 21
5.174408
 31
0.0
210
0.0
220
0.0
230
1.0
  0
LINE
  5
518
100
AcDbEntity
  8
0
370
    35
390
0
 62
     7
 48
0.000029
100
AcDbLine
 10
9.165451
 20
5.173431
 30
0.0
 11
9.166519
 21
5.173862
 31
0.0
210
0.0
220
0.0
230
1.0
  0
LINE
  5
519
100
AcDbEntity
  8
0
370
    35
390
0
 62
     7
 48
0.00003
100
AcDbLine
 10
9.166312
 20
5.172864
 30
0.0
 11
9.167412
 21
5.173308
 31
0.0
210
0.0
220
0.0
230
1.0
  0
LINE
  5
51A
100
AcDbEntity
  8
0
370
    35
390
0
 62
     7
 48
0.00003
100
AcDbLine
 10
9.167241
 20
5.172293
 30
0.0
 11
9.168366
 21
5.172747
 31
0.0
210
0.0
220
0.0
230
1.0
  0
LINE
  5
51B
100
AcDbEntity
  8
0
370
    35
390
0
 62
     7
 48
0.000031
100
AcDbLine
 10
9.168238
 20
5.171717
 30
0.0
 11
9.169381
 21
5.172178
 31
0.0
210
0.0
220
0.0
230
1.0
  0
LINE
  5
51C
100
AcDbEntity
  8
0
370
    35
390
0
 62
     7
 48
0.000031
100
AcDbLine
 10
9.169303
 20
5.171136
 30
0.0
 11
9.170457
 21
5.171601
 31
0.0
210
0.0
220
0.0
230
1.0
  0
LINE
  5
51D
100
AcDbEntity
  8
0
370
    35
390
0
 62
     7
 48
0.000031
100
AcDbLine
 10
9.170436
 20
5.17055
 30
0.0
 11
9.171594
 21
5.171018
 31
0.0
210
0.0
220
0.0
230
1.0
  0
LINE
  5
51E
100
AcDbEntity
  8
0
370
    35
390
0
 62
     7
 48
0.000019
100
AcDbLine
 10
9.152119
 20
5.220822
 30
0.0
 11
9.152836
 21
5.221111
 31
0.0
210
0.0
220
0.0
230
1.0
  0
LINE
  5
51F
100
AcDbEntity
  8
0
370
    35
390
0
 62
     7
 48
0.000021
100
AcDbLine
 10
9.153182
 20
5.219717
 30
0.0
 11
9.153971
 21
5.220035
 31
0.0
210
0.0
220
0.0
230
1.0
  0
LINE
  5
520
100
AcDbEntity
  8
0
370
    35
390
0
 62
     7
 48
0.000023
100
AcDbLine
 10
9.154227
 20
5.218696
 30
0.0
 11
9.155079
 21
5.219039
 31
0.0
210
0.0
220
0.0
230
1.0
  0
LINE
  5
521
100
AcDbEntity
  8
0
370
    35
390
0
 62
     7
 48
0.000024
100
AcDbLine
 10
9.155257
 20
5.217759
 30
0.0
 11
9.15616
 21
5.218123
 31
0.0
210
0.0
220
0.0
230
1.0
  0
LINE
  5
522
100
AcDbEntity
  8
0
370
    35
390
0
 62
     7
 48
0.000026
100
AcDbLine
 10
9.156269
 20
5.216906
 30
0.0
 11
9.157216
 21
5.217288
 31
0.0
210
0.0
220
0.0
230
1.0
  0
LINE
  5
523
100
AcDbEntity
  8
0
370
    35
390
0
 62
     7
 48
0.000027
100
AcDbLine
 10
9.157265
 20
5.216137
 30
0.0
 11
9.158248
 21
5.216534
 31
0.0
210
0.0
220
0.0
230
1.0
  0
LINE
  5
524
100
AcDbEntity
  8
0
370
    35
390
0
 62
     7
 48
0.000027
100
AcDbLine
 10
9.158244
 20
5.215452
 30
0.0
 11
9.159259
 21
5.215862
 31
0.0
210
0.0
220
0.0
230
1.0
  0
LINE
  5
525
100
AcDbEntity
  8
0
370
    35
390
0
 62
     7
 48
0.000028
100
AcDbLine
 10
9.159206
 20
5.214852
 30
0.0
 11
9.160253
 21
5.215274
 31
0.0
210
0.0
220
0.0
230
1.0
  0
LINE
  5
526
100
AcDbEntity
  8
0
370
    35
390
0
 62
     7
 48
0.000029
100
AcDbLine
 10
9.160151
 20
5.214335
 30
0.0
 11
9.161234
 21
5.214771
 31
0.0
210
0.0
220
0.0
230
1.0
  0
LINE
  5
527
100
AcDbEntity
  8
0
370
    35
390
0
 62
     7
 48
0.000029
100
AcDbLine
 10
9.16108
 20
5.213902
 30
0.0
 11
9.162166
 21
5.21434
 31
0.0
210
0.0
220
0.0
230
1.0
  0
LINE
  5
528
100
AcDbEntity
  8
0
370
    35
390
0
 62
     7
 48
0.000003
100
AcDbLine
 10
9.198312
 20
5.157584
 30
0.0
 11
9.198211
 21
5.157585
 31
0.0
210
0.0
220
0.0
230
1.0
  0
LINE
  5
529
100
AcDbEntity
  8
0
370
    35
390
0
 62
     7
 48
0.000005
100
AcDbLine
 10
9.169203
 20
5.165925
 30
0.0
 11
9.169379
 21
5.165996
 31
0.0
210
0.0
220
0.0
230
1.0
  0
LINE
  5
52A
100
AcDbEntity
  8
0
370
    35
390
0
 62
     7
 48
0.000012
100
AcDbLine
 10
9.168872
 20
5.165526
 30
0.0
 11
9.169327
 21
5.165709
 31
0.0
210
0.0
220
0.0
230
1.0
  0
LINE
  5
52B
100
AcDbEntity
  8
0
370
    35
390
0
 62
     7
 48
0.000017
100
AcDbLine
 10
9.16862
 20
5.165068
 30
0.0
 11
9.169268
 21
5.165329
 31
0.0
210
0.0
220
0.0
230
1.0
  0
LINE
  5
52C
100
AcDbEntity
  8
0
370
    35
390
0
 62
     7
 48
0.000021
100
AcDbLine
 10
9.168446
 20
5.164551
 30
0.0
 11
9.169209
 21
5.164859
 31
0.0
210
0.0
220
0.0
230
1.0
  0
LINE
  5
52D
100
AcDbEntity
  8
0
370
    35
390
0
 62
     7
 48
0.000022
100
AcDbLine
 10
9.16835
 20
5.163975
 30
0.0
 11
9.169168
 21
5.164305
 31
0.0
210
0.0
220
0.0
230
1.0
  0
LINE
  5
52E
100
AcDbEntity
  8
0
370
    35
390
0
 62
     7
 48
0.000022
100
AcDbLine
 10
9.168331
 20
5.163325
 30
0.0
 11
9.169147
 21
5.163655
 31
0.0
210
0.0
220
0.0
230
1.0
  0
LINE
  5
52F
100
AcDbEntity
  8
0
370
    35
390
0
 62
     7
 48
0.000021
100
AcDbLine
 10
9.168387
 20
5.162513
 30
0.0
 11
9.16916
 21
5.162825
 31
0.0
210
0.0
220
0.0
230
1.0
  0
LINE
  5
530
100
AcDbEntity
  8
0
370
    35
390
0
 62
     7
 48
0.000019
100
AcDbLine
 10
9.168517
 20
5.161522
 30
0.0
 11
9.169237
 21
5.161813
 31
0.0
210
0.0
220
0.0
230
1.0
  0
LINE
  5
531
100
AcDbEntity
  8
0
370
    35
390
0
 62
     7
 48
0.000019
100
AcDbLine
 10
9.16861
 20
5.16096
 30
0.0
 11
9.169303
 21
5.16124
 31
0.0
210
0.0
220
0.0
230
1.0
  0
LINE
  5
532
100
AcDbEntity
  8
0
370
    35
390
0
 62
     7
 48
0.000018
100
AcDbLine
 10
9.168721
 20
5.160354
 30
0.0
 11
9.169391
 21
5.160624
 31
0.0
210
0.0
220
0.0
230
1.0
  0
LINE
  5
533
100
AcDbEntity
  8
0
370
    35
390
0
 62
     7
 48
0.000018
100
AcDbLine
 10
9.168851
 20
5.159703
 30
0.0
 11
9.169509
 21
5.159969
 31
0.0
210
0.0
220
0.0
230
1.0
  0
LINE
  5
534
100
AcDbEntity
  8
0
370
    35
390
0
 62
     7
 48
0.000018
100
AcDbLine
 10
9.169
 20
5.159008
 30
0.0
 11
9.169654
 21
5.159272
 31
0.0
210
0.0
220
0.0
230
1.0
  0
LINE
  5
535
100
AcDbEntity
  8
0
370
    35
390
0
 62
     7
 48
0.000018
100
AcDbLine
 10
9.169166
 20
5.158268
 30
0.0
 11
9.169827
 21
5.158535
 31
0.0
210
0.0
220
0.0
230
1.0
  0
LINE
  5
536
100
AcDbEntity
  8
0
370
    35
390
0
 62
     7
 48
0.000079
100
AcDbLine
 10
9.169682
 20
5.156147
 30
0.0
 11
9.172611
 21
5.157329
 31
0.0
210
0.0
220
0.0
230
1.0
  0
LINE
  5
537
100
AcDbEntity
  8
0
370
    35
390
0
 62
     7
 48
0.000018
100
AcDbLine
 10
9.200229
 20
5.161096
 30
0.0
 11
9.200884
 21
5.161361
 31
0.0
210
0.0
220
0.0
230
1.0
  0
LINE
  5
538
100
AcDbEntity
  8
0
370
    35
390
0
 62
     7
 48
0.000039
100
AcDbLine
 10
9.196893
 20
5.157054
 30
0.0
 11
9.198341
 21
5.157638
 31
0.0
210
0.0
220
0.0
230
1.0
  0
LINE
  5
539
100
AcDbEntity
  8
0
370
    35
390
0
 62
     7
 48
0.000018
100
AcDbLine
 10
9.173869
 20
5.201053
 30
0.0
 11
9.174524
 21
5.201317
 31
0.0
210
0.0
220
0.0
230
1.0
  0
LINE
  5
53A
100
AcDbEntity
  8
0
370
    35
390
0
 62
     7
 48
0.000064
100
AcDbLine
 10
9.175692
 20
5.193159
 30
0.0
 11
9.178062
 21
5.194115
 31
0.0
210
0.0
220
0.0
230
1.0
  0
LINE
  5
53B
100
AcDbEntity
  8
0
370
    35
390
0
 62
     7
 48
0.000018
100
AcDbLine
 10
9.191547
 20
5.198684
 30
0.0
 11
9.192202
 21
5.198948
 31
0.0
210
0.0
220
0.0
230
1.0
  0
LINE
  5
53C
100
AcDbEntity
  8
0
370
    35
390
0
 62
     7
 48
0.000041
100
AcDbLine
 10
9.187559
 20
5.194021
 30
0.0
 11
9.189078
 21
5.194634
 31
0.0
210
0.0
220
0.0
230
1.0
  0
ELLIPSE
  5
53D
100
AcDbEntity
  8
0
370
    35
390
0
 62
     7
 48
0.03937
100
AcDbEllipse
 10
9.18409
 20
5.175645
 30
0.0
 11
-0.0351862615798912
 21
0.0872200062835485
 31
0.0
210
0.0
220
0.0
230
1.0
 40
0.616564
 41
0.0384244418248379
 42
1.2871506504954808
  0
ELLIPSE
  5
53E
100
AcDbEntity
  8
0
370
    35
390
0
 62
     7
 48
0.03937
100
AcDbEllipse
 10
9.18409
 20
5.175645
 30
0.0
 11
-0.0351862615798912
 21
0.0872200062835485
 31
0.0
210
0.0
220
0.0
230
1.0
 40
0.616564
 41
1.3930909544790688
 42
2.0170744070418065
  0
ELLIPSE
  5
53F
100
AcDbEntity
  8
0
370
    35
390
0
 62
     7
 48
0.03937
100
AcDbEllipse
 10
9.18409
 20
5.175645
 30
0.0
 11
-0.0351862615798912
 21
0.0872200062835485
 31
0.0
210
0.0
220
0.0
230
1.0
 40
0.616564
 41
2.112272974479338
 42
2.891123290859257
  0
ELLIPSE
  5
540
100
AcDbEntity
  8
0
370
    35
390
0
 62
     7
 48
0.03937
100
AcDbEllipse
 10
9.18409
 20
5.175645
 30
0.0
 11
-0.0351862615798912
 21
0.0872200062835485
 31
0.0
210
0.0
220
0.0
230
1.0
 40
0.616564
 41
2.891123290859257
 42
3.1028168548309942
  0
ELLIPSE
  5
541
100
AcDbEntity
  8
0
370
    35
390
0
 62
     7
 48
0.03937
100
AcDbEllipse
 10
9.18409
 20
5.175645
 30
0.0
 11
-0.0277225091235507
 21
0.0687187928294624
 31
0.0
210
0.0
220
0.0
230
1.0
 40
0.616564
 41
3.141705851050681
 42
4.3738979648930485
  0
ELLIPSE
  5
542
100
AcDbEntity
  8
0
370
    35
390
0
 62
     7
 48
0.03937
100
AcDbEllipse
 10
9.18409
 20
5.175645
 30
0.0
 11
-0.0277225091235507
 21
0.0687187928294624
 31
0.0
210
0.0
220
0.0
230
1.0
 40
0.616564
 41
4.5031045471459255
 42
5.2390596863359473
  0
ELLIPSE
  5
543
100
AcDbEntity
  8
0
370
    35
390
0
 62
     7
 48
0.03937
100
AcDbEllipse
 10
9.18409
 20
5.175645
 30
0.0
 11
-0.0277225091235507
 21
0.0687187928294624
 31
0.0
210
0.0
220
0.0
230
1.0
 40
0.616564
 41
5.3508750282234718
 42
6.0327159444490492
  0
ELLIPSE
  5
544
100
AcDbEntity
  8
0
370
    35
390
0
 62
     7
 48
0.03937
100
AcDbEllipse
 10
9.18409
 20
5.175645
 30
0.0
 11
-0.0277225091235507
 21
0.0687187928294624
 31
0.0
210
0.0
220
0.0
230
1.0
 40
0.616564
 41
6.0327159444490528
 42
6.2832985046404737
  0
ELLIPSE
  5
545
100
AcDbEntity
  8
0
370
    35
390
0
 62
     7
 48
0.03937
100
AcDbEllipse
 10
9.12972
 20
5.176182
 30
0.0
 11
-0.0021325007018116
 21
0.0052860609868817
 31
0.0
210
0.0
220
0.0
230
1.0
 40
0.616564
 41
3.1417058510506783
 42
3.442601362409849
  0
ELLIPSE
  5
546
100
AcDbEntity
  8
0
370
    35
390
0
 62
     7
 48
0.03937
100
AcDbEllipse
 10
9.12972
 20
5.176182
 30
0.0
 11
-0.0021325007018116
 21
0.0052860609868817
 31
0.0
210
0.0
220
0.0
230
1.0
 40
0.616564
 41
5.4344152126367433
 42
6.0327159444490279
  0
ELLIPSE
  5
547
100
AcDbEntity
  8
0
370
    35
390
0
 62
     7
 48
0.03937
100
AcDbEllipse
 10
9.12972
 20
5.176182
 30
0.0
 11
-0.0021325007018116
 21
0.0052860609868817
 31
0.0
210
0.0
220
0.0
230
1.0
 40
0.616564
 41
6.0327159444490279
 42
6.283298504640471
  0
ELLIPSE
  5
548
100
AcDbEntity
  8
0
370
    35
390
0
 62
     7
 48
0.03937
100
AcDbEllipse
 10
9.165532
 20
5.255988
 30
0.0
 11
-0.0021325007018115
 21
0.0052860609868818
 31
0.0
210
0.0
220
0.0
230
1.0
 40
0.616564
 41
3.1417058510506779
 42
6.0327159444489915
  0
ELLIPSE
  5
549
100
AcDbEntity
  8
0
370
    35
390
0
 62
     7
 48
0.03937
100
AcDbEllipse
 10
9.165532
 20
5.255988
 30
0.0
 11
-0.0021325007018115
 21
0.0052860609868818
 31
0.0
210
0.0
220
0.0
230
1.0
 40
0.616564
 41
6.0327159444490261
 42
6.283298504640471
  0
ELLIPSE
  5
54A
100
AcDbEntity
  8
0
370
    35
390
0
 62
     7
 48
0.03937
100
AcDbEllipse
 10
9.132523
 20
5.232836
 30
0.0
 11
-0.0021325007018116
 21
0.0052860609868817
 31
0.0
210
0.0
220
0.0
230
1.0
 40
0.616564
 41
3.1417058510506779
 42
6.0327159444490261
  0
ELLIPSE
  5
54B
100
AcDbEntity
  8
0
370
    35
390
0
 62
     7
 48
0.03937
100
AcDbEllipse
 10
9.132523
 20
5.232836
 30
0.0
 11
-0.0021325007018116
 21
0.0052860609868817
 31
0.0
210
0.0
220
0.0
230
1.0
 40
0.616564
 41
6.0327159444490261
 42
6.283298504640471
  0
ELLIPSE
  5
54C
100
AcDbEntity
  8
0
370
    35
390
0
 62
     7
 48
0.03937
100
AcDbEllipse
 10
9.238459
 20
5.175108
 30
0.0
 11
-0.0021325007018116
 21
0.0052860609868817
 31
0.0
210
0.0
220
0.0
230
1.0
 40
0.616564
 41
3.1417058510506783
 42
3.4191606223491831
  0
ELLIPSE
  5
54D
100
AcDbEntity
  8
0
370
    35
390
0
 62
     7
 48
0.03937
100
AcDbEllipse
 10
9.238459
 20
5.175108
 30
0.0
 11
-0.0021325007018116
 21
0.0052860609868817
 31
0.0
210
0.0
220
0.0
230
1.0
 40
0.616564
 41
5.5442568703557704
 42
6.0327159444489862
  0
ELLIPSE
  5
54E
100
AcDbEntity
  8
0
370
    35
390
0
 62
     7
 48
0.03937
100
AcDbEllipse
 10
9.238459
 20
5.175108
 30
0.0
 11
-0.0021325007018116
 21
0.0052860609868817
 31
0.0
210
0.0
220
0.0
230
1.0
 40
0.616564
 41
6.0327159444490617
 42
6.283298504640471
  0
ELLIPSE
  5
54F
100
AcDbEntity
  8
0
370
    35
390
0
 62
     7
 48
0.03937
100
AcDbEllipse
 10
9.209413
 20
5.232077
 30
0.0
 11
-0.0021325007018115
 21
0.0052860609868818
 31
0.0
210
0.0
220
0.0
230
1.0
 40
0.616564
 41
3.1417058510506779
 42
4.3034317896930165
  0
ELLIPSE
  5
550
100
AcDbEntity
  8
0
370
    35
390
0
 62
     7
 48
0.03937
100
AcDbEllipse
 10
9.209413
 20
5.232077
 30
0.0
 11
-0.0021325007018115
 21
0.0052860609868818
 31
0.0
210
0.0
220
0.0
230
1.0
 40
0.616564
 41
6.1090757238159181
 42
6.283298504640471
  0
ELLIPSE
  5
551
100
AcDbEntity
  8
0
370
    35
390
0
 62
     7
 48
0.03937
100
AcDbEllipse
 10
9.202647
 20
5.095302
 30
0.0
 11
-0.0021325007018116
 21
0.0052860609868817
 31
0.0
210
0.0
220
0.0
230
1.0
 40
0.616564
 41
3.1417058510506779
 42
6.283298504640471
  0
ELLIPSE
  5
552
100
AcDbEntity
  8
0
370
    35
390
0
 62
     7
 48
0.03937
100
AcDbEllipse
 10
9.158767
 20
5.119213
 30
0.0
 11
-0.0021325007018115
 21
0.0052860609868818
 31
0.0
210
0.0
220
0.0
230
1.0
 40
0.616564
 41
6.1080254192038312
 42
6.283298504640471
  0
ELLIPSE
  5
553
100
AcDbEntity
  8
0
370
    35
390
0
 62
     7
 48
0.03937
100
AcDbEllipse
 10
9.158767
 20
5.119213
 30
0.0
 11
-0.0021325007018115
 21
0.0052860609868818
 31
0.0
210
0.0
220
0.0
230
1.0
 40
0.616564
 41
3.1417058510506779
 42
4.4818649962807484
  0
ELLIPSE
  5
554
100
AcDbEntity
  8
0
370
    35
390
0
 62
     7
 48
0.03937
100
AcDbEllipse
 10
9.235657
 20
5.118454
 30
0.0
 11
-0.0021325007018116
 21
0.0052860609868817
 31
0.0
210
0.0
220
0.0
230
1.0
 40
0.616564
 41
3.1417058510506779
 42
6.283298504640471
  0
LINE
  5
555
100
AcDbEntity
  8
0
370
    35
390
0
 62
     7
 48
0.013089
100
AcDbLine
 10
8.813929
 20
2.896095
 30
0.0
 11
9.299465
 21
3.091969
 31
0.0
210
0.0
220
0.0
230
1.0
  0
LINE
  5
556
100
AcDbEntity
  8
0
370
    35
390
0
 62
     7
 48
0.013089
100
AcDbLine
 10
6.965688
 20
7.477318
 30
0.0
 11
7.451225
 21
7.673193
 31
0.0
210
0.0
220
0.0
230
1.0
  0
LINE
  5
557
100
AcDbEntity
  8
0
370
    35
390
0
 62
     7
 48
0.000112
100
AcDbLine
 10
9.211817
 20
5.106928
 30
0.0
 11
9.207655
 21
5.105249
 31
0.0
210
0.0
220
0.0
230
1.0
  0
LINE
  5
558
100
AcDbEntity
  8
0
370
    35
390
0
 62
     7
 48
0.000112
100
AcDbLine
 10
9.156362
 20
5.244362
 30
0.0
 11
9.152201
 21
5.242683
 31
0.0
210
0.0
220
0.0
230
1.0
  0
LINE
  5
559
100
AcDbEntity
  8
0
370
    35
390
0
 62
     7
 48
0.000112
100
AcDbLine
 10
9.131853
 20
5.170896
 30
0.0
 11
9.127692
 21
5.169217
 31
0.0
210
0.0
220
0.0
230
1.0
  0
LINE
  5
55A
100
AcDbEntity
  8
0
370
    35
390
0
 62
     7
 48
0.000112
100
AcDbLine
 10
9.127588
 20
5.181468
 30
0.0
 11
9.123426
 21
5.179789
 31
0.0
210
0.0
220
0.0
230
1.0
  0
LINE
  5
55B
100
AcDbEntity
  8
0
370
    35
390
0
 62
     7
 48
0.000112
100
AcDbLine
 10
9.167665
 20
5.250703
 30
0.0
 11
9.163503
 21
5.249024
 31
0.0
210
0.0
220
0.0
230
1.0
  0
LINE
  5
55C
100
AcDbEntity
  8
0
370
    35
390
0
 62
     7
 48
0.000112
100
AcDbLine
 10
9.163399
 20
5.261274
 30
0.0
 11
9.159238
 21
5.259595
 31
0.0
210
0.0
220
0.0
230
1.0
  0
LINE
  5
55D
100
AcDbEntity
  8
0
370
    35
390
0
 62
     7
 48
0.000112
100
AcDbLine
 10
9.134656
 20
5.22755
 30
0.0
 11
9.130494
 21
5.225871
 31
0.0
210
0.0
220
0.0
230
1.0
  0
LINE
  5
55E
100
AcDbEntity
  8
0
370
    35
390
0
 62
     7
 48
0.000112
100
AcDbLine
 10
9.13039
 20
5.238122
 30
0.0
 11
9.126228
 21
5.236443
 31
0.0
210
0.0
220
0.0
230
1.0
  0
LINE
  5
55F
100
AcDbEntity
  8
0
370
    35
390
0
 62
     7
 48
0.000112
100
AcDbLine
 10
9.240592
 20
5.169822
 30
0.0
 11
9.23643
 21
5.168143
 31
0.0
210
0.0
220
0.0
230
1.0
  0
LINE
  5
560
100
AcDbEntity
  8
0
370
    35
390
0
 62
     7
 48
0.000112
100
AcDbLine
 10
9.236326
 20
5.180394
 30
0.0
 11
9.232164
 21
5.178715
 31
0.0
210
0.0
220
0.0
230
1.0
  0
LINE
  5
561
100
AcDbEntity
  8
0
370
    35
390
0
 62
     7
 48
0.000112
100
AcDbLine
 10
9.211545
 20
5.226791
 30
0.0
 11
9.207384
 21
5.225112
 31
0.0
210
0.0
220
0.0
230
1.0
  0
LINE
  5
562
100
AcDbEntity
  8
0
370
    35
390
0
 62
     7
 48
0.000112
100
AcDbLine
 10
9.20728
 20
5.237363
 30
0.0
 11
9.203118
 21
5.235684
 31
0.0
210
0.0
220
0.0
230
1.0
  0
LINE
  5
563
100
AcDbEntity
  8
0
370
    35
390
0
 62
     7
 48
0.000112
100
AcDbLine
 10
9.200514
 20
5.100588
 30
0.0
 11
9.196353
 21
5.098909
 31
0.0
210
0.0
220
0.0
230
1.0
  0
LINE
  5
564
100
AcDbEntity
  8
0
370
    35
390
0
 62
     7
 48
0.000112
100
AcDbLine
 10
9.20478
 20
5.090016
 30
0.0
 11
9.200618
 21
5.088337
 31
0.0
210
0.0
220
0.0
230
1.0
  0
LINE
  5
565
100
AcDbEntity
  8
0
370
    35
390
0
 62
     7
 48
0.000112
100
AcDbLine
 10
9.156634
 20
5.124499
 30
0.0
 11
9.152472
 21
5.12282
 31
0.0
210
0.0
220
0.0
230
1.0
  0
LINE
  5
566
100
AcDbEntity
  8
0
370
    35
390
0
 62
     7
 48
0.000112
100
AcDbLine
 10
9.1609
 20
5.113928
 30
0.0
 11
9.156738
 21
5.112249
 31
0.0
210
0.0
220
0.0
230
1.0
  0
LINE
  5
567
100
AcDbEntity
  8
0
370
    35
390
0
 62
     7
 48
0.000112
100
AcDbLine
 10
9.233524
 20
5.12374
 30
0.0
 11
9.229362
 21
5.122061
 31
0.0
210
0.0
220
0.0
230
1.0
  0
LINE
  5
568
100
AcDbEntity
  8
0
370
    35
390
0
 62
     7
 48
0.000112
100
AcDbLine
 10
9.23779
 20
5.113168
 30
0.0
 11
9.233628
 21
5.111489
 31
0.0
210
0.0
220
0.0
230
1.0
  0
INSERT
  5
706
100
AcDbEntity
  8
0
370
     0
390
0
100
AcDbBlockReference
  2
BLOCK1
 10
0.0
 20
0.0
 30
0.0
210
0.0
220
0.0
230
1.0
  0
INSERT
  5
707
100
AcDbEntity
  8
0
370
     0
390
0
100
AcDbBlockReference
  2
BLOCK2
 10
0.0
 20
0.0
 30
0.0
210
0.0
220
0.0
230
1.0
  0
INSERT
  5
708
100
AcDbEntity
  8
0
370
     0
390
0
100
AcDbBlockReference
  2
BLOCK3
 10
0.0
 20
0.0
 30
0.0
210
0.0
220
0.0
230
1.0
  0
INSERT
  5
709
100
AcDbEntity
  8
0
370
     0
390
0
100
AcDbBlockReference
  2
BLOCK4
 10
0.0
 20
0.0
 30
0.0
210
0.0
220
0.0
230
1.0
  0
INSERT
  5
70A
100
AcDbEntity
  8
0
370
     0
390
0
100
AcDbBlockReference
  2
BLOCK5
 10
0.0
 20
0.0
 30
0.0
210
0.0
220
0.0
230
1.0
  0
INSERT
  5
70B
100
AcDbEntity
  8
0
370
     0
390
0
100
AcDbBlockReference
  2
BLOCK6
 10
0.0
 20
0.0
 30
0.0
210
0.0
220
0.0
230
1.0
  0
INSERT
  5
70C
100
AcDbEntity
  8
0
370
     0
390
0
100
AcDbBlockReference
  2
BLOCK7
 10
3.490845
 20
5.336128
 30
0.0
 41
0.38
 42
0.38
 43
0.38
210
0.0
220
0.0
230
1.0
  0
INSERT
  5
70D
100
AcDbEntity
  8
0
370
     0
390
0
100
AcDbBlockReference
  2
BLOCK8
 10
3.490845
 20
5.336128
 30
0.0
 41
0.38
 42
0.38
 43
0.38
210
0.0
220
0.0
230
1.0
  0
INSERT
  5
70E
100
AcDbEntity
  8
0
370
     0
390
0
100
AcDbBlockReference
  2
BLOCK9
 10
3.490845
 20
5.336128
 30
0.0
 41
0.38
 42
0.38
 43
0.38
210
0.0
220
0.0
230
1.0
  0
INSERT
  5
70F
100
AcDbEntity
  8
0
370
     0
390
0
100
AcDbBlockReference
  2
BLOCK10
 10
3.490845
 20
5.336128
 30
0.0
 41
0.38
 42
0.38
 43
0.38
210
0.0
220
0.0
230
1.0
  0
INSERT
  5
710
100
AcDbEntity
  8
0
370
     0
390
0
100
AcDbBlockReference
  2
BLOCK11
 10
3.490845
 20
5.336128
 30
0.0
 41
0.38
 42
0.38
 43
0.38
210
0.0
220
0.0
230
1.0
  0
INSERT
  5
711
100
AcDbEntity
  8
0
370
     0
390
0
100
AcDbBlockReference
  2
BLOCK12
 10
3.490845
 20
5.336128
 30
0.0
 41
0.38
 42
0.38
 43
0.38
210
0.0
220
0.0
230
1.0
  0
INSERT
  5
712
100
AcDbEntity
  8
0
370
     0
390
0
100
AcDbBlockReference
  2
BLOCK13
 10
3.490845
 20
5.336128
 30
0.0
 41
0.38
 42
0.38
 43
0.38
210
0.0
220
0.0
230
1.0
  0
INSERT
  5
713
100
AcDbEntity
  8
0
370
     0
390
0
100
AcDbBlockReference
  2
BLOCK14
 10
3.490845
 20
5.336128
 30
0.0
 41
0.38
 42
0.38
 43
0.38
210
0.0
220
0.0
230
1.0
  0
INSERT
  5
714
100
AcDbEntity
  8
0
370
     0
390
0
100
AcDbBlockReference
  2
BLOCK15
 10
3.490845
 20
1.143463
 30
0.0
 41
0.38
 42
0.38
 43
0.38
210
0.0
220
0.0
230
1.0
  0
INSERT
  5
715
100
AcDbEntity
  8
0
370
     0
390
0
100
AcDbBlockReference
  2
BLOCK16
 10
3.490845
 20
1.143463
 30
0.0
 41
0.38
 42
0.38
 43
0.38
210
0.0
220
0.0
230
1.0
  0
INSERT
  5
716
100
AcDbEntity
  8
0
370
     0
390
0
100
AcDbBlockReference
  2
BLOCK17
 10
3.490845
 20
1.143463
 30
0.0
 41
0.38
 42
0.38
 43
0.38
210
0.0
220
0.0
230
1.0
  0
INSERT
  5
717
100
AcDbEntity
  8
0
370
     0
390
0
100
AcDbBlockReference
  2
BLOCK18
 10
3.490845
 20
1.143463
 30
0.0
 41
0.38
 42
0.38
 43
0.38
210
0.0
220
0.0
230
1.0
  0
ENDSEC
  0
SECTION
  2
OBJECTS
  0
DICTIONARY
  5
19
100
AcDbDictionary
280
     0
281
     1
  3
ACAD_GROUP
350
1A
  3
ACAD_MLINESTYLE
350
1B
  3
ACAD_LAYOUT
350
1E
  3
ACAD_PLOTSETTINGS
350
22
  3
ACAD_PLOTSTYLENAME
350
1F
  3
ACAD_WIPEOUT_VARS
350
23
  0
DICTIONARY
  5
1A
102
{ACAD_REACTORS
330
19
102
}
100
AcDbDictionary
280
     0
281
     1
  0
DICTIONARY
  5
1B
102
{ACAD_REACTORS
330
19
102
}
100
AcDbDictionary
280
     0
281
     1
  3
Standard
350
1C
  0
MLINESTYLE
  5
1C
102
{ACAD_REACTORS
330
1B
102
}
100
AcDbMlineStyle
  2
Standard
 70
     0
  3

 62
     0
 51
90.0
 52
90.0
 71
     2
 49
0.5
 62
   256
  6
ByLayer
 49
-0.5
 62
   256
  6
ByLayer
  0
ACDBDICTIONARYWDFLT
  5
1F
102
{ACAD_REACTORS
330
19
102
}
100
AcDbDictionary
281
     1
  3
Normal
350
1D
100
AcDbDictionaryWithDefault
340
1D
  0
ACDBPLACEHOLDER
  5
1D
102
{ACAD_REACTORS
330
1F
102
}
  0
LAYOUT
  5
20
102
{ACAD_REACTORS
330
1E
102
}
100
AcDbPlotSettings
  1

  2

  4

  6

 40
0.0
 41
0.0
 42
0.0
 43
0.0
 44
0.0
 45
0.0
 46
0.0
 47
0.0
 48
0.0
 49
0.0
140
0.0
141
0.0
142
1.0
143
1.0
 70
  1024
 72
     0
 73
     0
 74
     0
  7

 75
     0
147
1.0
148
0.0
149
0.0
100
AcDbLayout
  1
Model
 70
     0
 71
     0
 10
0.0
 20
0.0
 11
0.0
 21
0.0
 12
0.0
 22
0.0
 32
0.0
 14
0.0
 24
0.0
 34
0.0
 15
0.0
 25
0.0
 35
0.0
146
0.0
 13
0.0
 23
0.0
 33
0.0
 16
0.0
 26
0.0
 36
0.0
 17
0.0
 27
0.0
 37
0.0
 76
     0
330
A
331
0
345
0
346
0
  0
LAYOUT
  5
21
102
{ACAD_REACTORS
330
1E
102
}
100
AcDbPlotSettings
  1

  2

  4

  6

 40
0.0
 41
0.0
 42
0.0
 43
0.0
 44
0.0
 45
0.0
 46
0.0
 47
0.0
 48
0.0
 49
0.0
140
0.0
141
0.0
142
1.0
143
1.0
 70
     0
 72
     0
 73
     0
 74
     0
  7

 75
     0
147
1.0
148
0.0
149
0.0
100
AcDbLayout
  1
Layout1
 70
     0
 71
     0
 10
0.0
 20
0.0
 11
0.0
 21
0.0
 12
0.0
 22
0.0
 32
0.0
 14
0.0
 24
0.0
 34
0.0
 15
0.0
 25
0.0
 35
0.0
146
0.0
 13
0.0
 23
0.0
 33
0.0
 16
0.0
 26
0.0
 36
0.0
 17
0.0
 27
0.0
 37
0.0
 76
     0
330
B
331
0
345
0
346
0
  0
DICTIONARY
  5
1E
102
{ACAD_REACTORS
330
19
102
}
100
AcDbDictionary
280
     0
281
     1
  3
Layout1
350
21
  3
Model
350
20
  0
DICTIONARY
  5
22
102
{ACAD_REACTORS
330
19
102
}
100
AcDbDictionary
280
     0
281
     1
  0
WIPEOUTVARIABLES
  5
23
100
AcDbWipeoutVariables
 70
     1
  0
ENDSEC
  0
EOF
