  0
SECTION
  2
HEADER
  9
$ACADVER
  1
AC1015
  9
$ACADMAINTVER
 70
     6
  9
$DWGCODEPAGE
  3
ANSI_1252
  9
$INSBASE
 10
0.0
 20
0.0
 30
0.0
  9
$EXTMIN
 10
0.0
 20
0.0
 30
0.0
  9
$EXTMAX
 10
43.636196
 20
5.043822
 30
2.0
  9
$LIMMIN
 10
0.0
 20
0.0
  9
$LIMMAX
 10
17.0
 20
11.0
  9
$ORTHOMODE
 70
     0
  9
$REGENMODE
 70
     1
  9
$FILLMODE
 70
     1
  9
$QTEXTMODE
 70
     0
  9
$MIRRTEXT
 70
     1
  9
$LTSCALE
 40
1.0
  9
$ATTMODE
 70
     1
  9
$TEXTSIZE
 40
0.2
  9
$TRACEWID
 40
0.05
  9
$TEXTSTYLE
  7
STANDARD
  9
$CLAYER
  8
0
  9
$CELTYPE
  6
ByLayer
  9
$CECOLOR
 62
   256
  9
$CELTSCALE
 40
1.0
  9
$DISPSILH
 70
     0
  9
$DIMSCALE
 40
1.0
  9
$DIMASZ
 40
0.18
  9
$DIMEXO
 40
0.0625
  9
$DIMDLI
 40
0.38
  9
$DIMRND
 40
0.0
  9
$DIMDLE
 40
0.0
  9
$DIMEXE
 40
0.18
  9
$DIMTP
 40
0.0
  9
$DIMTM
 40
0.0
  9
$DIMTXT
 40
0.18
  9
$DIMCEN
 40
0.09
  9
$DIMTSZ
 40
0.0
  9
$DIMTOL
 70
     0
  9
$DIMLIM
 70
     0
  9
$DIMTIH
 70
     1
  9
$DIMTOH
 70
     1
  9
$DIMSE1
 70
     0
  9
$DIMSE2
 70
     0
  9
$DIMTAD
 70
     0
  9
$DIMZIN
 70
     0
  9
$DIMBLK
  1

  9
$DIMASO
 70
     1
  9
$DIMSHO
 70
     1
  9
$DIMPOST
  1

  9
$DIMAPOST
  1

  9
$DIMALT
 70
     0
  9
$DIMALTD
 70
     2
  9
$DIMALTF
 40
25.4
  9
$DIMLFAC
 40
1.0
  9
$DIMTOFL
 70
     0
  9
$DIMTVP
 40
0.0
  9
$DIMTIX
 70
     0
  9
$DIMSOXD
 70
     0
  9
$DIMSAH
 70
     0
  9
$DIMBLK1
  1

  9
$DIMBLK2
  1

  9
$DIMSTYLE
  2
STANDARD
  9
$DIMCLRD
 70
     0
  9
$DIMCLRE
 70
     0
  9
$DIMCLRT
 70
     0
  9
$DIMTFAC
 40
1.0
  9
$DIMGAP
 40
0.09
  9
$DIMJUST
 70
     0
  9
$DIMSD1
 70
     0
  9
$DIMSD2
 70
     0
  9
$DIMTOLJ
 70
     1
  9
$DIMTZIN
 70
     0
  9
$DIMALTZ
 70
     0
  9
$DIMALTTZ
 70
     0
  9
$DIMUPT
 70
     0
  9
$DIMDEC
 70
     4
  9
$DIMTDEC
 70
     4
  9
$DIMALTU
 70
     2
  9
$DIMALTTD
 70
     2
  9
$DIMTXSTY
  7
STANDARD
  9
$DIMAUNIT
 70
     0
  9
$DIMADEC
 70
     0
  9
$DIMALTRND
 40
0.0
  9
$DIMAZIN
 70
     0
  9
$DIMDSEP
 70
    46
  9
$DIMATFIT
 70
     0
  9
$DIMFRAC
 70
     0
  9
$DIMLDRBLK
  1

  9
$DIMLUNIT
 70
     2
  9
$DIMLWD
 70
    -2
  9
$DIMLWE
 70
    -2
  9
$DIMTMOVE
 70
     0
  9
$LUNITS
 70
     2
  9
$LUPREC
 70
     4
  9
$SKETCHINC
 40
0.1
  9
$FILLETRAD
 40
0.125
  9
$AUNITS
 70
     0
  9
$AUPREC
 70
     0
  9
$MENU
  1
.
  9
$ELEVATION
 40
0.0
  9
$PELEVATION
 40
0.0
  9
$THICKNESS
 40
0.0
  9
$LIMCHECK
 70
     0
  9
$CHAMFERA
 40
0.125
  9
$CHAMFERB
 40
0.125
  9
$CHAMFERC
 40
0.0
  9
$CHAMFERD
 40
0.0
  9
$SKPOLY
 70
     0
  9
$TDCREATE
 40
0.000000000
  9
$TDUCREATE
 40
0.000000000
  9
$TDUPDATE
 40
0.000000000
  9
$TDUUPDATE
 40
0.000000000
  9
$TDINDWG
 40
0.0000000000
  9
$TDUSRTIMER
 40
0.0000000000
  9
$USRTIMER
 70
     1
  9
$ANGBASE
 50
0.0
  9
$ANGDIR
 70
     0
  9
$PDMODE
 70
     0
  9
$PDSIZE
 40
0.0
  9
$PLINEWID
 40
0.0
  9
$SPLFRAME
 70
     0
  9
$SPLINETYPE
 70
     6
  9
$SPLINESEGS
 70
     8
  9
$HANDSEED
  5
448
  9
$SURFTAB1
 70
     6
  9
$SURFTAB2
 70
     6
  9
$SURFTYPE
 70
     6
  9
$SURFU
 70
     6
  9
$SURFV
 70
     6
  9
$UCSBASE
  2

  9
$UCSNAME
  2

  9
$UCSORG
 10
0.0
 20
0.0
 30
0.0
  9
$UCSXDIR
 10
1.0
 20
0.0
 30
0.0
  9
$UCSYDIR
 10
0.0
 20
1.0
 30
0.0
  9
$UCSORTHOREF
  2

  9
$UCSORTHOVIEW
 70
     1
  9
$UCSORGTOP
 10
0.0
 20
0.0
 30
0.0
  9
$UCSORGBOTTOM
 10
0.0
 20
0.0
 30
0.0
  9
$UCSORGLEFT
 10
0.0
 20
0.0
 30
0.0
  9
$UCSORGRIGHT
 10
0.0
 20
0.0
 30
0.0
  9
$UCSORGFRONT
 10
0.0
 20
0.0
 30
0.0
  9
$UCSORGBACK
 10
0.0
 20
0.0
 30
0.0
  9
$PUCSBASE
  2

  9
$PUCSNAME
  2

  9
$PUCSORG
 10
0.0
 20
0.0
 30
0.0
  9
$PUCSXDIR
 10
1.0
 20
0.0
 30
0.0
  9
$PUCSYDIR
 10
0.0
 20
1.0
 30
0.0
  9
$PUCSORTHOREF
  2

  9
$PUCSORTHOVIEW
 70
     0
  9
$PUCSORGTOP
 10
0.0
 20
0.0
 30
0.0
  9
$PUCSORGBOTTOM
 10
0.0
 20
0.0
 30
0.0
  9
$PUCSORGLEFT
 10
0.0
 20
0.0
 30
0.0
  9
$PUCSORGRIGHT
 10
0.0
 20
0.0
 30
0.0
  9
$PUCSORGFRONT
 10
0.0
 20
0.0
 30
0.0
  9
$PUCSORGBACK
 10
0.0
 20
0.0
 30
0.0
  9
$USERI1
 70
     0
  9
$USERI2
 70
     0
  9
$USERI3
 70
     0
  9
$USERI4
 70
     0
  9
$USERI5
 70
     0
  9
$USERR1
 40
0.0
  9
$USERR2
 40
0.0
  9
$USERR3
 40
0.0
  9
$USERR4
 40
0.0
  9
$USERR5
 40
0.0
  9
$WORLDVIEW
 70
     1
  9
$SHADEDGE
 70
     3
  9
$SHADEDIF
 70
    70
  9
$TILEMODE
 70
     1
  9
$MAXACTVP
 70
    48
  9
$PINSBASE
 10
0.0
 20
0.0
 30
0.0
  9
$PLIMCHECK
 70
     0
  9
$PEXTMIN
 10
0.0
 20
0.0
 30
0.0
  9
$PEXTMAX
 10
43.636196
 20
5.043822
 30
2.0
  9
$PLIMMIN
 10
0.0
 20
0.0
  9
$PLIMMAX
 10
12.0
 20
9.0
  9
$UNITMODE
 70
     0
  9
$VISRETAIN
 70
     0
  9
$PLINEGEN
 70
     0
  9
$PSLTSCALE
 70
     1
  9
$TREEDEPTH
 70
  3020
  9
$CMLSTYLE
  2
Standard
  9
$CMLJUST
 70
     0
  9
$CMLSCALE
 40
1.0
  9
$PROXYGRAPHICS
 70
     1
  9
$MEASUREMENT
 70
     0
  9
$CELWEIGHT
370
    -1
  9
$ENDCAPS
280
     0
  9
$JOINSTYLE
280
     0
  9
$LWDISPLAY
290
     0
  9
$INSUNITS
 70
     0
  9
$HYPERLINKBASE
  1

  9
$STYLESHEET
  1

  9
$XEDIT
290
     1
  9
$CEPSNTYPE
380
     0
  9
$PSTYLEMODE
290
     0
  9
$FINGERPRINTGUID
  2

  9
$VERSIONGUID
  2

  9
$EXTNAMES
290
     0
  9
$PSVPSCALE
 40
0.0
  0
ENDSEC
  0
SECTION
  2
CLASSES
  0
CLASS
  1
LWPOLYLINE
  2
AcDbPolyline
  3
AutoCAD 2000
 90
        0
280
     0
281
     1
  0
CLASS
  1
IMAGE
  2
AcDbRasterImage
  3
ISM
 90
      127
280
     0
281
     1
  0
CLASS
  1
OLE2FRAME
  2
AcDbOle2Frame
  3
AutoCAD 2000
 90
        0
280
     0
281
     1
  0
CLASS
  1
HATCH
  2
AcDbHatch
  3
AutoCAD 2000
 90
        0
280
     0
281
     1
  0
CLASS
  1
DICTIONARYVAR
  2
AcDbDictionaryVar
  3
AutoCAD 2000
 90
        0
280
     0
281
     0
  0
CLASS
  1
RASTERVARIABLES
  2
AcDbRasterVariables
  3
ISM
 90
        0
280
     0
281
     0
  0
CLASS
  1
IMAGEDEF
  2
AcDbRasterImageDef
  3
ISM
 90
        0
280
     0
281
     0
  0
CLASS
  1
IMAGEDEF_REACTOR
  2
AcDbRasterImageDefReactor
  3
ISM
 90
        1
280
     0
281
     0
  0
CLASS
  1
IDBUFFER
  2
AcDbIdBuffer
  3
AutoCAD 2000
 90
        0
280
     0
281
     0
  0
CLASS
  1
SPATIAL_FILTER
  2
AcDbSpatialFilter
  3
AutoCAD 2000
 90
        0
280
     0
281
     0
  0
CLASS
  1
XRECORD
  2
AcDbXrecord
  3
AutoCAD 2000
 90
        0
280
     0
281
     0
  0
CLASS
  1
SORTENTSTABLE
  2
AcDbSortentsTable
  3
AutoCAD 2000
 90
        0
280
     0
281
     0
  0
CLASS
  1
LAYER_INDEX
  2
AcDbLayerIndex
  3
AutoCAD 2000
 90
        0
280
     0
281
     0
  0
CLASS
  1
SPATIAL_INDEX
  2
AcDbSpatialIndex
  3
AutoCAD 2000
 90
        0
280
     0
281
     0
  0
CLASS
  1
OBJECT_PTR
  2
CAseDLPNTableRecord
  3
"ASE-LPNTableRecord"
 90
        1
280
     0
281
     0
  0
CLASS
  1
LAYOUT
  2
AcDbLayout
  3
AutoCAD 2000
 90
        0
280
     0
281
     0
  0
CLASS
  1
PLOTSETTINGS
  2
AcDbPlotSettings
  3
AutoCAD 2000
 90
        0
280
     0
281
     0
  0
CLASS
  1
ACDBDICTIONARYWDFLT
  2
AcDbDictionaryWithDefault
  3
AutoCAD 2000
 90
        0
280
     0
281
     0
  0
CLASS
  1
ACDBPLACEHOLDER
  2
AcDbPlaceHolder
  3
AutoCAD 2000
 90
        0
280
     0
281
     0
  0
CLASS
  1
VBA_PROJECT
  2
AcDbVbaProject
  3
acadvba
 90
        0
280
     0
281
     0
  0
CLASS
  1
WIPEOUT
  2
AcDbWipeout
  3
WipeOut|AutoCAD Express Tool|expresstools@autodesk.com
 90
      127
280
     0
281
     1
  0
CLASS
  1
WIPEOUTVARIABLES
  2
AcDbWipeoutVariables
  3
WipeOut|AutoCAD Express Tool|expresstools@autodesk.com
 90
        0
280
     0
281
     0
  0
CLASS
  1
RTEXT
  2
RText
  3
RText|AutoCAD Express Tool|expresstools@autodesk.com
 90
        0
280
     0
281
     1
  0
CLASS
  1
ARCALIGNEDTEXT
  2
AcDbArcAlignedText
  3
ATEXT|AutoCAD Express Tool|expresstools@autodesk.com
 90
        0
280
     0
281
     1
  0
ENDSEC
  0
SECTION
  2
TABLES
  0
TABLE
  2
VPORT
  5
7
100
AcDbSymbolTable
 70
     1
  0
VPORT
  5
15
100
AcDbSymbolTableRecord
100
AcDbViewportTableRecord
  2
*ACTIVE
 70
     0
 10
0.0
 20
0.0
 11
1.0
 21
1.0
 12
6.591288
 22
4.579184
 13
0.0
 23
0.0
 14
1.0
 24
1.0
 15
0.0
 25
0.0
 16
0.0
 26
0.0
 36
1.0
 17
0.0
 27
0.0
 37
0.0
 40
9.158369
 41
0.688564
 42
50.0
 43
0.0
 44
0.0
 50
0.0
 51
0.0
 71
     0
 72
   100
 73
     1
 74
     1
 75
     0
 76
     0
 77
     0
 78
     0
281
     0
 65
     0
110
0.0
120
0.0
130
0.0
111
1.0
121
0.0
131
0.0
112
0.0
122
1.0
132
0.0
345
0
346
0
 79
     0
146
0.0
  0
ENDTAB
  0
TABLE
  2
LTYPE
  5
4
100
AcDbSymbolTable
 70
     4
  0
LTYPE
  5
11
100
AcDbSymbolTableRecord
100
AcDbLinetypeTableRecord
  2
ByBlock
 70
    64
  3

 72
    65
 73
     0
 40
0.0
  0
LTYPE
  5
12
100
AcDbSymbolTableRecord
100
AcDbLinetypeTableRecord
  2
ByLayer
 70
    64
  3

 72
    65
 73
     0
 40
0.0
  0
LTYPE
  5
13
100
AcDbSymbolTableRecord
100
AcDbLinetypeTableRecord
  2
Continuous
 70
    64
  3
Solid line
 72
    65
 73
     0
 40
0.0
  0
LTYPE
  5
24
100
AcDbSymbolTableRecord
100
AcDbLinetypeTableRecord
  2
DASHDOT
 70
     0
  3
 __ . __ . __ . __ . __ . __ . __ . 
 72
    65
 73
     4
 40
18.5
 49
12.0
 74
     0
 49
-3.0
 74
     0
 49
0.5
 74
     0
 49
-3.0
 74
     0
  0
ENDTAB
  0
TABLE
  2
LAYER
  5
2
100
AcDbSymbolTable
 70
     2
  0
LAYER
  5
14
100
AcDbSymbolTableRecord
100
AcDbLayerTableRecord
  2
0
 70
     0
 62
     7
  6
Continuous
290
     1
370
    13
390
1D
  0
LAYER
  5
25
100
AcDbSymbolTableRecord
100
AcDbLayerTableRecord
  2
1
 70
     0
 62
     7
  6
Continuous
290
     1
370
    13
390
1D
  0
ENDTAB
  0
TABLE
  2
STYLE
  5
3
100
AcDbSymbolTable
 70
     2
  0
STYLE
  5
17
100
AcDbSymbolTableRecord
100
AcDbTextStyleTableRecord
  2
STANDARD
 70
     0
 40
0.0
 41
1.0
 50
0.0
 71
     0
 42
0.0
  3
isocp.shx
  4

  0
STYLE
  5
26
100
AcDbSymbolTableRecord
100
AcDbTextStyleTableRecord
  2
GDT
 70
     0
 40
0.0
 41
1.0
 50
0.0
 71
     0
 42
0.0
  3
gdt.shx
  4

  0
ENDTAB
  0
TABLE
  2
VIEW
  5
5
100
AcDbSymbolTable
 70
     0
  0
ENDTAB
  0
TABLE
  2
UCS
  5
6
100
AcDbSymbolTable
 70
     0
  0
ENDTAB
  0
TABLE
  2
APPID
  5
8
100
AcDbSymbolTable
 70
     1
  0
APPID
  5
16
100
AcDbSymbolTableRecord
100
AcDbRegAppTableRecord
  2
ACAD
 70
     0
  0
ENDTAB
  0
TABLE
  2
DIMSTYLE
  5
9
100
AcDbSymbolTable
 70
     1
100
AcDbDimStyleTable
 71
     0
  0
DIMSTYLE
105
18
100
AcDbSymbolTableRecord
100
AcDbDimStyleTableRecord
  2
STANDARD
 70
     0
  3

  4

 40
1.0
 41
0.18
 42
0.0625
 43
0.38
 44
0.18
 45
0.0
 46
0.0
 47
0.0
 48
0.0
 71
     0
 72
     0
 73
     1
 74
     1
 75
     0
 76
     0
 77
     0
 78
     0
 79
     0
140
0.18
141
0.09
142
0.0
143
25.4
144
1.0
145
0.0
146
1.0
147
0.09
148
0.0
170
     0
171
     2
172
     0
173
     0
174
     0
175
     0
176
     0
177
     0
178
     0
179
     0
271
     4
272
     4
273
     2
274
     2
275
     0
276
     0
277
     2
278
    46
279
     0
280
     0
281
     0
282
     0
283
     1
284
     0
285
     0
286
     0
288
     0
289
     0
340
0
341
0
342
0
343
0
344
0
371
    -2
372
    -2
  0
ENDTAB
  0
TABLE
  2
BLOCK_RECORD
  5
1
100
AcDbSymbolTable
 70
    23
  0
BLOCK_RECORD
  5
A
100
AcDbSymbolTableRecord
100
AcDbBlockTableRecord
  2
*MODEL_SPACE
340
20
  0
BLOCK_RECORD
  5
B
100
AcDbSymbolTableRecord
100
AcDbBlockTableRecord
  2
*PAPER_SPACE
340
21
  0
BLOCK_RECORD
  5
205
100
AcDbSymbolTableRecord
100
AcDbBlockTableRecord
  2
BLOCK1
340
0
102
{BLKREFS
331
431
102
}
  0
BLOCK_RECORD
  5
206
100
AcDbSymbolTableRecord
100
AcDbBlockTableRecord
  2
BLOCK2
340
0
102
{BLKREFS
331
432
102
}
  0
BLOCK_RECORD
  5
207
100
AcDbSymbolTableRecord
100
AcDbBlockTableRecord
  2
BLOCK3
340
0
102
{BLKREFS
331
433
102
}
  0
BLOCK_RECORD
  5
208
100
AcDbSymbolTableRecord
100
AcDbBlockTableRecord
  2
BLOCK4
340
0
102
{BLKREFS
331
434
102
}
  0
BLOCK_RECORD
  5
209
100
AcDbSymbolTableRecord
100
AcDbBlockTableRecord
  2
BLOCK5
340
0
102
{BLKREFS
331
435
102
}
  0
BLOCK_RECORD
  5
20A
100
AcDbSymbolTableRecord
100
AcDbBlockTableRecord
  2
BLOCK6
340
0
102
{BLKREFS
331
436
102
}
  0
BLOCK_RECORD
  5
20B
100
AcDbSymbolTableRecord
100
AcDbBlockTableRecord
  2
BLOCK7
340
0
102
{BLKREFS
331
437
102
}
  0
BLOCK_RECORD
  5
20C
100
AcDbSymbolTableRecord
100
AcDbBlockTableRecord
  2
BLOCK8
340
0
102
{BLKREFS
331
438
102
}
  0
BLOCK_RECORD
  5
20D
100
AcDbSymbolTableRecord
100
AcDbBlockTableRecord
  2
BLOCK9
340
0
102
{BLKREFS
331
439
102
}
  0
BLOCK_RECORD
  5
20E
100
AcDbSymbolTableRecord
100
AcDbBlockTableRecord
  2
BLOCK10
340
0
102
{BLKREFS
331
43A
102
}
  0
BLOCK_RECORD
  5
20F
100
AcDbSymbolTableRecord
100
AcDbBlockTableRecord
  2
BLOCK11
340
0
102
{BLKREFS
331
43B
102
}
  0
BLOCK_RECORD
  5
210
100
AcDbSymbolTableRecord
100
AcDbBlockTableRecord
  2
BLOCK12
340
0
102
{BLKREFS
331
43C
102
}
  0
BLOCK_RECORD
  5
211
100
AcDbSymbolTableRecord
100
AcDbBlockTableRecord
  2
BLOCK13
340
0
102
{BLKREFS
331
43D
102
}
  0
BLOCK_RECORD
  5
212
100
AcDbSymbolTableRecord
100
AcDbBlockTableRecord
  2
BLOCK14
340
0
102
{BLKREFS
331
43E
102
}
  0
BLOCK_RECORD
  5
213
100
AcDbSymbolTableRecord
100
AcDbBlockTableRecord
  2
BLOCK15
340
0
102
{BLKREFS
331
43F
102
}
  0
BLOCK_RECORD
  5
214
100
AcDbSymbolTableRecord
100
AcDbBlockTableRecord
  2
BLOCK16
340
0
102
{BLKREFS
331
440
102
}
  0
BLOCK_RECORD
  5
215
100
AcDbSymbolTableRecord
100
AcDbBlockTableRecord
  2
BLOCK17
340
0
102
{BLKREFS
331
441
102
}
  0
BLOCK_RECORD
  5
216
100
AcDbSymbolTableRecord
100
AcDbBlockTableRecord
  2
BLOCK18
340
0
102
{BLKREFS
331
442
102
}
  0
BLOCK_RECORD
  5
217
100
AcDbSymbolTableRecord
100
AcDbBlockTableRecord
  2
BLOCK19
340
0
102
{BLKREFS
331
443
102
}
  0
BLOCK_RECORD
  5
218
100
AcDbSymbolTableRecord
100
AcDbBlockTableRecord
  2
BLOCK20
340
0
102
{BLKREFS
331
444
102
}
  0
BLOCK_RECORD
  5
219
100
AcDbSymbolTableRecord
100
AcDbBlockTableRecord
  2
BLOCK21
340
0
102
{BLKREFS
331
445
102
}
  0
BLOCK_RECORD
  5
21A
100
AcDbSymbolTableRecord
100
AcDbBlockTableRecord
  2
BLOCK22
340
0
102
{BLKREFS
331
446
102
}
  0
BLOCK_RECORD
  5
21B
100
AcDbSymbolTableRecord
100
AcDbBlockTableRecord
  2
BLOCK23
340
0
102
{BLKREFS
331
447
102
}
  0
ENDTAB
  0
ENDSEC
  0
SECTION
  2
BLOCKS
  0
BLOCK
  5
D
100
AcDbEntity
  8
0
390
0
100
AcDbBlockBegin
  2
*MODEL_SPACE
 70
     0
 10
0.0
 20
0.0
 30
0.0
  3
*MODEL_SPACE
  1

  0
ENDBLK
  5
E
100
AcDbEntity
  8
0
390
0
100
AcDbBlockEnd
  0
BLOCK
  5
F
100
AcDbEntity
 67
     1
  8
0
390
0
100
AcDbBlockBegin
  2
*PAPER_SPACE
 70
     0
 10
0.0
 20
0.0
 30
0.0
  3
*PAPER_SPACE
  1

  0
ENDBLK
  5
10
100
AcDbEntity
 67
     1
  8
0
390
0
100
AcDbBlockEnd
  0
BLOCK
  5
21C
100
AcDbEntity
  8
0
370
     0
390
0
100
AcDbBlockBegin
  2
BLOCK1
 70
     0
 10
0.0
 20
0.0
 30
0.0
  3
BLOCK1
  1

  0
TEXT
  5
21D
100
AcDbEntity
  8
0
370
    13
390
0
 62
     7
 48
0.03937
100
AcDbText
 10
8.191513
 20
0.858248
 30
0.0
 40
0.1
  1
150-WELD-NECK-FF
 72
     5
 11
9.814373
 21
0.858248
 31
0.0
100
AcDbText
  0
TEXT
  5
21E
100
AcDbEntity
  8
0
370
    13
390
0
 62
     7
 48
0.03937
100
AcDbText
 10
9.815896
 20
0.858248
 30
0.0
 40
0.1
  1
-
 72
     5
 11
9.915896
 21
0.858248
 31
0.0
100
AcDbText
  0
TEXT
  5
21F
100
AcDbEntity
  8
0
370
    13
390
0
 62
     7
 48
0.03937
100
AcDbText
 10
9.91742
 20
0.858248
 30
0.0
 40
0.1
  1
FLANGE
 72
     5
 11
10.525041
 21
0.858248
 31
0.0
100
AcDbText
  0
ENDBLK
  5
220
100
AcDbEntity
  8
0
390
0
100
AcDbBlockEnd
  0
BLOCK
  5
221
100
AcDbEntity
  8
0
370
     0
390
0
100
AcDbBlockBegin
  2
BLOCK2
 70
     0
 10
0.0
 20
0.0
 30
0.0
  3
BLOCK2
  1

  0
TEXT
  5
222
100
AcDbEntity
  8
0
370
    13
390
0
 62
     7
 48
0.03937
100
AcDbText
 10
8.288643
 20
1.055967
 30
0.0
 40
0.1
  1
3
 72
     5
 11
8.388643
 21
1.055967
 31
0.0
100
AcDbText
  0
TEXT
  5
223
100
AcDbEntity
  8
0
370
    13
390
0
 62
     7
 48
0.03937
100
AcDbText
 10
8.390167
 20
1.055967
 30
0.0
 40
0.1
  1
" NOM. X SHC: 
 72
     5
 11
9.809979
 21
1.055967
 31
0.0
100
AcDbText
  0
TEXT
  5
224
100
AcDbEntity
  8
0
370
    13
390
0
 62
     7
 48
0.03937
100
AcDbText
 10
9.811503
 20
1.055967
 30
0.0
 40
0.1
  1
160
 72
     5
 11
10.114551
 21
1.055967
 31
0.0
100
AcDbText
  0
ENDBLK
  5
225
100
AcDbEntity
  8
0
390
0
100
AcDbBlockEnd
  0
BLOCK
  5
226
100
AcDbEntity
  8
0
370
     0
390
0
100
AcDbBlockBegin
  2
BLOCK3
 70
     0
 10
0.0
 20
0.0
 30
0.0
  3
BLOCK3
  1

  0
TEXT
  5
227
100
AcDbEntity
  8
0
370
    13
390
0
 62
     7
 48
0.03937
100
AcDbText
 10
10.093103
 20
0.689966
 30
0.0
 40
0.06
  1
PO Box 2889
 72
     5
 11
10.730818
 21
0.689966
 31
0.0
100
AcDbText
  0
TEXT
  5
228
100
AcDbEntity
  8
0
370
    13
390
0
 62
     7
 48
0.03937
100
AcDbText
 10
9.686702
 20
0.589966
 30
0.0
 40
0.06
  1
Pearland, TX 77588
 72
     5
 11
10.730818
 21
0.589966
 31
0.0
100
AcDbText
  0
TEXT
  5
229
100
AcDbEntity
  8
0
370
    13
390
0
 62
     7
 48
0.03937
100
AcDbText
 10
9.802816
 20
0.489966
 30
0.0
 40
0.06
  1
PH: 800-826-3801
 72
     5
 11
10.730818
 21
0.489966
 31
0.0
100
AcDbText
  0
TEXT
  5
22A
100
AcDbEntity
  8
0
370
    13
390
0
 62
     7
 48
0.03937
100
AcDbText
 10
9.744759
 20
0.389966
 30
0.0
 40
0.06
  1
FAX: 281-484-8730
 72
     5
 11
10.730818
 21
0.389966
 31
0.0
100
AcDbText
  0
TEXT
  5
22B
100
AcDbEntity
  8
0
370
    13
390
0
 62
     7
 48
0.03937
100
AcDbText
 10
9.628644
 20
0.289966
 30
0.0
 40
0.06
  1
www.texasflange.com
 72
     5
 11
10.730818
 21
0.289966
 31
0.0
100
AcDbText
  0
ENDBLK
  5
22C
100
AcDbEntity
  8
0
390
0
100
AcDbBlockEnd
  0
BLOCK
  5
22D
100
AcDbEntity
  8
0
370
     0
390
0
100
AcDbBlockBegin
  2
BLOCK4
 70
     0
 10
0.0
 20
0.0
 30
0.0
  3
BLOCK4
  1

  0
TEXT
  5
22E
100
AcDbEntity
  8
0
370
    13
390
0
 62
     7
 48
0.03937
100
AcDbText
 10
8.289209
 20
0.587871
 30
0.0
 40
0.2
  1
Texas
 72
     5
 11
9.383692
 21
0.587871
 31
0.0
100
AcDbText
  0
TEXT
  5
22F
100
AcDbEntity
  8
0
370
    13
390
0
 62
     7
 48
0.03937
100
AcDbText
 10
8.289209
 20
0.327871
 30
0.0
 40
0.2
  1
Flange
 72
     5
 11
9.608945
 21
0.327871
 31
0.0
100
AcDbText
  0
ENDBLK
  5
230
100
AcDbEntity
  8
0
390
0
100
AcDbBlockEnd
  0
BLOCK
  5
231
100
AcDbEntity
  8
0
370
     0
390
0
100
AcDbBlockBegin
  2
BLOCK5
 70
     0
 10
0.0
 20
0.0
 30
0.0
  3
BLOCK5
  1

  0
LINE
  5
232
100
AcDbEntity
  8
0
370
     5
390
0
 62
     7
 48
0.00324
100
AcDbLine
 10
8.029831
 20
0.605292
 30
0.0
 11
7.900255
 21
0.604209
 31
0.0
210
0.0
220
0.0
230
1.0
  0
LINE
  5
233
100
AcDbEntity
  8
0
370
     5
390
0
 62
     7
 48
0.000103
100
AcDbLine
 10
7.900255
 20
0.604209
 30
0.0
 11
7.902151
 21
0.600546
 31
0.0
210
0.0
220
0.0
230
1.0
  0
LINE
  5
234
100
AcDbEntity
  8
0
370
     5
390
0
 62
     7
 48
0.0001
100
AcDbLine
 10
7.902151
 20
0.600546
 30
0.0
 11
7.903945
 21
0.596951
 31
0.0
210
0.0
220
0.0
230
1.0
  0
LINE
  5
235
100
AcDbEntity
  8
0
370
     5
390
0
 62
     7
 48
0.000098
100
AcDbLine
 10
7.903945
 20
0.596951
 30
0.0
 11
7.905638
 21
0.593424
 31
0.0
210
0.0
220
0.0
230
1.0
  0
LINE
  5
236
100
AcDbEntity
  8
0
370
     5
390
0
 62
     7
 48
0.000095
100
AcDbLine
 10
7.905638
 20
0.593424
 30
0.0
 11
7.907229
 21
0.589967
 31
0.0
210
0.0
220
0.0
230
1.0
  0
LINE
  5
237
100
AcDbEntity
  8
0
370
     5
390
0
 62
     7
 48
0.000093
100
AcDbLine
 10
7.907229
 20
0.589967
 30
0.0
 11
7.908719
 21
0.58658
 31
0.0
210
0.0
220
0.0
230
1.0
  0
LINE
  5
238
100
AcDbEntity
  8
0
370
     5
390
0
 62
     7
 48
0.00009
100
AcDbLine
 10
7.908719
 20
0.58658
 30
0.0
 11
7.910106
 21
0.583262
 31
0.0
210
0.0
220
0.0
230
1.0
  0
LINE
  5
239
100
AcDbEntity
  8
0
370
     5
390
0
 62
     7
 48
0.000087
100
AcDbLine
 10
7.910106
 20
0.583262
 30
0.0
 11
7.911392
 21
0.580013
 31
0.0
210
0.0
220
0.0
230
1.0
  0
LINE
  5
23A
100
AcDbEntity
  8
0
370
     5
390
0
 62
     7
 48
0.000085
100
AcDbLine
 10
7.911392
 20
0.580013
 30
0.0
 11
7.912577
 21
0.576833
 31
0.0
210
0.0
220
0.0
230
1.0
  0
LINE
  5
23B
100
AcDbEntity
  8
0
370
     5
390
0
 62
     7
 48
0.000082
100
AcDbLine
 10
7.912577
 20
0.576833
 30
0.0
 11
7.913659
 21
0.573722
 31
0.0
210
0.0
220
0.0
230
1.0
  0
LINE
  5
23C
100
AcDbEntity
  8
0
370
     5
390
0
 62
     7
 48
0.000095
100
AcDbLine
 10
7.913659
 20
0.573722
 30
0.0
 11
7.915938
 21
0.570681
 31
0.0
210
0.0
220
0.0
230
1.0
  0
LINE
  5
23D
100
AcDbEntity
  8
0
370
     5
390
0
 62
     7
 48
0.000066
100
AcDbLine
 10
7.915938
 20
0.570681
 30
0.0
 11
7.916123
 21
0.573306
 31
0.0
210
0.0
220
0.0
230
1.0
  0
LINE
  5
23E
100
AcDbEntity
  8
0
370
     5
390
0
 62
     7
 48
0.000062
100
AcDbLine
 10
7.916123
 20
0.573306
 30
0.0
 11
7.916418
 21
0.575775
 31
0.0
210
0.0
220
0.0
230
1.0
  0
LINE
  5
23F
100
AcDbEntity
  8
0
370
     5
390
0
 62
     7
 48
0.000059
100
AcDbLine
 10
7.916418
 20
0.575775
 30
0.0
 11
7.916824
 21
0.578087
 31
0.0
210
0.0
220
0.0
230
1.0
  0
LINE
  5
240
100
AcDbEntity
  8
0
370
     5
390
0
 62
     7
 48
0.000055
100
AcDbLine
 10
7.916824
 20
0.578087
 30
0.0
 11
7.917339
 21
0.580242
 31
0.0
210
0.0
220
0.0
230
1.0
  0
LINE
  5
241
100
AcDbEntity
  8
0
370
     5
390
0
 62
     7
 48
0.000052
100
AcDbLine
 10
7.917339
 20
0.580242
 30
0.0
 11
7.917966
 21
0.58224
 31
0.0
210
0.0
220
0.0
230
1.0
  0
LINE
  5
242
100
AcDbEntity
  8
0
370
     5
390
0
 62
     7
 48
0.00005
100
AcDbLine
 10
7.917966
 20
0.58224
 30
0.0
 11
7.918703
 21
0.584081
 31
0.0
210
0.0
220
0.0
230
1.0
  0
LINE
  5
243
100
AcDbEntity
  8
0
370
     5
390
0
 62
     7
 48
0.000047
100
AcDbLine
 10
7.918703
 20
0.584081
 30
0.0
 11
7.919549
 21
0.585767
 31
0.0
210
0.0
220
0.0
230
1.0
  0
LINE
  5
244
100
AcDbEntity
  8
0
370
     5
390
0
 62
     7
 48
0.000045
100
AcDbLine
 10
7.919549
 20
0.585767
 30
0.0
 11
7.920506
 21
0.587294
 31
0.0
210
0.0
220
0.0
230
1.0
  0
LINE
  5
245
100
AcDbEntity
  8
0
370
     5
390
0
 62
     7
 48
0.000043
100
AcDbLine
 10
7.920506
 20
0.587294
 30
0.0
 11
7.921574
 21
0.588665
 31
0.0
210
0.0
220
0.0
230
1.0
  0
LINE
  5
246
100
AcDbEntity
  8
0
370
     5
390
0
 62
     7
 48
0.000042
100
AcDbLine
 10
7.921574
 20
0.588665
 30
0.0
 11
7.922751
 21
0.58988
 31
0.0
210
0.0
220
0.0
230
1.0
  0
LINE
  5
247
100
AcDbEntity
  8
0
370
     5
390
0
 62
     7
 48
0.000042
100
AcDbLine
 10
7.922751
 20
0.58988
 30
0.0
 11
7.924063
 21
0.590958
 31
0.0
210
0.0
220
0.0
230
1.0
  0
LINE
  5
248
100
AcDbEntity
  8
0
370
     5
390
0
 62
     7
 48
0.000044
100
AcDbLine
 10
7.924063
 20
0.590958
 30
0.0
 11
7.92553
 21
0.591923
 31
0.0
210
0.0
220
0.0
230
1.0
  0
LINE
  5
249
100
AcDbEntity
  8
0
370
     5
390
0
 62
     7
 48
0.000046
100
AcDbLine
 10
7.92553
 20
0.591923
 30
0.0
 11
7.927152
 21
0.592775
 31
0.0
210
0.0
220
0.0
230
1.0
  0
LINE
  5
24A
100
AcDbEntity
  8
0
370
     5
390
0
 62
     7
 48
0.000048
100
AcDbLine
 10
7.927152
 20
0.592775
 30
0.0
 11
7.92893
 21
0.593513
 31
0.0
210
0.0
220
0.0
230
1.0
  0
LINE
  5
24B
100
AcDbEntity
  8
0
370
     5
390
0
 62
     7
 48
0.000051
100
AcDbLine
 10
7.92893
 20
0.593513
 30
0.0
 11
7.930864
 21
0.594138
 31
0.0
210
0.0
220
0.0
230
1.0
  0
LINE
  5
24C
100
AcDbEntity
  8
0
370
     5
390
0
 62
     7
 48
0.000054
100
AcDbLine
 10
7.930864
 20
0.594138
 30
0.0
 11
7.932953
 21
0.594648
 31
0.0
210
0.0
220
0.0
230
1.0
  0
LINE
  5
24D
100
AcDbEntity
  8
0
370
     5
390
0
 62
     7
 48
0.000057
100
AcDbLine
 10
7.932953
 20
0.594648
 30
0.0
 11
7.9352
 21
0.595046
 31
0.0
210
0.0
220
0.0
230
1.0
  0
LINE
  5
24E
100
AcDbEntity
  8
0
370
     5
390
0
 62
     7
 48
0.00006
100
AcDbLine
 10
7.9352
 20
0.595046
 30
0.0
 11
7.9376
 21
0.595331
 31
0.0
210
0.0
220
0.0
230
1.0
  0
LINE
  5
24F
100
AcDbEntity
  8
0
370
     5
390
0
 62
     7
 48
0.000064
100
AcDbLine
 10
7.9376
 20
0.595331
 30
0.0
 11
7.940158
 21
0.5955
 31
0.0
210
0.0
220
0.0
230
1.0
  0
LINE
  5
250
100
AcDbEntity
  8
0
370
     5
390
0
 62
     7
 48
0.000068
100
AcDbLine
 10
7.940158
 20
0.5955
 30
0.0
 11
7.94287
 21
0.595557
 31
0.0
210
0.0
220
0.0
230
1.0
  0
LINE
  5
251
100
AcDbEntity
  8
0
370
     5
390
0
 62
     7
 48
0.00005
100
AcDbLine
 10
7.94287
 20
0.595557
 30
0.0
 11
7.944881
 21
0.595532
 31
0.0
210
0.0
220
0.0
230
1.0
  0
LINE
  5
252
100
AcDbEntity
  8
0
370
     5
390
0
 62
     7
 48
0.000051
100
AcDbLine
 10
7.944881
 20
0.595532
 30
0.0
 11
7.946936
 21
0.595454
 31
0.0
210
0.0
220
0.0
230
1.0
  0
LINE
  5
253
100
AcDbEntity
  8
0
370
     5
390
0
 62
     7
 48
0.000053
100
AcDbLine
 10
7.946936
 20
0.595454
 30
0.0
 11
7.949034
 21
0.595323
 31
0.0
210
0.0
220
0.0
230
1.0
  0
LINE
  5
254
100
AcDbEntity
  8
0
370
     5
390
0
 62
     7
 48
0.000054
100
AcDbLine
 10
7.949034
 20
0.595323
 30
0.0
 11
7.951177
 21
0.595142
 31
0.0
210
0.0
220
0.0
230
1.0
  0
LINE
  5
255
100
AcDbEntity
  8
0
370
     5
390
0
 62
     7
 48
0.000055
100
AcDbLine
 10
7.951177
 20
0.595142
 30
0.0
 11
7.953361
 21
0.594908
 31
0.0
210
0.0
220
0.0
230
1.0
  0
LINE
  5
256
100
AcDbEntity
  8
0
370
     5
390
0
 62
     7
 48
0.000136
100
AcDbLine
 10
7.953361
 20
0.594908
 30
0.0
 11
7.952171
 21
0.589608
 31
0.0
210
0.0
220
0.0
230
1.0
  0
LINE
  5
257
100
AcDbEntity
  8
0
370
     5
390
0
 62
     7
 48
0.000162
100
AcDbLine
 10
7.952171
 20
0.589608
 30
0.0
 11
7.945682
 21
0.589716
 31
0.0
210
0.0
220
0.0
230
1.0
  0
LINE
  5
258
100
AcDbEntity
  8
0
370
     5
390
0
 62
     7
 48
0.00006
100
AcDbLine
 10
7.945682
 20
0.589716
 30
0.0
 11
7.943286
 21
0.589667
 31
0.0
210
0.0
220
0.0
230
1.0
  0
LINE
  5
259
100
AcDbEntity
  8
0
370
     5
390
0
 62
     7
 48
0.000057
100
AcDbLine
 10
7.943286
 20
0.589667
 30
0.0
 11
7.941029
 21
0.589518
 31
0.0
210
0.0
220
0.0
230
1.0
  0
LINE
  5
25A
100
AcDbEntity
  8
0
370
     5
390
0
 62
     7
 48
0.000053
100
AcDbLine
 10
7.941029
 20
0.589518
 30
0.0
 11
7.938912
 21
0.589269
 31
0.0
210
0.0
220
0.0
230
1.0
  0
LINE
  5
25B
100
AcDbEntity
  8
0
370
     5
390
0
 62
     7
 48
0.00005
100
AcDbLine
 10
7.938912
 20
0.589269
 30
0.0
 11
7.936934
 21
0.588921
 31
0.0
210
0.0
220
0.0
230
1.0
  0
LINE
  5
25C
100
AcDbEntity
  8
0
370
     5
390
0
 62
     7
 48
0.000047
100
AcDbLine
 10
7.936934
 20
0.588921
 30
0.0
 11
7.935095
 21
0.588473
 31
0.0
210
0.0
220
0.0
230
1.0
  0
LINE
  5
25D
100
AcDbEntity
  8
0
370
     5
390
0
 62
     7
 48
0.000045
100
AcDbLine
 10
7.935095
 20
0.588473
 30
0.0
 11
7.933397
 21
0.587925
 31
0.0
210
0.0
220
0.0
230
1.0
  0
LINE
  5
25E
100
AcDbEntity
  8
0
370
     5
390
0
 62
     7
 48
0.000042
100
AcDbLine
 10
7.933397
 20
0.587925
 30
0.0
 11
7.931839
 21
0.587279
 31
0.0
210
0.0
220
0.0
230
1.0
  0
LINE
  5
25F
100
AcDbEntity
  8
0
370
     5
390
0
 62
     7
 48
0.00004
100
AcDbLine
 10
7.931839
 20
0.587279
 30
0.0
 11
7.930418
 21
0.586532
 31
0.0
210
0.0
220
0.0
230
1.0
  0
LINE
  5
260
100
AcDbEntity
  8
0
370
     5
390
0
 62
     7
 48
0.000038
100
AcDbLine
 10
7.930418
 20
0.586532
 30
0.0
 11
7.929138
 21
0.585687
 31
0.0
210
0.0
220
0.0
230
1.0
  0
LINE
  5
261
100
AcDbEntity
  8
0
370
     5
390
0
 62
     7
 48
0.000074
100
AcDbLine
 10
7.929138
 20
0.585687
 30
0.0
 11
7.926968
 21
0.58367
 31
0.0
210
0.0
220
0.0
230
1.0
  0
LINE
  5
262
100
AcDbEntity
  8
0
370
     5
390
0
 62
     7
 48
0.000039
100
AcDbLine
 10
7.926968
 20
0.58367
 30
0.0
 11
7.926023
 21
0.582444
 31
0.0
210
0.0
220
0.0
230
1.0
  0
LINE
  5
263
100
AcDbEntity
  8
0
370
     5
390
0
 62
     7
 48
0.000041
100
AcDbLine
 10
7.926023
 20
0.582444
 30
0.0
 11
7.92516
 21
0.581064
 31
0.0
210
0.0
220
0.0
230
1.0
  0
LINE
  5
264
100
AcDbEntity
  8
0
370
     5
390
0
 62
     7
 48
0.000043
100
AcDbLine
 10
7.92516
 20
0.581064
 30
0.0
 11
7.924381
 21
0.579533
 31
0.0
210
0.0
220
0.0
230
1.0
  0
LINE
  5
265
100
AcDbEntity
  8
0
370
     5
390
0
 62
     7
 48
0.000046
100
AcDbLine
 10
7.924381
 20
0.579533
 30
0.0
 11
7.923684
 21
0.577847
 31
0.0
210
0.0
220
0.0
230
1.0
  0
LINE
  5
266
100
AcDbEntity
  8
0
370
     5
390
0
 62
     7
 48
0.000048
100
AcDbLine
 10
7.923684
 20
0.577847
 30
0.0
 11
7.923073
 21
0.576006
 31
0.0
210
0.0
220
0.0
230
1.0
  0
LINE
  5
267
100
AcDbEntity
  8
0
370
     5
390
0
 62
     7
 48
0.000052
100
AcDbLine
 10
7.923073
 20
0.576006
 30
0.0
 11
7.922543
 21
0.574013
 31
0.0
210
0.0
220
0.0
230
1.0
  0
LINE
  5
268
100
AcDbEntity
  8
0
370
     5
390
0
 62
     7
 48
0.000055
100
AcDbLine
 10
7.922543
 20
0.574013
 30
0.0
 11
7.922096
 21
0.571866
 31
0.0
210
0.0
220
0.0
230
1.0
  0
LINE
  5
269
100
AcDbEntity
  8
0
370
     5
390
0
 62
     7
 48
0.000058
100
AcDbLine
 10
7.922096
 20
0.571866
 30
0.0
 11
7.921734
 21
0.569565
 31
0.0
210
0.0
220
0.0
230
1.0
  0
LINE
  5
26A
100
AcDbEntity
  8
0
370
     5
390
0
 62
     7
 48
0.000062
100
AcDbLine
 10
7.921734
 20
0.569565
 30
0.0
 11
7.921454
 21
0.567111
 31
0.0
210
0.0
220
0.0
230
1.0
  0
LINE
  5
26B
100
AcDbEntity
  8
0
370
     5
390
0
 62
     7
 48
0.00007
100
AcDbLine
 10
7.921454
 20
0.567111
 30
0.0
 11
7.924266
 21
0.567111
 31
0.0
210
0.0
220
0.0
230
1.0
  0
LINE
  5
26C
100
AcDbEntity
  8
0
370
     5
390
0
 62
     7
 48
0.000054
100
AcDbLine
 10
7.924266
 20
0.567111
 30
0.0
 11
7.924478
 21
0.569252
 31
0.0
210
0.0
220
0.0
230
1.0
  0
LINE
  5
26D
100
AcDbEntity
  8
0
370
     5
390
0
 62
     7
 48
0.000051
100
AcDbLine
 10
7.924478
 20
0.569252
 30
0.0
 11
7.924766
 21
0.571259
 31
0.0
210
0.0
220
0.0
230
1.0
  0
LINE
  5
26E
100
AcDbEntity
  8
0
370
     5
390
0
 62
     7
 48
0.000048
100
AcDbLine
 10
7.924766
 20
0.571259
 30
0.0
 11
7.92513
 21
0.573132
 31
0.0
210
0.0
220
0.0
230
1.0
  0
LINE
  5
26F
100
AcDbEntity
  8
0
370
     5
390
0
 62
     7
 48
0.000045
100
AcDbLine
 10
7.92513
 20
0.573132
 30
0.0
 11
7.925573
 21
0.574872
 31
0.0
210
0.0
220
0.0
230
1.0
  0
LINE
  5
270
100
AcDbEntity
  8
0
370
     5
390
0
 62
     7
 48
0.000042
100
AcDbLine
 10
7.925573
 20
0.574872
 30
0.0
 11
7.926092
 21
0.57648
 31
0.0
210
0.0
220
0.0
230
1.0
  0
LINE
  5
271
100
AcDbEntity
  8
0
370
     5
390
0
 62
     7
 48
0.000077
100
AcDbLine
 10
7.926092
 20
0.57648
 30
0.0
 11
7.92736
 21
0.579297
 31
0.0
210
0.0
220
0.0
230
1.0
  0
LINE
  5
272
100
AcDbEntity
  8
0
370
     5
390
0
 62
     7
 48
0.000069
100
AcDbLine
 10
7.92736
 20
0.579297
 30
0.0
 11
7.928935
 21
0.581582
 31
0.0
210
0.0
220
0.0
230
1.0
  0
LINE
  5
273
100
AcDbEntity
  8
0
370
     5
390
0
 62
     7
 48
0.000065
100
AcDbLine
 10
7.928935
 20
0.581582
 30
0.0
 11
7.930843
 21
0.583356
 31
0.0
210
0.0
220
0.0
230
1.0
  0
LINE
  5
274
100
AcDbEntity
  8
0
370
     5
390
0
 62
     7
 48
0.000069
100
AcDbLine
 10
7.930843
 20
0.583356
 30
0.0
 11
7.93324
 21
0.584759
 31
0.0
210
0.0
220
0.0
230
1.0
  0
LINE
  5
275
100
AcDbEntity
  8
0
370
     5
390
0
 62
     7
 48
0.000038
100
AcDbLine
 10
7.93324
 20
0.584759
 30
0.0
 11
7.93463
 21
0.585327
 31
0.0
210
0.0
220
0.0
230
1.0
  0
LINE
  5
276
100
AcDbEntity
  8
0
370
     5
390
0
 62
     7
 48
0.00004
100
AcDbLine
 10
7.93463
 20
0.585327
 30
0.0
 11
7.936151
 21
0.585809
 31
0.0
210
0.0
220
0.0
230
1.0
  0
LINE
  5
277
100
AcDbEntity
  8
0
370
     5
390
0
 62
     7
 48
0.000042
100
AcDbLine
 10
7.936151
 20
0.585809
 30
0.0
 11
7.937799
 21
0.586203
 31
0.0
210
0.0
220
0.0
230
1.0
  0
LINE
  5
278
100
AcDbEntity
  8
0
370
     5
390
0
 62
     7
 48
0.000045
100
AcDbLine
 10
7.937799
 20
0.586203
 30
0.0
 11
7.939577
 21
0.586511
 31
0.0
210
0.0
220
0.0
230
1.0
  0
LINE
  5
279
100
AcDbEntity
  8
0
370
     5
390
0
 62
     7
 48
0.000048
100
AcDbLine
 10
7.939577
 20
0.586511
 30
0.0
 11
7.941484
 21
0.58673
 31
0.0
210
0.0
220
0.0
230
1.0
  0
LINE
  5
27A
100
AcDbEntity
  8
0
370
     5
390
0
 62
     7
 48
0.000051
100
AcDbLine
 10
7.941484
 20
0.58673
 30
0.0
 11
7.943519
 21
0.58686
 31
0.0
210
0.0
220
0.0
230
1.0
  0
LINE
  5
27B
100
AcDbEntity
  8
0
370
     5
390
0
 62
     7
 48
0.000054
100
AcDbLine
 10
7.943519
 20
0.58686
 30
0.0
 11
7.945682
 21
0.586905
 31
0.0
210
0.0
220
0.0
230
1.0
  0
LINE
  5
27C
100
AcDbEntity
  8
0
370
     5
390
0
 62
     7
 48
0.000192
100
AcDbLine
 10
7.945682
 20
0.586905
 30
0.0
 11
7.953361
 21
0.586796
 31
0.0
210
0.0
220
0.0
230
1.0
  0
LINE
  5
27D
100
AcDbEntity
  8
0
370
     5
390
0
 62
     7
 48
0.00269
100
AcDbLine
 10
7.953361
 20
0.586796
 30
0.0
 11
7.953361
 21
0.479178
 31
0.0
210
0.0
220
0.0
230
1.0
  0
LINE
  5
27E
100
AcDbEntity
  8
0
370
     5
390
0
 62
     7
 48
0.000493
100
AcDbLine
 10
7.953361
 20
0.479178
 30
0.0
 11
7.93822
 21
0.466523
 31
0.0
210
0.0
220
0.0
230
1.0
  0
LINE
  5
27F
100
AcDbEntity
  8
0
370
     5
390
0
 62
     7
 48
0.001236
100
AcDbLine
 10
7.93822
 20
0.466523
 30
0.0
 11
7.987647
 21
0.466523
 31
0.0
210
0.0
220
0.0
230
1.0
  0
LINE
  5
280
100
AcDbEntity
  8
0
370
     5
390
0
 62
     7
 48
0.000434
100
AcDbLine
 10
7.987647
 20
0.466523
 30
0.0
 11
7.974885
 21
0.478313
 31
0.0
210
0.0
220
0.0
230
1.0
  0
LINE
  5
281
100
AcDbEntity
  8
0
370
     5
390
0
 62
     7
 48
0.002931
100
AcDbLine
 10
7.974885
 20
0.478313
 30
0.0
 11
7.976183
 21
0.595557
 31
0.0
210
0.0
220
0.0
230
1.0
  0
LINE
  5
282
100
AcDbEntity
  8
0
370
     5
390
0
 62
     7
 48
0.000049
100
AcDbLine
 10
7.976183
 20
0.595557
 30
0.0
 11
7.97813
 21
0.595713
 31
0.0
210
0.0
220
0.0
230
1.0
  0
LINE
  5
283
100
AcDbEntity
  8
0
370
     5
390
0
 62
     7
 48
0.000049
100
AcDbLine
 10
7.97813
 20
0.595713
 30
0.0
 11
7.980077
 21
0.595835
 31
0.0
210
0.0
220
0.0
230
1.0
  0
LINE
  5
284
100
AcDbEntity
  8
0
370
     5
390
0
 62
     7
 48
0.000049
100
AcDbLine
 10
7.980077
 20
0.595835
 30
0.0
 11
7.982024
 21
0.59592
 31
0.0
210
0.0
220
0.0
230
1.0
  0
LINE
  5
285
100
AcDbEntity
  8
0
370
     5
390
0
 62
     7
 48
0.000049
100
AcDbLine
 10
7.982024
 20
0.59592
 30
0.0
 11
7.983971
 21
0.595973
 31
0.0
210
0.0
220
0.0
230
1.0
  0
LINE
  5
286
100
AcDbEntity
  8
0
370
     5
390
0
 62
     7
 48
0.000049
100
AcDbLine
 10
7.983971
 20
0.595973
 30
0.0
 11
7.985918
 21
0.595991
 31
0.0
210
0.0
220
0.0
230
1.0
  0
LINE
  5
287
100
AcDbEntity
  8
0
370
     5
390
0
 62
     7
 48
0.000058
100
AcDbLine
 10
7.985918
 20
0.595991
 30
0.0
 11
7.988236
 21
0.595943
 31
0.0
210
0.0
220
0.0
230
1.0
  0
LINE
  5
288
100
AcDbEntity
  8
0
370
     5
390
0
 62
     7
 48
0.000055
100
AcDbLine
 10
7.988236
 20
0.595943
 30
0.0
 11
7.990431
 21
0.595799
 31
0.0
210
0.0
220
0.0
230
1.0
  0
LINE
  5
289
100
AcDbEntity
  8
0
370
     5
390
0
 62
     7
 48
0.000052
100
AcDbLine
 10
7.990431
 20
0.595799
 30
0.0
 11
7.992506
 21
0.595562
 31
0.0
210
0.0
220
0.0
230
1.0
  0
LINE
  5
28A
100
AcDbEntity
  8
0
370
     5
390
0
 62
     7
 48
0.000049
100
AcDbLine
 10
7.992506
 20
0.595562
 30
0.0
 11
7.994457
 21
0.595229
 31
0.0
210
0.0
220
0.0
230
1.0
  0
LINE
  5
28B
100
AcDbEntity
  8
0
370
     5
390
0
 62
     7
 48
0.000047
100
AcDbLine
 10
7.994457
 20
0.595229
 30
0.0
 11
7.996287
 21
0.5948
 31
0.0
210
0.0
220
0.0
230
1.0
  0
LINE
  5
28C
100
AcDbEntity
  8
0
370
     5
390
0
 62
     7
 48
0.000045
100
AcDbLine
 10
7.996287
 20
0.5948
 30
0.0
 11
7.997995
 21
0.594276
 31
0.0
210
0.0
220
0.0
230
1.0
  0
LINE
  5
28D
100
AcDbEntity
  8
0
370
     5
390
0
 62
     7
 48
0.000043
100
AcDbLine
 10
7.997995
 20
0.594276
 30
0.0
 11
7.99958
 21
0.593658
 31
0.0
210
0.0
220
0.0
230
1.0
  0
LINE
  5
28E
100
AcDbEntity
  8
0
370
     5
390
0
 62
     7
 48
0.000041
100
AcDbLine
 10
7.99958
 20
0.593658
 30
0.0
 11
8.001043
 21
0.592944
 31
0.0
210
0.0
220
0.0
230
1.0
  0
LINE
  5
28F
100
AcDbEntity
  8
0
370
     5
390
0
 62
     7
 48
0.000039
100
AcDbLine
 10
8.001043
 20
0.592944
 30
0.0
 11
8.002384
 21
0.592136
 31
0.0
210
0.0
220
0.0
230
1.0
  0
LINE
  5
290
100
AcDbEntity
  8
0
370
     5
390
0
 62
     7
 48
0.000038
100
AcDbLine
 10
8.002384
 20
0.592136
 30
0.0
 11
8.003601
 21
0.591231
 31
0.0
210
0.0
220
0.0
230
1.0
  0
LINE
  5
291
100
AcDbEntity
  8
0
370
     5
390
0
 62
     7
 48
0.000038
100
AcDbLine
 10
8.003601
 20
0.591231
 30
0.0
 11
8.004733
 21
0.590204
 31
0.0
210
0.0
220
0.0
230
1.0
  0
LINE
  5
292
100
AcDbEntity
  8
0
370
     5
390
0
 62
     7
 48
0.00004
100
AcDbLine
 10
8.004733
 20
0.590204
 30
0.0
 11
8.00581
 21
0.589025
 31
0.0
210
0.0
220
0.0
230
1.0
  0
LINE
  5
293
100
AcDbEntity
  8
0
370
     5
390
0
 62
     7
 48
0.000042
100
AcDbLine
 10
8.00581
 20
0.589025
 30
0.0
 11
8.006836
 21
0.587694
 31
0.0
210
0.0
220
0.0
230
1.0
  0
LINE
  5
294
100
AcDbEntity
  8
0
370
     5
390
0
 62
     7
 48
0.000044
100
AcDbLine
 10
8.006836
 20
0.587694
 30
0.0
 11
8.007806
 21
0.586212
 31
0.0
210
0.0
220
0.0
230
1.0
  0
LINE
  5
295
100
AcDbEntity
  8
0
370
     5
390
0
 62
     7
 48
0.000047
100
AcDbLine
 10
8.007806
 20
0.586212
 30
0.0
 11
8.008726
 21
0.584579
 31
0.0
210
0.0
220
0.0
230
1.0
  0
LINE
  5
296
100
AcDbEntity
  8
0
370
     5
390
0
 62
     7
 48
0.00005
100
AcDbLine
 10
8.008726
 20
0.584579
 30
0.0
 11
8.009591
 21
0.582795
 31
0.0
210
0.0
220
0.0
230
1.0
  0
LINE
  5
297
100
AcDbEntity
  8
0
370
     5
390
0
 62
     7
 48
0.000053
100
AcDbLine
 10
8.009591
 20
0.582795
 30
0.0
 11
8.010404
 21
0.580859
 31
0.0
210
0.0
220
0.0
230
1.0
  0
LINE
  5
298
100
AcDbEntity
  8
0
370
     5
390
0
 62
     7
 48
0.000056
100
AcDbLine
 10
8.010404
 20
0.580859
 30
0.0
 11
8.011163
 21
0.578771
 31
0.0
210
0.0
220
0.0
230
1.0
  0
LINE
  5
299
100
AcDbEntity
  8
0
370
     5
390
0
 62
     7
 48
0.000059
100
AcDbLine
 10
8.011163
 20
0.578771
 30
0.0
 11
8.011871
 21
0.576531
 31
0.0
210
0.0
220
0.0
230
1.0
  0
LINE
  5
29A
100
AcDbEntity
  8
0
370
     5
390
0
 62
     7
 48
0.000062
100
AcDbLine
 10
8.011871
 20
0.576531
 30
0.0
 11
8.012525
 21
0.574142
 31
0.0
210
0.0
220
0.0
230
1.0
  0
LINE
  5
29B
100
AcDbEntity
  8
0
370
     5
390
0
 62
     7
 48
0.000057
100
AcDbLine
 10
8.012525
 20
0.574142
 30
0.0
 11
8.014147
 21
0.572519
 31
0.0
210
0.0
220
0.0
230
1.0
  0
LINE
  5
29C
100
AcDbEntity
  8
0
370
     5
390
0
 62
     7
 48
0.000054
100
AcDbLine
 10
8.014147
 20
0.572519
 30
0.0
 11
8.014802
 21
0.574562
 31
0.0
210
0.0
220
0.0
230
1.0
  0
LINE
  5
29D
100
AcDbEntity
  8
0
370
     5
390
0
 62
     7
 48
0.000052
100
AcDbLine
 10
8.014802
 20
0.574562
 30
0.0
 11
8.015467
 21
0.576534
 31
0.0
210
0.0
220
0.0
230
1.0
  0
LINE
  5
29E
100
AcDbEntity
  8
0
370
     5
390
0
 62
     7
 48
0.000051
100
AcDbLine
 10
8.015467
 20
0.576534
 30
0.0
 11
8.016143
 21
0.578438
 31
0.0
210
0.0
220
0.0
230
1.0
  0
LINE
  5
29F
100
AcDbEntity
  8
0
370
     5
390
0
 62
     7
 48
0.000049
100
AcDbLine
 10
8.016143
 20
0.578438
 30
0.0
 11
8.01683
 21
0.580272
 31
0.0
210
0.0
220
0.0
230
1.0
  0
LINE
  5
2A0
100
AcDbEntity
  8
0
370
     5
390
0
 62
     7
 48
0.000047
100
AcDbLine
 10
8.01683
 20
0.580272
 30
0.0
 11
8.017528
 21
0.582038
 31
0.0
210
0.0
220
0.0
230
1.0
  0
LINE
  5
2A1
100
AcDbEntity
  8
0
370
     5
390
0
 62
     7
 48
0.000046
100
AcDbLine
 10
8.017528
 20
0.582038
 30
0.0
 11
8.018235
 21
0.583734
 31
0.0
210
0.0
220
0.0
230
1.0
  0
LINE
  5
2A2
100
AcDbEntity
  8
0
370
     5
390
0
 62
     7
 48
0.000044
100
AcDbLine
 10
8.018235
 20
0.583734
 30
0.0
 11
8.018954
 21
0.58536
 31
0.0
210
0.0
220
0.0
230
1.0
  0
LINE
  5
2A3
100
AcDbEntity
  8
0
370
     5
390
0
 62
     7
 48
0.000043
100
AcDbLine
 10
8.018954
 20
0.58536
 30
0.0
 11
8.019684
 21
0.586917
 31
0.0
210
0.0
220
0.0
230
1.0
  0
LINE
  5
2A4
100
AcDbEntity
  8
0
370
     5
390
0
 62
     7
 48
0.000042
100
AcDbLine
 10
8.019684
 20
0.586917
 30
0.0
 11
8.020426
 21
0.588405
 31
0.0
210
0.0
220
0.0
230
1.0
  0
LINE
  5
2A5
100
AcDbEntity
  8
0
370
     5
390
0
 62
     7
 48
0.00004
100
AcDbLine
 10
8.020426
 20
0.588405
 30
0.0
 11
8.021177
 21
0.589826
 31
0.0
210
0.0
220
0.0
230
1.0
  0
LINE
  5
2A6
100
AcDbEntity
  8
0
370
     5
390
0
 62
     7
 48
0.0004
100
AcDbLine
 10
8.021177
 20
0.589826
 30
0.0
 11
8.029019
 21
0.60375
 31
0.0
210
0.0
220
0.0
230
1.0
  0
LINE
  5
2A7
100
AcDbEntity
  8
0
370
     5
390
0
 62
     7
 48
0.000044
100
AcDbLine
 10
8.029019
 20
0.60375
 30
0.0
 11
8.029831
 21
0.605292
 31
0.0
210
0.0
220
0.0
230
1.0
  0
ENDBLK
  5
2A8
100
AcDbEntity
  8
0
390
0
100
AcDbBlockEnd
  0
BLOCK
  5
2A9
100
AcDbEntity
  8
0
370
     0
390
0
100
AcDbBlockBegin
  2
BLOCK6
 70
     0
 10
0.0
 20
0.0
 30
0.0
  3
BLOCK6
  1

  0
LINE
  5
2AA
100
AcDbEntity
  8
0
370
     5
390
0
 62
     7
 48
0.000505
100
AcDbLine
 10
8.03978
 20
0.605292
 30
0.0
 11
8.054382
 21
0.591339
 31
0.0
210
0.0
220
0.0
230
1.0
  0
LINE
  5
2AB
100
AcDbEntity
  8
0
370
     5
390
0
 62
     7
 48
0.001141
100
AcDbLine
 10
8.054382
 20
0.591339
 30
0.0
 11
8.054382
 21
0.545696
 31
0.0
210
0.0
220
0.0
230
1.0
  0
LINE
  5
2AC
100
AcDbEntity
  8
0
370
     5
390
0
 62
     7
 48
0.00008
100
AcDbLine
 10
8.054382
 20
0.545696
 30
0.0
 11
8.051189
 21
0.545309
 31
0.0
210
0.0
220
0.0
230
1.0
  0
LINE
  5
2AD
100
AcDbEntity
  8
0
370
     5
390
0
 62
     7
 48
0.000076
100
AcDbLine
 10
8.051189
 20
0.545309
 30
0.0
 11
8.048231
 21
0.544665
 31
0.0
210
0.0
220
0.0
230
1.0
  0
LINE
  5
2AE
100
AcDbEntity
  8
0
370
     5
390
0
 62
     7
 48
0.000072
100
AcDbLine
 10
8.048231
 20
0.544665
 30
0.0
 11
8.045504
 21
0.543768
 31
0.0
210
0.0
220
0.0
230
1.0
  0
LINE
  5
2AF
100
AcDbEntity
  8
0
370
     5
390
0
 62
     7
 48
0.000069
100
AcDbLine
 10
8.045504
 20
0.543768
 30
0.0
 11
8.043013
 21
0.542615
 31
0.0
210
0.0
220
0.0
230
1.0
  0
LINE
  5
2B0
100
AcDbEntity
  8
0
370
     5
390
0
 62
     7
 48
0.000067
100
AcDbLine
 10
8.043013
 20
0.542615
 30
0.0
 11
8.040755
 21
0.541208
 31
0.0
210
0.0
220
0.0
230
1.0
  0
LINE
  5
2B1
100
AcDbEntity
  8
0
370
     5
390
0
 62
     7
 48
0.000066
100
AcDbLine
 10
8.040755
 20
0.541208
 30
0.0
 11
8.03873
 21
0.539544
 31
0.0
210
0.0
220
0.0
230
1.0
  0
LINE
  5
2B2
100
AcDbEntity
  8
0
370
     5
390
0
 62
     7
 48
0.000066
100
AcDbLine
 10
8.03873
 20
0.539544
 30
0.0
 11
8.036938
 21
0.537626
 31
0.0
210
0.0
220
0.0
230
1.0
  0
LINE
  5
2B3
100
AcDbEntity
  8
0
370
     5
390
0
 62
     7
 48
0.000067
100
AcDbLine
 10
8.036938
 20
0.537626
 30
0.0
 11
8.03538
 21
0.535451
 31
0.0
210
0.0
220
0.0
230
1.0
  0
LINE
  5
2B4
100
AcDbEntity
  8
0
370
     5
390
0
 62
     7
 48
0.000069
100
AcDbLine
 10
8.03538
 20
0.535451
 30
0.0
 11
8.034058
 21
0.533022
 31
0.0
210
0.0
220
0.0
230
1.0
  0
LINE
  5
2B5
100
AcDbEntity
  8
0
370
     5
390
0
 62
     7
 48
0.000072
100
AcDbLine
 10
8.034058
 20
0.533022
 30
0.0
 11
8.032967
 21
0.530337
 31
0.0
210
0.0
220
0.0
230
1.0
  0
LINE
  5
2B6
100
AcDbEntity
  8
0
370
     5
390
0
 62
     7
 48
0.000047
100
AcDbLine
 10
8.032967
 20
0.530337
 30
0.0
 11
8.033725
 21
0.528606
 31
0.0
210
0.0
220
0.0
230
1.0
  0
LINE
  5
2B7
100
AcDbEntity
  8
0
370
     5
390
0
 62
     7
 48
0.000054
100
AcDbLine
 10
8.033725
 20
0.528606
 30
0.0
 11
8.035222
 21
0.530168
 31
0.0
210
0.0
220
0.0
230
1.0
  0
LINE
  5
2B8
100
AcDbEntity
  8
0
370
     5
390
0
 62
     7
 48
0.000052
100
AcDbLine
 10
8.035222
 20
0.530168
 30
0.0
 11
8.036774
 21
0.531566
 31
0.0
210
0.0
220
0.0
230
1.0
  0
LINE
  5
2B9
100
AcDbEntity
  8
0
370
     5
390
0
 62
     7
 48
0.000051
100
AcDbLine
 10
8.036774
 20
0.531566
 30
0.0
 11
8.038381
 21
0.532799
 31
0.0
210
0.0
220
0.0
230
1.0
  0
LINE
  5
2BA
100
AcDbEntity
  8
0
370
     5
390
0
 62
     7
 48
0.000049
100
AcDbLine
 10
8.038381
 20
0.532799
 30
0.0
 11
8.04004
 21
0.533868
 31
0.0
210
0.0
220
0.0
230
1.0
  0
LINE
  5
2BB
100
AcDbEntity
  8
0
370
     5
390
0
 62
     7
 48
0.000048
100
AcDbLine
 10
8.04004
 20
0.533868
 30
0.0
 11
8.041754
 21
0.534771
 31
0.0
210
0.0
220
0.0
230
1.0
  0
LINE
  5
2BC
100
AcDbEntity
  8
0
370
     5
390
0
 62
     7
 48
0.000048
100
AcDbLine
 10
8.041754
 20
0.534771
 30
0.0
 11
8.043522
 21
0.535512
 31
0.0
210
0.0
220
0.0
230
1.0
  0
LINE
  5
2BD
100
AcDbEntity
  8
0
370
     5
390
0
 62
     7
 48
0.000048
100
AcDbLine
 10
8.043522
 20
0.535512
 30
0.0
 11
8.045345
 21
0.536087
 31
0.0
210
0.0
220
0.0
230
1.0
  0
LINE
  5
2BE
100
AcDbEntity
  8
0
370
     5
390
0
 62
     7
 48
0.000048
100
AcDbLine
 10
8.045345
 20
0.536087
 30
0.0
 11
8.047222
 21
0.536498
 31
0.0
210
0.0
220
0.0
230
1.0
  0
LINE
  5
2BF
100
AcDbEntity
  8
0
370
     5
390
0
 62
     7
 48
0.000049
100
AcDbLine
 10
8.047222
 20
0.536498
 30
0.0
 11
8.049152
 21
0.536744
 31
0.0
210
0.0
220
0.0
230
1.0
  0
LINE
  5
2C0
100
AcDbEntity
  8
0
370
     5
390
0
 62
     7
 48
0.00005
100
AcDbLine
 10
8.049152
 20
0.536744
 30
0.0
 11
8.051138
 21
0.536826
 31
0.0
210
0.0
220
0.0
230
1.0
  0
LINE
  5
2C1
100
AcDbEntity
  8
0
370
     5
390
0
 62
     7
 48
0.000041
100
AcDbLine
 10
8.051138
 20
0.536826
 30
0.0
 11
8.052773
 21
0.536748
 31
0.0
210
0.0
220
0.0
230
1.0
  0
LINE
  5
2C2
100
AcDbEntity
  8
0
370
     5
390
0
 62
     7
 48
0.00004
100
AcDbLine
 10
8.052773
 20
0.536748
 30
0.0
 11
8.054382
 21
0.53661
 31
0.0
210
0.0
220
0.0
230
1.0
  0
LINE
  5
2C3
100
AcDbEntity
  8
0
370
     5
390
0
 62
     7
 48
0.000127
100
AcDbLine
 10
8.054382
 20
0.53661
 30
0.0
 11
8.054382
 21
0.531527
 31
0.0
210
0.0
220
0.0
230
1.0
  0
LINE
  5
2C4
100
AcDbEntity
  8
0
370
     5
390
0
 62
     7
 48
0.000051
100
AcDbLine
 10
8.054382
 20
0.531527
 30
0.0
 11
8.052347
 21
0.531458
 31
0.0
210
0.0
220
0.0
230
1.0
  0
LINE
  5
2C5
100
AcDbEntity
  8
0
370
     5
390
0
 62
     7
 48
0.000049
100
AcDbLine
 10
8.052347
 20
0.531458
 30
0.0
 11
8.050394
 21
0.531249
 31
0.0
210
0.0
220
0.0
230
1.0
  0
LINE
  5
2C6
100
AcDbEntity
  8
0
370
     5
390
0
 62
     7
 48
0.000048
100
AcDbLine
 10
8.050394
 20
0.531249
 30
0.0
 11
8.048522
 21
0.530904
 31
0.0
210
0.0
220
0.0
230
1.0
  0
LINE
  5
2C7
100
AcDbEntity
  8
0
370
     5
390
0
 62
     7
 48
0.000046
100
AcDbLine
 10
8.048522
 20
0.530904
 30
0.0
 11
8.046733
 21
0.53042
 31
0.0
210
0.0
220
0.0
230
1.0
  0
LINE
  5
2C8
100
AcDbEntity
  8
0
370
     5
390
0
 62
     7
 48
0.000045
100
AcDbLine
 10
8.046733
 20
0.53042
 30
0.0
 11
8.045027
 21
0.529796
 31
0.0
210
0.0
220
0.0
230
1.0
  0
LINE
  5
2C9
100
AcDbEntity
  8
0
370
     5
390
0
 62
     7
 48
0.000045
100
AcDbLine
 10
8.045027
 20
0.529796
 30
0.0
 11
8.043403
 21
0.529035
 31
0.0
210
0.0
220
0.0
230
1.0
  0
LINE
  5
2CA
100
AcDbEntity
  8
0
370
     5
390
0
 62
     7
 48
0.000045
100
AcDbLine
 10
8.043403
 20
0.529035
 30
0.0
 11
8.041859
 21
0.528135
 31
0.0
210
0.0
220
0.0
230
1.0
  0
LINE
  5
2CB
100
AcDbEntity
  8
0
370
     5
390
0
 62
     7
 48
0.000045
100
AcDbLine
 10
8.041859
 20
0.528135
 30
0.0
 11
8.0404
 21
0.527097
 31
0.0
210
0.0
220
0.0
230
1.0
  0
LINE
  5
2CC
100
AcDbEntity
  8
0
370
     5
390
0
 62
     7
 48
0.000045
100
AcDbLine
 10
8.0404
 20
0.527097
 30
0.0
 11
8.039021
 21
0.52592
 31
0.0
210
0.0
220
0.0
230
1.0
  0
LINE
  5
2CD
100
AcDbEntity
  8
0
370
     5
390
0
 62
     7
 48
0.000046
100
AcDbLine
 10
8.039021
 20
0.52592
 30
0.0
 11
8.037725
 21
0.524604
 31
0.0
210
0.0
220
0.0
230
1.0
  0
LINE
  5
2CE
100
AcDbEntity
  8
0
370
     5
390
0
 62
     7
 48
0.000077
100
AcDbLine
 10
8.037725
 20
0.524604
 30
0.0
 11
8.03978
 21
0.522333
 31
0.0
210
0.0
220
0.0
230
1.0
  0
LINE
  5
2CF
100
AcDbEntity
  8
0
370
     5
390
0
 62
     7
 48
0.000044
100
AcDbLine
 10
8.03978
 20
0.522333
 30
0.0
 11
8.041057
 21
0.523526
 31
0.0
210
0.0
220
0.0
230
1.0
  0
LINE
  5
2D0
100
AcDbEntity
  8
0
370
     5
390
0
 62
     7
 48
0.000042
100
AcDbLine
 10
8.041057
 20
0.523526
 30
0.0
 11
8.042372
 21
0.524592
 31
0.0
210
0.0
220
0.0
230
1.0
  0
LINE
  5
2D1
100
AcDbEntity
  8
0
370
     5
390
0
 62
     7
 48
0.000041
100
AcDbLine
 10
8.042372
 20
0.524592
 30
0.0
 11
8.04373
 21
0.525533
 31
0.0
210
0.0
220
0.0
230
1.0
  0
LINE
  5
2D2
100
AcDbEntity
  8
0
370
     5
390
0
 62
     7
 48
0.000041
100
AcDbLine
 10
8.04373
 20
0.525533
 30
0.0
 11
8.045129
 21
0.526349
 31
0.0
210
0.0
220
0.0
230
1.0
  0
LINE
  5
2D3
100
AcDbEntity
  8
0
370
     5
390
0
 62
     7
 48
0.00004
100
AcDbLine
 10
8.045129
 20
0.526349
 30
0.0
 11
8.046567
 21
0.527039
 31
0.0
210
0.0
220
0.0
230
1.0
  0
LINE
  5
2D4
100
AcDbEntity
  8
0
370
     5
390
0
 62
     7
 48
0.00004
100
AcDbLine
 10
8.046567
 20
0.527039
 30
0.0
 11
8.048048
 21
0.527603
 31
0.0
210
0.0
220
0.0
230
1.0
  0
LINE
  5
2D5
100
AcDbEntity
  8
0
370
     5
390
0
 62
     7
 48
0.00004
100
AcDbLine
 10
8.048048
 20
0.527603
 30
0.0
 11
8.049571
 21
0.528042
 31
0.0
210
0.0
220
0.0
230
1.0
  0
LINE
  5
2D6
100
AcDbEntity
  8
0
370
     5
390
0
 62
     7
 48
0.00004
100
AcDbLine
 10
8.049571
 20
0.528042
 30
0.0
 11
8.051134
 21
0.528356
 31
0.0
210
0.0
220
0.0
230
1.0
  0
LINE
  5
2D7
100
AcDbEntity
  8
0
370
     5
390
0
 62
     7
 48
0.00004
100
AcDbLine
 10
8.051134
 20
0.528356
 30
0.0
 11
8.052737
 21
0.528543
 31
0.0
210
0.0
220
0.0
230
1.0
  0
LINE
  5
2D8
100
AcDbEntity
  8
0
370
     5
390
0
 62
     7
 48
0.000041
100
AcDbLine
 10
8.052737
 20
0.528543
 30
0.0
 11
8.054382
 21
0.528606
 31
0.0
210
0.0
220
0.0
230
1.0
  0
LINE
  5
2D9
100
AcDbEntity
  8
0
370
     5
390
0
 62
     7
 48
0.001163
100
AcDbLine
 10
8.054382
 20
0.528606
 30
0.0
 11
8.054382
 21
0.482097
 31
0.0
210
0.0
220
0.0
230
1.0
  0
LINE
  5
2DA
100
AcDbEntity
  8
0
370
     5
390
0
 62
     7
 48
0.000564
100
AcDbLine
 10
8.054382
 20
0.482097
 30
0.0
 11
8.036753
 21
0.468038
 31
0.0
210
0.0
220
0.0
230
1.0
  0
LINE
  5
2DB
100
AcDbEntity
  8
0
370
     5
390
0
 62
     7
 48
0.001328
100
AcDbLine
 10
8.036753
 20
0.468038
 30
0.0
 11
8.089859
 21
0.468038
 31
0.0
210
0.0
220
0.0
230
1.0
  0
LINE
  5
2DC
100
AcDbEntity
  8
0
370
     5
390
0
 62
     7
 48
0.000493
100
AcDbLine
 10
8.089859
 20
0.468038
 30
0.0
 11
8.076014
 21
0.482097
 31
0.0
210
0.0
220
0.0
230
1.0
  0
LINE
  5
2DD
100
AcDbEntity
  8
0
370
     5
390
0
 62
     7
 48
0.001363
100
AcDbLine
 10
8.076014
 20
0.482097
 30
0.0
 11
8.076014
 21
0.53661
 31
0.0
210
0.0
220
0.0
230
1.0
  0
LINE
  5
2DE
100
AcDbEntity
  8
0
370
     5
390
0
 62
     7
 48
0.000619
100
AcDbLine
 10
8.076014
 20
0.53661
 30
0.0
 11
8.100782
 21
0.53661
 31
0.0
210
0.0
220
0.0
230
1.0
  0
LINE
  5
2DF
100
AcDbEntity
  8
0
370
     5
390
0
 62
     7
 48
0.000639
100
AcDbLine
 10
8.100782
 20
0.53661
 30
0.0
 11
8.118953
 21
0.518655
 31
0.0
210
0.0
220
0.0
230
1.0
  0
LINE
  5
2E0
100
AcDbEntity
  8
0
370
     5
390
0
 62
     7
 48
0.001133
100
AcDbLine
 10
8.118953
 20
0.518655
 30
0.0
 11
8.118953
 21
0.563975
 31
0.0
210
0.0
220
0.0
230
1.0
  0
LINE
  5
2E1
100
AcDbEntity
  8
0
370
     5
390
0
 62
     7
 48
0.000629
100
AcDbLine
 10
8.118953
 20
0.563975
 30
0.0
 11
8.101647
 21
0.545696
 31
0.0
210
0.0
220
0.0
230
1.0
  0
LINE
  5
2E2
100
AcDbEntity
  8
0
370
     5
390
0
 62
     7
 48
0.000408
100
AcDbLine
 10
8.101647
 20
0.545696
 30
0.0
 11
8.085316
 21
0.545696
 31
0.0
210
0.0
220
0.0
230
1.0
  0
LINE
  5
2E3
100
AcDbEntity
  8
0
370
     5
390
0
 62
     7
 48
0.001044
100
AcDbLine
 10
8.085316
 20
0.545696
 30
0.0
 11
8.085316
 21
0.587445
 31
0.0
210
0.0
220
0.0
230
1.0
  0
LINE
  5
2E4
100
AcDbEntity
  8
0
370
     5
390
0
 62
     7
 48
0.000067
100
AcDbLine
 10
8.085316
 20
0.587445
 30
0.0
 11
8.087994
 21
0.58764
 31
0.0
210
0.0
220
0.0
230
1.0
  0
LINE
  5
2E5
100
AcDbEntity
  8
0
370
     5
390
0
 62
     7
 48
0.000063
100
AcDbLine
 10
8.087994
 20
0.58764
 30
0.0
 11
8.090491
 21
0.587792
 31
0.0
210
0.0
220
0.0
230
1.0
  0
LINE
  5
2E6
100
AcDbEntity
  8
0
370
     5
390
0
 62
     7
 48
0.000058
100
AcDbLine
 10
8.090491
 20
0.587792
 30
0.0
 11
8.092805
 21
0.5879
 31
0.0
210
0.0
220
0.0
230
1.0
  0
LINE
  5
2E7
100
AcDbEntity
  8
0
370
     5
390
0
 62
     7
 48
0.000053
100
AcDbLine
 10
8.092805
 20
0.5879
 30
0.0
 11
8.094938
 21
0.587964
 31
0.0
210
0.0
220
0.0
230
1.0
  0
LINE
  5
2E8
100
AcDbEntity
  8
0
370
     5
390
0
 62
     7
 48
0.000049
100
AcDbLine
 10
8.094938
 20
0.587964
 30
0.0
 11
8.09689
 21
0.587987
 31
0.0
210
0.0
220
0.0
230
1.0
  0
LINE
  5
2E9
100
AcDbEntity
  8
0
370
     5
390
0
 62
     7
 48
0.000063
100
AcDbLine
 10
8.09689
 20
0.587987
 30
0.0
 11
8.099417
 21
0.587969
 31
0.0
210
0.0
220
0.0
230
1.0
  0
LINE
  5
2EA
100
AcDbEntity
  8
0
370
     5
390
0
 62
     7
 48
0.00006
100
AcDbLine
 10
8.099417
 20
0.587969
 30
0.0
 11
8.101811
 21
0.587915
 31
0.0
210
0.0
220
0.0
230
1.0
  0
LINE
  5
2EB
100
AcDbEntity
  8
0
370
     5
390
0
 62
     7
 48
0.000056
100
AcDbLine
 10
8.101811
 20
0.587915
 30
0.0
 11
8.104068
 21
0.587826
 31
0.0
210
0.0
220
0.0
230
1.0
  0
LINE
  5
2EC
100
AcDbEntity
  8
0
370
     5
390
0
 62
     7
 48
0.000053
100
AcDbLine
 10
8.104068
 20
0.587826
 30
0.0
 11
8.106191
 21
0.5877
 31
0.0
210
0.0
220
0.0
230
1.0
  0
LINE
  5
2ED
100
AcDbEntity
  8
0
370
     5
390
0
 62
     7
 48
0.00005
100
AcDbLine
 10
8.106191
 20
0.5877
 30
0.0
 11
8.108179
 21
0.58754
 31
0.0
210
0.0
220
0.0
230
1.0
  0
LINE
  5
2EE
100
AcDbEntity
  8
0
370
     5
390
0
 62
     7
 48
0.000047
100
AcDbLine
 10
8.108179
 20
0.58754
 30
0.0
 11
8.110031
 21
0.587343
 31
0.0
210
0.0
220
0.0
230
1.0
  0
LINE
  5
2EF
100
AcDbEntity
  8
0
370
     5
390
0
 62
     7
 48
0.000043
100
AcDbLine
 10
8.110031
 20
0.587343
 30
0.0
 11
8.111747
 21
0.587112
 31
0.0
210
0.0
220
0.0
230
1.0
  0
LINE
  5
2F0
100
AcDbEntity
  8
0
370
     5
390
0
 62
     7
 48
0.00004
100
AcDbLine
 10
8.111747
 20
0.587112
 30
0.0
 11
8.113329
 21
0.586844
 31
0.0
210
0.0
220
0.0
230
1.0
  0
LINE
  5
2F1
100
AcDbEntity
  8
0
370
     5
390
0
 62
     7
 48
0.000071
100
AcDbLine
 10
8.113329
 20
0.586844
 30
0.0
 11
8.116087
 21
0.586202
 31
0.0
210
0.0
220
0.0
230
1.0
  0
LINE
  5
2F2
100
AcDbEntity
  8
0
370
     5
390
0
 62
     7
 48
0.000065
100
AcDbLine
 10
8.116087
 20
0.586202
 30
0.0
 11
8.118538
 21
0.585356
 31
0.0
210
0.0
220
0.0
230
1.0
  0
LINE
  5
2F3
100
AcDbEntity
  8
0
370
     5
390
0
 62
     7
 48
0.000066
100
AcDbLine
 10
8.118538
 20
0.585356
 30
0.0
 11
8.120915
 21
0.584246
 31
0.0
210
0.0
220
0.0
230
1.0
  0
LINE
  5
2F4
100
AcDbEntity
  8
0
370
     5
390
0
 62
     7
 48
0.000067
100
AcDbLine
 10
8.120915
 20
0.584246
 30
0.0
 11
8.123219
 21
0.582873
 31
0.0
210
0.0
220
0.0
230
1.0
  0
LINE
  5
2F5
100
AcDbEntity
  8
0
370
     5
390
0
 62
     7
 48
0.000069
100
AcDbLine
 10
8.123219
 20
0.582873
 30
0.0
 11
8.125449
 21
0.581235
 31
0.0
210
0.0
220
0.0
230
1.0
  0
LINE
  5
2F6
100
AcDbEntity
  8
0
370
     5
390
0
 62
     7
 48
0.000072
100
AcDbLine
 10
8.125449
 20
0.581235
 30
0.0
 11
8.127607
 21
0.579333
 31
0.0
210
0.0
220
0.0
230
1.0
  0
LINE
  5
2F7
100
AcDbEntity
  8
0
370
     5
390
0
 62
     7
 48
0.000063
100
AcDbLine
 10
8.127607
 20
0.579333
 30
0.0
 11
8.126338
 21
0.581511
 31
0.0
210
0.0
220
0.0
230
1.0
  0
LINE
  5
2F8
100
AcDbEntity
  8
0
370
     5
390
0
 62
     7
 48
0.000063
100
AcDbLine
 10
8.126338
 20
0.581511
 30
0.0
 11
8.124737
 21
0.583461
 31
0.0
210
0.0
220
0.0
230
1.0
  0
LINE
  5
2F9
100
AcDbEntity
  8
0
370
     5
390
0
 62
     7
 48
0.000065
100
AcDbLine
 10
8.124737
 20
0.583461
 30
0.0
 11
8.122807
 21
0.58518
 31
0.0
210
0.0
220
0.0
230
1.0
  0
LINE
  5
2FA
100
AcDbEntity
  8
0
370
     5
390
0
 62
     7
 48
0.000068
100
AcDbLine
 10
8.122807
 20
0.58518
 30
0.0
 11
8.120546
 21
0.586671
 31
0.0
210
0.0
220
0.0
230
1.0
  0
LINE
  5
2FB
100
AcDbEntity
  8
0
370
     5
390
0
 62
     7
 48
0.000072
100
AcDbLine
 10
8.120546
 20
0.586671
 30
0.0
 11
8.117954
 21
0.587933
 31
0.0
210
0.0
220
0.0
230
1.0
  0
LINE
  5
2FC
100
AcDbEntity
  8
0
370
     5
390
0
 62
     7
 48
0.000078
100
AcDbLine
 10
8.117954
 20
0.587933
 30
0.0
 11
8.115029
 21
0.588965
 31
0.0
210
0.0
220
0.0
230
1.0
  0
LINE
  5
2FD
100
AcDbEntity
  8
0
370
     5
390
0
 62
     7
 48
0.000084
100
AcDbLine
 10
8.115029
 20
0.588965
 30
0.0
 11
8.111775
 21
0.589767
 31
0.0
210
0.0
220
0.0
230
1.0
  0
LINE
  5
2FE
100
AcDbEntity
  8
0
370
     5
390
0
 62
     7
 48
0.000091
100
AcDbLine
 10
8.111775
 20
0.589767
 30
0.0
 11
8.108189
 21
0.59034
 31
0.0
210
0.0
220
0.0
230
1.0
  0
LINE
  5
2FF
100
AcDbEntity
  8
0
370
     5
390
0
 62
     7
 48
0.000098
100
AcDbLine
 10
8.108189
 20
0.59034
 30
0.0
 11
8.104273
 21
0.590684
 31
0.0
210
0.0
220
0.0
230
1.0
  0
LINE
  5
300
100
AcDbEntity
  8
0
370
     5
390
0
 62
     7
 48
0.000106
100
AcDbLine
 10
8.104273
 20
0.590684
 30
0.0
 11
8.100026
 21
0.590798
 31
0.0
210
0.0
220
0.0
230
1.0
  0
LINE
  5
301
100
AcDbEntity
  8
0
370
     5
390
0
 62
     7
 48
0.000075
100
AcDbLine
 10
8.100026
 20
0.590798
 30
0.0
 11
8.097032
 21
0.590786
 31
0.0
210
0.0
220
0.0
230
1.0
  0
LINE
  5
302
100
AcDbEntity
  8
0
370
     5
390
0
 62
     7
 48
0.000073
100
AcDbLine
 10
8.097032
 20
0.590786
 30
0.0
 11
8.094107
 21
0.590747
 31
0.0
210
0.0
220
0.0
230
1.0
  0
LINE
  5
303
100
AcDbEntity
  8
0
370
     5
390
0
 62
     7
 48
0.000071
100
AcDbLine
 10
8.094107
 20
0.590747
 30
0.0
 11
8.091251
 21
0.590682
 31
0.0
210
0.0
220
0.0
230
1.0
  0
LINE
  5
304
100
AcDbEntity
  8
0
370
     5
390
0
 62
     7
 48
0.00007
100
AcDbLine
 10
8.091251
 20
0.590682
 30
0.0
 11
8.088465
 21
0.590591
 31
0.0
210
0.0
220
0.0
230
1.0
  0
LINE
  5
305
100
AcDbEntity
  8
0
370
     5
390
0
 62
     7
 48
0.000068
100
AcDbLine
 10
8.088465
 20
0.590591
 30
0.0
 11
8.085749
 21
0.590474
 31
0.0
210
0.0
220
0.0
230
1.0
  0
LINE
  5
306
100
AcDbEntity
  8
0
370
     5
390
0
 62
     7
 48
0.000078
100
AcDbLine
 10
8.085749
 20
0.590474
 30
0.0
 11
8.082612
 21
0.590366
 31
0.0
210
0.0
220
0.0
230
1.0
  0
LINE
  5
307
100
AcDbEntity
  8
0
370
     5
390
0
 62
     7
 48
0.001117
100
AcDbLine
 10
8.082612
 20
0.590366
 30
0.0
 11
8.082612
 21
0.545696
 31
0.0
210
0.0
220
0.0
230
1.0
  0
LINE
  5
308
100
AcDbEntity
  8
0
370
     5
390
0
 62
     7
 48
0.000165
100
AcDbLine
 10
8.082612
 20
0.545696
 30
0.0
 11
8.076014
 21
0.545696
 31
0.0
210
0.0
220
0.0
230
1.0
  0
LINE
  5
309
100
AcDbEntity
  8
0
370
     5
390
0
 62
     7
 48
0.001265
100
AcDbLine
 10
8.076014
 20
0.545696
 30
0.0
 11
8.076014
 21
0.596315
 31
0.0
210
0.0
220
0.0
230
1.0
  0
LINE
  5
30A
100
AcDbEntity
  8
0
370
     5
390
0
 62
     7
 48
0.0001
100
AcDbLine
 10
8.076014
 20
0.596315
 30
0.0
 11
8.080016
 21
0.596207
 31
0.0
210
0.0
220
0.0
230
1.0
  0
LINE
  5
30B
100
AcDbEntity
  8
0
370
     5
390
0
 62
     7
 48
0.000262
100
AcDbLine
 10
8.080016
 20
0.596207
 30
0.0
 11
8.090507
 21
0.596099
 31
0.0
210
0.0
220
0.0
230
1.0
  0
LINE
  5
30C
100
AcDbEntity
  8
0
370
     5
390
0
 62
     7
 48
0.000154
100
AcDbLine
 10
8.090507
 20
0.596099
 30
0.0
 11
8.096672
 21
0.596207
 31
0.0
210
0.0
220
0.0
230
1.0
  0
LINE
  5
30D
100
AcDbEntity
  8
0
370
     5
390
0
 62
     7
 48
0.00008
100
AcDbLine
 10
8.096672
 20
0.596207
 30
0.0
 11
8.099887
 21
0.596163
 31
0.0
210
0.0
220
0.0
230
1.0
  0
LINE
  5
30E
100
AcDbEntity
  8
0
370
     5
390
0
 62
     7
 48
0.000076
100
AcDbLine
 10
8.099887
 20
0.596163
 30
0.0
 11
8.102909
 21
0.596033
 31
0.0
210
0.0
220
0.0
230
1.0
  0
LINE
  5
30F
100
AcDbEntity
  8
0
370
     5
390
0
 62
     7
 48
0.000071
100
AcDbLine
 10
8.102909
 20
0.596033
 30
0.0
 11
8.10574
 21
0.595817
 31
0.0
210
0.0
220
0.0
230
1.0
  0
LINE
  5
310
100
AcDbEntity
  8
0
370
     5
390
0
 62
     7
 48
0.000066
100
AcDbLine
 10
8.10574
 20
0.595817
 30
0.0
 11
8.108379
 21
0.595514
 31
0.0
210
0.0
220
0.0
230
1.0
  0
LINE
  5
311
100
AcDbEntity
  8
0
370
     5
390
0
 62
     7
 48
0.000062
100
AcDbLine
 10
8.108379
 20
0.595514
 30
0.0
 11
8.110827
 21
0.595125
 31
0.0
210
0.0
220
0.0
230
1.0
  0
LINE
  5
312
100
AcDbEntity
  8
0
370
     5
390
0
 62
     7
 48
0.000058
100
AcDbLine
 10
8.110827
 20
0.595125
 30
0.0
 11
8.113085
 21
0.594648
 31
0.0
210
0.0
220
0.0
230
1.0
  0
LINE
  5
313
100
AcDbEntity
  8
0
370
     5
390
0
 62
     7
 48
0.000054
100
AcDbLine
 10
8.113085
 20
0.594648
 30
0.0
 11
8.11515
 21
0.594086
 31
0.0
210
0.0
220
0.0
230
1.0
  0
LINE
  5
314
100
AcDbEntity
  8
0
370
     5
390
0
 62
     7
 48
0.00005
100
AcDbLine
 10
8.11515
 20
0.594086
 30
0.0
 11
8.117024
 21
0.593438
 31
0.0
210
0.0
220
0.0
230
1.0
  0
LINE
  5
315
100
AcDbEntity
  8
0
370
     5
390
0
 62
     7
 48
0.000046
100
AcDbLine
 10
8.117024
 20
0.593438
 30
0.0
 11
8.118707
 21
0.592701
 31
0.0
210
0.0
220
0.0
230
1.0
  0
LINE
  5
316
100
AcDbEntity
  8
0
370
     5
390
0
 62
     7
 48
0.000043
100
AcDbLine
 10
8.118707
 20
0.592701
 30
0.0
 11
8.120198
 21
0.591881
 31
0.0
210
0.0
220
0.0
230
1.0
  0
LINE
  5
317
100
AcDbEntity
  8
0
370
     5
390
0
 62
     7
 48
0.000043
100
AcDbLine
 10
8.120198
 20
0.591881
 30
0.0
 11
8.121594
 21
0.59091
 31
0.0
210
0.0
220
0.0
230
1.0
  0
LINE
  5
318
100
AcDbEntity
  8
0
370
     5
390
0
 62
     7
 48
0.000046
100
AcDbLine
 10
8.121594
 20
0.59091
 30
0.0
 11
8.122994
 21
0.589734
 31
0.0
210
0.0
220
0.0
230
1.0
  0
LINE
  5
319
100
AcDbEntity
  8
0
370
     5
390
0
 62
     7
 48
0.000049
100
AcDbLine
 10
8.122994
 20
0.589734
 30
0.0
 11
8.124398
 21
0.58835
 31
0.0
210
0.0
220
0.0
230
1.0
  0
LINE
  5
31A
100
AcDbEntity
  8
0
370
     5
390
0
 62
     7
 48
0.000053
100
AcDbLine
 10
8.124398
 20
0.58835
 30
0.0
 11
8.125804
 21
0.586758
 31
0.0
210
0.0
220
0.0
230
1.0
  0
LINE
  5
31B
100
AcDbEntity
  8
0
370
     5
390
0
 62
     7
 48
0.000057
100
AcDbLine
 10
8.125804
 20
0.586758
 30
0.0
 11
8.127215
 21
0.584958
 31
0.0
210
0.0
220
0.0
230
1.0
  0
LINE
  5
31C
100
AcDbEntity
  8
0
370
     5
390
0
 62
     7
 48
0.000061
100
AcDbLine
 10
8.127215
 20
0.584958
 30
0.0
 11
8.128628
 21
0.582951
 31
0.0
210
0.0
220
0.0
230
1.0
  0
LINE
  5
31D
100
AcDbEntity
  8
0
370
     5
390
0
 62
     7
 48
0.000066
100
AcDbLine
 10
8.128628
 20
0.582951
 30
0.0
 11
8.130044
 21
0.580736
 31
0.0
210
0.0
220
0.0
230
1.0
  0
LINE
  5
31E
100
AcDbEntity
  8
0
370
     5
390
0
 62
     7
 48
0.00007
100
AcDbLine
 10
8.130044
 20
0.580736
 30
0.0
 11
8.131463
 21
0.578313
 31
0.0
210
0.0
220
0.0
230
1.0
  0
LINE
  5
31F
100
AcDbEntity
  8
0
370
     5
390
0
 62
     7
 48
0.000075
100
AcDbLine
 10
8.131463
 20
0.578313
 30
0.0
 11
8.132887
 21
0.575682
 31
0.0
210
0.0
220
0.0
230
1.0
  0
LINE
  5
320
100
AcDbEntity
  8
0
370
     5
390
0
 62
     7
 48
0.000079
100
AcDbLine
 10
8.132887
 20
0.575682
 30
0.0
 11
8.134311
 21
0.572844
 31
0.0
210
0.0
220
0.0
230
1.0
  0
LINE
  5
321
100
AcDbEntity
  8
0
370
     5
390
0
 62
     7
 48
0.000058
100
AcDbLine
 10
8.134311
 20
0.572844
 30
0.0
 11
8.135177
 21
0.575007
 31
0.0
210
0.0
220
0.0
230
1.0
  0
LINE
  5
322
100
AcDbEntity
  8
0
370
     5
390
0
 62
     7
 48
0.000059
100
AcDbLine
 10
8.135177
 20
0.575007
 30
0.0
 11
8.136049
 21
0.577196
 31
0.0
210
0.0
220
0.0
230
1.0
  0
LINE
  5
323
100
AcDbEntity
  8
0
370
     5
390
0
 62
     7
 48
0.000056
100
AcDbLine
 10
8.136049
 20
0.577196
 30
0.0
 11
8.136889
 21
0.57926
 31
0.0
210
0.0
220
0.0
230
1.0
  0
LINE
  5
324
100
AcDbEntity
  8
0
370
     5
390
0
 62
     7
 48
0.000053
100
AcDbLine
 10
8.136889
 20
0.57926
 30
0.0
 11
8.137697
 21
0.581201
 31
0.0
210
0.0
220
0.0
230
1.0
  0
LINE
  5
325
100
AcDbEntity
  8
0
370
     5
390
0
 62
     7
 48
0.000049
100
AcDbLine
 10
8.137697
 20
0.581201
 30
0.0
 11
8.138474
 21
0.583019
 31
0.0
210
0.0
220
0.0
230
1.0
  0
LINE
  5
326
100
AcDbEntity
  8
0
370
     5
390
0
 62
     7
 48
0.000046
100
AcDbLine
 10
8.138474
 20
0.583019
 30
0.0
 11
8.13922
 21
0.584714
 31
0.0
210
0.0
220
0.0
230
1.0
  0
LINE
  5
327
100
AcDbEntity
  8
0
370
     5
390
0
 62
     7
 48
0.000043
100
AcDbLine
 10
8.13922
 20
0.584714
 30
0.0
 11
8.139935
 21
0.586286
 31
0.0
210
0.0
220
0.0
230
1.0
  0
LINE
  5
328
100
AcDbEntity
  8
0
370
     5
390
0
 62
     7
 48
0.00004
100
AcDbLine
 10
8.139935
 20
0.586286
 30
0.0
 11
8.140617
 21
0.587735
 31
0.0
210
0.0
220
0.0
230
1.0
  0
LINE
  5
329
100
AcDbEntity
  8
0
370
     5
390
0
 62
     7
 48
0.000071
100
AcDbLine
 10
8.140617
 20
0.587735
 30
0.0
 11
8.14189
 21
0.590261
 31
0.0
210
0.0
220
0.0
230
1.0
  0
LINE
  5
32A
100
AcDbEntity
  8
0
370
     5
390
0
 62
     7
 48
0.000061
100
AcDbLine
 10
8.14189
 20
0.590261
 30
0.0
 11
8.143089
 21
0.592394
 31
0.0
210
0.0
220
0.0
230
1.0
  0
LINE
  5
32B
100
AcDbEntity
  8
0
370
     5
390
0
 62
     7
 48
0.000069
100
AcDbLine
 10
8.143089
 20
0.592394
 30
0.0
 11
8.144543
 21
0.594729
 31
0.0
210
0.0
220
0.0
230
1.0
  0
LINE
  5
32C
100
AcDbEntity
  8
0
370
     5
390
0
 62
     7
 48
0.000038
100
AcDbLine
 10
8.144543
 20
0.594729
 30
0.0
 11
8.145386
 21
0.596012
 31
0.0
210
0.0
220
0.0
230
1.0
  0
LINE
  5
32D
100
AcDbEntity
  8
0
370
     5
390
0
 62
     7
 48
0.000041
100
AcDbLine
 10
8.145386
 20
0.596012
 30
0.0
 11
8.146304
 21
0.597369
 31
0.0
210
0.0
220
0.0
230
1.0
  0
LINE
  5
32E
100
AcDbEntity
  8
0
370
     5
390
0
 62
     7
 48
0.000044
100
AcDbLine
 10
8.146304
 20
0.597369
 30
0.0
 11
8.1473
 21
0.598802
 31
0.0
210
0.0
220
0.0
230
1.0
  0
LINE
  5
32F
100
AcDbEntity
  8
0
370
     5
390
0
 62
     7
 48
0.000046
100
AcDbLine
 10
8.1473
 20
0.598802
 30
0.0
 11
8.148372
 21
0.600311
 31
0.0
210
0.0
220
0.0
230
1.0
  0
LINE
  5
330
100
AcDbEntity
  8
0
370
     5
390
0
 62
     7
 48
0.000049
100
AcDbLine
 10
8.148372
 20
0.600311
 30
0.0
 11
8.149522
 21
0.601895
 31
0.0
210
0.0
220
0.0
230
1.0
  0
LINE
  5
331
100
AcDbEntity
  8
0
370
     5
390
0
 62
     7
 48
0.000052
100
AcDbLine
 10
8.149522
 20
0.601895
 30
0.0
 11
8.150747
 21
0.603555
 31
0.0
210
0.0
220
0.0
230
1.0
  0
LINE
  5
332
100
AcDbEntity
  8
0
370
     5
390
0
 62
     7
 48
0.000054
100
AcDbLine
 10
8.150747
 20
0.603555
 30
0.0
 11
8.152051
 21
0.605292
 31
0.0
210
0.0
220
0.0
230
1.0
  0
LINE
  5
333
100
AcDbEntity
  8
0
370
     5
390
0
 62
     7
 48
0.002807
100
AcDbLine
 10
8.152051
 20
0.605292
 30
0.0
 11
8.03978
 21
0.605292
 31
0.0
210
0.0
220
0.0
230
1.0
  0
ENDBLK
  5
334
100
AcDbEntity
  8
0
390
0
100
AcDbBlockEnd
  0
BLOCK
  5
335
100
AcDbEntity
  8
0
370
     0
390
0
100
AcDbBlockBegin
  2
BLOCK7
 70
     0
 10
0.0
 20
0.0
 30
0.0
  3
BLOCK7
  1

  0
TEXT
  5
336
100
AcDbEntity
  8
0
370
    13
390
0
 62
     7
 48
0.03937
100
AcDbText
 10
-5.629448
 20
1.63619
 30
0.0
 40
0.205053
  1
4
 72
     5
 11
-5.481289
 21
1.63619
 31
0.0
100
AcDbText
  0
TEXT
  5
337
100
AcDbEntity
  8
0
370
    13
390
0
 62
     7
 48
0.03937
100
AcDbText
 10
-5.481289
 20
1.63619
 30
0.0
 40
0.205053
  1
X
 72
     5
 11
-5.25342
 21
1.63619
 31
0.0
100
AcDbText
  0
ENDBLK
  5
338
100
AcDbEntity
  8
0
390
0
100
AcDbBlockEnd
  0
BLOCK
  5
339
100
AcDbEntity
  8
0
370
     0
390
0
100
AcDbBlockBegin
  2
BLOCK8
 70
     0
 10
0.0
 20
0.0
 30
0.0
  3
BLOCK8
  1

  0
SOLID
  5
33A
100
AcDbEntity
  8
0
370
    13
390
0
 62
     7
 48
0.03937
100
AcDbTrace
 10
-3.10099
 20
-2.783836
 30
0.0
 11
-2.831865
 21
-2.458259
 31
0.0
 12
-3.10099
 22
-2.783836
 32
0.0
 13
-3.192035
 23
-2.678954
 33
0.0
  0
SOLID
  5
33B
100
AcDbEntity
  8
0
370
    13
390
0
 62
     7
 48
0.03937
100
AcDbTrace
 10
3.10099
 20
2.783836
 30
0.0
 11
2.831865
 21
2.458259
 31
0.0
 12
3.10099
 22
2.783836
 32
0.0
 13
3.192035
 23
2.678954
 33
0.0
  0
TEXT
  5
33C
100
AcDbEntity
  8
0
370
    13
390
0
 62
     7
 48
0.03937
100
AcDbText
 10
4.647167
 20
3.120574
 30
0.0
 40
0.205052
  1
7.5
 72
     5
 11
5.017565
 21
3.120574
 31
0.0
100
AcDbText
  0
TEXT
  5
33D
100
AcDbEntity
  8
0
370
    13
390
0
 62
     7
 48
0.03937
100
AcDbText
 10
5.017565
 20
3.120574
 30
0.0
 40
0.205052
  1
"
 72
     5
 11
5.167937
 21
3.120574
 31
0.0
100
AcDbText
  0
TEXT
  5
33E
100
AcDbEntity
  8
0
370
    13
390
0
 62
     7
 48
0.03937
100
AcDbText
 10
4.233781
 20
3.120574
 30
0.0
 40
0.205052
  1
%%c
 72
     5
 11
4.438833
 21
3.120574
 31
0.0
100
AcDbText
  0
LINE
  5
33F
100
AcDbEntity
  8
0
370
    13
390
0
 62
     7
 48
0.008854
100
AcDbLine
 10
3.712947
 20
3.2231
 30
0.0
 11
4.067114
 21
3.2231
 31
0.0
210
0.0
220
0.0
230
1.0
  0
LINE
  5
340
100
AcDbEntity
  8
0
370
    13
390
0
 62
     7
 48
0.005988
100
AcDbLine
 10
-3.32738
 20
-2.888401
 30
0.0
 11
-3.146513
 21
-2.731395
 31
0.0
210
0.0
220
0.0
230
1.0
  0
LINE
  5
341
100
AcDbEntity
  8
0
370
    13
390
0
 62
     7
 48
0.018752
100
AcDbLine
 10
3.146513
 20
2.731395
 30
0.0
 11
3.712947
 21
3.2231
 31
0.0
210
0.0
220
0.0
230
1.0
  0
POLYLINE
  5
342
100
AcDbEntity
  8
0
370
    13
390
0
 62
     7
 48
0.03937
100
AcDb2dPolyline
 66
     1
 10
0.0
 20
0.0
 30
0.0
 70
     1
 71
     3
  0
VERTEX
  5
343
100
AcDbEntity
  8
0
370
     0
390
0
100
AcDbVertex
100
AcDb2dVertex
 10
-3.10099
 20
-2.783836
 30
0.0
  0
VERTEX
  5
344
100
AcDbEntity
  8
0
370
     0
390
0
100
AcDbVertex
100
AcDb2dVertex
 10
-2.831865
 20
-2.458259
 30
0.0
  0
VERTEX
  5
345
100
AcDbEntity
  8
0
370
     0
390
0
100
AcDbVertex
100
AcDb2dVertex
 10
-3.192035
 20
-2.678954
 30
0.0
  0
SEQEND
  5
346
100
AcDbEntity
  8
0
370
     0
390
0
  0
POLYLINE
  5
347
100
AcDbEntity
  8
0
370
    13
390
0
 62
     7
 48
0.03937
100
AcDb2dPolyline
 66
     1
 10
0.0
 20
0.0
 30
0.0
 70
     1
 71
     3
  0
VERTEX
  5
348
100
AcDbEntity
  8
0
370
     0
390
0
100
AcDbVertex
100
AcDb2dVertex
 10
3.10099
 20
2.783836
 30
0.0
  0
VERTEX
  5
349
100
AcDbEntity
  8
0
370
     0
390
0
100
AcDbVertex
100
AcDb2dVertex
 10
2.831865
 20
2.458259
 30
0.0
  0
VERTEX
  5
34A
100
AcDbEntity
  8
0
370
     0
390
0
100
AcDbVertex
100
AcDb2dVertex
 10
3.192035
 20
2.678954
 30
0.0
  0
SEQEND
  5
34B
100
AcDbEntity
  8
0
370
     0
390
0
  0
ENDBLK
  5
34C
100
AcDbEntity
  8
0
390
0
100
AcDbBlockEnd
  0
BLOCK
  5
34D
100
AcDbEntity
  8
0
370
     0
390
0
100
AcDbBlockBegin
  2
BLOCK9
 70
     0
 10
0.0
 20
0.0
 30
0.0
  3
BLOCK9
  1

  0
SOLID
  5
34E
100
AcDbEntity
  8
0
370
    13
390
0
 62
     7
 48
0.03937
100
AcDbTrace
 10
-3.555055
 20
0.568739
 30
0.0
 11
-3.237464
 21
0.290235
 31
0.0
 12
-3.555055
 22
0.568739
 32
0.0
 13
-3.447562
 23
0.656687
 33
0.0
  0
TEXT
  5
34F
100
AcDbEntity
  8
0
370
    13
390
0
 62
     7
 48
0.03937
100
AcDbText
 10
-5.216062
 20
1.151845
 30
0.0
 40
0.205052
  1
0.75
 72
     5
 11
-4.697504
 21
1.151845
 31
0.0
100
AcDbText
  0
TEXT
  5
350
100
AcDbEntity
  8
0
370
    13
390
0
 62
     7
 48
0.03937
100
AcDbText
 10
-4.697504
 20
1.151845
 30
0.0
 40
0.205052
  1
"
 72
     5
 11
-4.547133
 21
1.151845
 31
0.0
100
AcDbText
  0
TEXT
  5
351
100
AcDbEntity
  8
0
370
    13
390
0
 62
     7
 48
0.03937
100
AcDbText
 10
-5.629448
 20
1.151845
 30
0.0
 40
0.205052
  1
%%c
 72
     5
 11
-5.424395
 21
1.151845
 31
0.0
100
AcDbText
  0
LINE
  5
352
100
AcDbEntity
  8
0
370
    13
390
0
 62
     7
 48
0.008854
100
AcDbLine
 10
-4.026299
 20
1.254372
 30
0.0
 11
-4.380466
 21
1.254372
 31
0.0
210
0.0
220
0.0
230
1.0
  0
LINE
  5
353
100
AcDbEntity
  8
0
370
    13
390
0
 62
     7
 48
0.03937
100
AcDbLine
 10
-3.501308
 20
0.612713
 30
0.0
 11
-4.026299
 21
1.254372
 31
0.0
210
0.0
220
0.0
230
1.0
  0
POLYLINE
  5
354
100
AcDbEntity
  8
0
370
    13
390
0
 62
     7
 48
0.03937
100
AcDb2dPolyline
 66
     1
 10
0.0
 20
0.0
 30
0.0
 70
     1
 71
     3
  0
VERTEX
  5
355
100
AcDbEntity
  8
0
370
     0
390
0
100
AcDbVertex
100
AcDb2dVertex
 10
-3.555055
 20
0.568739
 30
0.0
  0
VERTEX
  5
356
100
AcDbEntity
  8
0
370
     0
390
0
100
AcDbVertex
100
AcDb2dVertex
 10
-3.237464
 20
0.290235
 30
0.0
  0
VERTEX
  5
357
100
AcDbEntity
  8
0
370
     0
390
0
100
AcDbVertex
100
AcDb2dVertex
 10
-3.447562
 20
0.656687
 30
0.0
  0
SEQEND
  5
358
100
AcDbEntity
  8
0
370
     0
390
0
  0
ENDBLK
  5
359
100
AcDbEntity
  8
0
390
0
100
AcDbBlockEnd
  0
BLOCK
  5
35A
100
AcDbEntity
  8
0
370
     0
390
0
100
AcDbBlockBegin
  2
BLOCK10
 70
     0
 10
0.0
 20
0.0
 30
0.0
  3
BLOCK10
  1

  0
SOLID
  5
35B
100
AcDbEntity
  8
0
370
    13
390
0
 62
     7
 48
0.03937
100
AcDbTrace
 10
-1.938924
 20
1.708519
 30
0.0
 11
-2.303319
 21
1.922166
 31
0.0
 12
-1.938924
 22
1.708519
 32
0.0
 13
-2.027912
 23
1.601885
 33
0.0
  0
SOLID
  5
35C
100
AcDbEntity
  8
0
370
    13
390
0
 62
     7
 48
0.03937
100
AcDbTrace
 10
1.938924
 20
-1.708519
 30
0.0
 11
2.303319
 21
-1.922166
 31
0.0
 12
1.938924
 22
-1.708519
 32
0.0
 13
2.027912
 23
-1.601885
 33
0.0
  0
TEXT
  5
35D
100
AcDbEntity
  8
0
370
    13
390
0
 62
     7
 48
0.03937
100
AcDbText
 10
4.515602
 20
-3.091261
 30
0.0
 40
0.205052
  1
6
 72
     5
 11
4.663761
 21
-3.091261
 31
0.0
100
AcDbText
  0
TEXT
  5
35E
100
AcDbEntity
  8
0
370
    13
390
0
 62
     7
 48
0.03937
100
AcDbText
 10
4.663761
 20
-3.091261
 30
0.0
 40
0.205052
  1
"
 72
     5
 11
4.814133
 21
-3.091261
 31
0.0
100
AcDbText
  0
TEXT
  5
35F
100
AcDbEntity
  8
0
370
    13
390
0
 62
     7
 48
0.03937
100
AcDbText
 10
4.102216
 20
-3.091261
 30
0.0
 40
0.205052
  1
%%c
 72
     5
 11
4.307269
 21
-3.091261
 31
0.0
100
AcDbText
  0
TEXT
  5
360
100
AcDbEntity
  8
0
370
    13
390
0
 62
     7
 48
0.03937
100
AcDbText
 10
4.102216
 20
-3.419345
 30
0.0
 40
0.205052
  1
BOLT CIRCLE
 72
     5
 11
6.161038
 21
-3.419345
 31
0.0
100
AcDbText
  0
LINE
  5
361
100
AcDbEntity
  8
0
370
    13
390
0
 62
     7
 48
0.008854
100
AcDbLine
 10
3.581383
 20
-2.988735
 30
0.0
 11
3.93555
 21
-2.988735
 31
0.0
210
0.0
220
0.0
230
1.0
  0
ARC
  5
362
100
AcDbEntity
  8
0
370
    13
390
0
 62
     7
 48
0.03937
100
AcDbCircle
 10
0.0
 20
0.0
 30
0.0
 40
3.0
210
0.0
220
0.0
230
1.0
100
AcDbArc
 50
137.021368
 51
145.96438
  0
ARC
  5
363
100
AcDbEntity
  8
0
370
    13
390
0
 62
     7
 48
0.03937
100
AcDbCircle
 10
0.0
 20
0.0
 30
0.0
 40
3.0
210
0.0
220
0.0
230
1.0
100
AcDbArc
 50
214.035634
 51
323.287306
  0
LINE
  5
364
100
AcDbEntity
  8
0
370
    13
390
0
 62
     7
 48
0.03937
100
AcDbLine
 10
-1.983418
 20
1.655202
 30
0.0
 11
1.983418
 21
-1.655202
 31
0.0
210
0.0
220
0.0
230
1.0
  0
LINE
  5
365
100
AcDbEntity
  8
0
370
    13
390
0
 62
     7
 48
0.03937
100
AcDbLine
 10
2.303319
 20
-1.922166
 30
0.0
 11
3.581383
 21
-2.988735
 31
0.0
210
0.0
220
0.0
230
1.0
  0
POLYLINE
  5
366
100
AcDbEntity
  8
0
370
    13
390
0
 62
     7
 48
0.03937
100
AcDb2dPolyline
 66
     1
 10
0.0
 20
0.0
 30
0.0
 70
     1
 71
     3
  0
VERTEX
  5
367
100
AcDbEntity
  8
0
370
     0
390
0
100
AcDbVertex
100
AcDb2dVertex
 10
-1.938924
 20
1.708519
 30
0.0
  0
VERTEX
  5
368
100
AcDbEntity
  8
0
370
     0
390
0
100
AcDbVertex
100
AcDb2dVertex
 10
-2.303319
 20
1.922166
 30
0.0
  0
VERTEX
  5
369
100
AcDbEntity
  8
0
370
     0
390
0
100
AcDbVertex
100
AcDb2dVertex
 10
-2.027912
 20
1.601885
 30
0.0
  0
SEQEND
  5
36A
100
AcDbEntity
  8
0
370
     0
390
0
  0
POLYLINE
  5
36B
100
AcDbEntity
  8
0
370
    13
390
0
 62
     7
 48
0.03937
100
AcDb2dPolyline
 66
     1
 10
0.0
 20
0.0
 30
0.0
 70
     1
 71
     3
  0
VERTEX
  5
36C
100
AcDbEntity
  8
0
370
     0
390
0
100
AcDbVertex
100
AcDb2dVertex
 10
1.938924
 20
-1.708519
 30
0.0
  0
VERTEX
  5
36D
100
AcDbEntity
  8
0
370
     0
390
0
100
AcDbVertex
100
AcDb2dVertex
 10
2.303319
 20
-1.922166
 30
0.0
  0
VERTEX
  5
36E
100
AcDbEntity
  8
0
370
     0
390
0
100
AcDbVertex
100
AcDb2dVertex
 10
2.027912
 20
-1.601885
 30
0.0
  0
SEQEND
  5
36F
100
AcDbEntity
  8
0
370
     0
390
0
  0
ENDBLK
  5
370
100
AcDbEntity
  8
0
390
0
100
AcDbBlockEnd
  0
BLOCK
  5
371
100
AcDbEntity
  8
0
370
     0
390
0
100
AcDbBlockBegin
  2
BLOCK11
 70
     0
 10
0.0
 20
0.0
 30
0.0
  3
BLOCK11
  1

  0
LINE
  5
372
100
AcDbEntity
  8
0
370
    13
390
0
  6
DASHDOT
 62
     7
 48
0.03937
100
AcDbLine
 10
-4.618059
 20
0.0
 30
0.0
 11
-1.381941
 21
0.0
 31
0.0
210
0.0
220
0.0
230
1.0
  0
ARC
  5
373
100
AcDbEntity
  8
0
370
    13
390
0
  6
DASHDOT
 62
     7
 48
0.03937
100
AcDbCircle
 10
0.0
 20
0.0
 30
0.0
 40
3.0
210
0.0
220
0.0
230
1.0
100
AcDbArc
 50
149.097347
 51
210.902653
  0
ENDBLK
  5
374
100
AcDbEntity
  8
0
390
0
100
AcDbBlockEnd
  0
BLOCK
  5
375
100
AcDbEntity
  8
0
370
     0
390
0
100
AcDbBlockBegin
  2
BLOCK12
 70
     0
 10
0.0
 20
0.0
 30
0.0
  3
BLOCK12
  1

  0
LINE
  5
376
100
AcDbEntity
  8
0
370
    13
390
0
  6
DASHDOT
 62
     7
 48
0.03937
100
AcDbLine
 10
0.0
 20
4.50927
 30
0.0
 11
0.0
 21
1.49073
 31
0.0
210
0.0
220
0.0
230
1.0
  0
ARC
  5
377
100
AcDbEntity
  8
0
370
    13
390
0
  6
DASHDOT
 62
     7
 48
0.03937
100
AcDbCircle
 10
0.0
 20
0.0
 30
0.0
 40
3.0
210
0.0
220
0.0
230
1.0
100
AcDbArc
 50
61.175074
 51
118.824924
  0
ENDBLK
  5
378
100
AcDbEntity
  8
0
390
0
100
AcDbBlockEnd
  0
BLOCK
  5
379
100
AcDbEntity
  8
0
370
     0
390
0
100
AcDbBlockBegin
  2
BLOCK13
 70
     0
 10
0.0
 20
0.0
 30
0.0
  3
BLOCK13
  1

  0
LINE
  5
37A
100
AcDbEntity
  8
0
370
    13
390
0
  6
DASHDOT
 62
     7
 48
0.03937
100
AcDbLine
 10
4.664683
 20
0.0
 30
0.0
 11
1.335317
 21
0.0
 31
0.0
210
0.0
220
0.0
230
1.0
  0
ARC
  5
37B
100
AcDbEntity
  8
0
370
    13
390
0
  6
DASHDOT
 62
     7
 48
0.03937
100
AcDbCircle
 10
0.0
 20
0.0
 30
0.0
 40
3.0
210
0.0
220
0.0
230
1.0
100
AcDbArc
 50
328.2069
 51
31.793103
  0
ENDBLK
  5
37C
100
AcDbEntity
  8
0
390
0
100
AcDbBlockEnd
  0
BLOCK
  5
37D
100
AcDbEntity
  8
0
370
     0
390
0
100
AcDbBlockBegin
  2
BLOCK14
 70
     0
 10
0.0
 20
0.0
 30
0.0
  3
BLOCK14
  1

  0
LINE
  5
37E
100
AcDbEntity
  8
0
370
    13
390
0
  6
DASHDOT
 62
     7
 48
0.03937
100
AcDbLine
 10
0.0
 20
-3.996405
 30
0.0
 11
0.0
 21
-2.003595
 31
0.0
210
0.0
220
0.0
230
1.0
  0
ARC
  5
37F
100
AcDbEntity
  8
0
370
    13
390
0
  6
DASHDOT
 62
     7
 48
0.03937
100
AcDbCircle
 10
0.0
 20
0.0
 30
0.0
 40
3.0
210
0.0
220
0.0
230
1.0
100
AcDbArc
 50
250.970059
 51
289.02995
  0
ENDBLK
  5
380
100
AcDbEntity
  8
0
390
0
100
AcDbBlockEnd
  0
BLOCK
  5
381
100
AcDbEntity
  8
0
370
     0
390
0
100
AcDbBlockBegin
  2
BLOCK15
 70
     0
 10
0.0
 20
0.0
 30
0.0
  3
BLOCK15
  1

  0
SOLID
  5
382
100
AcDbEntity
  8
0
370
    13
390
0
 62
     7
 48
0.03937
100
AcDbTrace
 10
0.895339
 20
3.749533
 30
0.0
 11
1.312
 21
3.818977
 31
0.0
 12
0.895339
 22
3.749533
 32
0.0
 13
0.895339
 23
3.88842
 33
0.0
  0
SOLID
  5
383
100
AcDbEntity
  8
0
370
    13
390
0
 62
     7
 48
0.03937
100
AcDbTrace
 10
-0.895339
 20
3.88842
 30
0.0
 11
-1.312
 21
3.818977
 31
0.0
 12
-0.895339
 22
3.88842
 32
0.0
 13
-0.895339
 23
3.749533
 33
0.0
  0
TEXT
  5
384
100
AcDbEntity
  8
0
370
    13
390
0
 62
     7
 48
0.03937
100
AcDbText
 10
-0.127772
 20
3.71645
 30
0.0
 40
0.205052
  1
2.62
 72
     5
 11
0.390786
 21
3.71645
 31
0.0
100
AcDbText
  0
TEXT
  5
385
100
AcDbEntity
  8
0
370
    13
390
0
 62
     7
 48
0.03937
100
AcDbText
 10
0.390786
 20
3.71645
 30
0.0
 40
0.205052
  1
"
 72
     5
 11
0.541158
 21
3.71645
 31
0.0
100
AcDbText
  0
TEXT
  5
386
100
AcDbEntity
  8
0
370
    13
390
0
 62
     7
 48
0.03937
100
AcDbText
 10
-0.541158
 20
3.71645
 30
0.0
 40
0.205052
  1
%%c
 72
     5
 11
-0.336105
 21
3.71645
 31
0.0
100
AcDbText
  0
TEXT
  5
387
100
AcDbEntity
  8
0
370
    13
390
0
 62
     7
 48
0.03937
100
AcDbText
 10
0.541158
 20
3.71645
 30
0.0
 40
0.205052
  1
 ID
 72
     5
 11
0.967264
 21
3.71645
 31
0.0
100
AcDbText
  0
LINE
  5
388
100
AcDbEntity
  8
0
370
    13
390
0
 62
     7
 48
0.03937
100
AcDbLine
 10
-1.312
 20
2.854042
 30
0.0
 11
-1.312
 21
3.983019
 31
0.0
210
0.0
220
0.0
230
1.0
  0
LINE
  5
389
100
AcDbEntity
  8
0
370
    13
390
0
 62
     7
 48
0.03937
100
AcDbLine
 10
1.312
 20
2.854042
 30
0.0
 11
1.312
 21
3.983019
 31
0.0
210
0.0
220
0.0
230
1.0
  0
LINE
  5
38A
100
AcDbEntity
  8
0
370
    13
390
0
 62
     7
 48
0.004688
100
AcDbLine
 10
-0.895339
 20
3.818977
 30
0.0
 11
-0.707824
 21
3.818977
 31
0.0
210
0.0
220
0.0
230
1.0
  0
POLYLINE
  5
38B
100
AcDbEntity
  8
0
370
    13
390
0
 62
     7
 48
0.03937
100
AcDb2dPolyline
 66
     1
 10
0.0
 20
0.0
 30
0.0
 70
     1
 71
     3
  0
VERTEX
  5
38C
100
AcDbEntity
  8
0
370
     0
390
0
100
AcDbVertex
100
AcDb2dVertex
 10
0.895339
 20
3.749533
 30
0.0
  0
VERTEX
  5
38D
100
AcDbEntity
  8
0
370
     0
390
0
100
AcDbVertex
100
AcDb2dVertex
 10
1.312
 20
3.818977
 30
0.0
  0
VERTEX
  5
38E
100
AcDbEntity
  8
0
370
     0
390
0
100
AcDbVertex
100
AcDb2dVertex
 10
0.895339
 20
3.88842
 30
0.0
  0
SEQEND
  5
38F
100
AcDbEntity
  8
0
370
     0
390
0
  0
POLYLINE
  5
390
100
AcDbEntity
  8
0
370
    13
390
0
 62
     7
 48
0.03937
100
AcDb2dPolyline
 66
     1
 10
0.0
 20
0.0
 30
0.0
 70
     1
 71
     3
  0
VERTEX
  5
391
100
AcDbEntity
  8
0
370
     0
390
0
100
AcDbVertex
100
AcDb2dVertex
 10
-0.895339
 20
3.88842
 30
0.0
  0
VERTEX
  5
392
100
AcDbEntity
  8
0
370
     0
390
0
100
AcDbVertex
100
AcDb2dVertex
 10
-1.312
 20
3.818977
 30
0.0
  0
VERTEX
  5
393
100
AcDbEntity
  8
0
370
     0
390
0
100
AcDbVertex
100
AcDb2dVertex
 10
-0.895339
 20
3.749533
 30
0.0
  0
SEQEND
  5
394
100
AcDbEntity
  8
0
370
     0
390
0
  0
ENDBLK
  5
395
100
AcDbEntity
  8
0
390
0
100
AcDbBlockEnd
  0
BLOCK
  5
396
100
AcDbEntity
  8
0
370
     0
390
0
100
AcDbBlockBegin
  2
BLOCK16
 70
     0
 10
0.0
 20
0.0
 30
0.0
  3
BLOCK16
  1

  0
SOLID
  5
397
100
AcDbEntity
  8
0
370
    13
390
0
 62
     7
 48
0.03937
100
AcDbTrace
 10
1.333339
 20
4.19536
 30
0.0
 11
1.75
 21
4.264803
 31
0.0
 12
1.333339
 22
4.19536
 32
0.0
 13
1.333339
 23
4.334246
 33
0.0
  0
SOLID
  5
398
100
AcDbEntity
  8
0
370
    13
390
0
 62
     7
 48
0.03937
100
AcDbTrace
 10
-1.333339
 20
4.334246
 30
0.0
 11
-1.75
 21
4.264803
 31
0.0
 12
-1.333339
 22
4.334246
 32
0.0
 13
-1.333339
 23
4.19536
 33
0.0
  0
TEXT
  5
399
100
AcDbEntity
  8
0
370
    13
390
0
 62
     7
 48
0.03937
100
AcDbText
 10
-0.053692
 20
4.162277
 30
0.0
 40
0.205052
  1
3.5
 72
     5
 11
0.316706
 21
4.162277
 31
0.0
100
AcDbText
  0
TEXT
  5
39A
100
AcDbEntity
  8
0
370
    13
390
0
 62
     7
 48
0.03937
100
AcDbText
 10
0.316706
 20
4.162277
 30
0.0
 40
0.205052
  1
"
 72
     5
 11
0.467078
 21
4.162277
 31
0.0
100
AcDbText
  0
TEXT
  5
39B
100
AcDbEntity
  8
0
370
    13
390
0
 62
     7
 48
0.03937
100
AcDbText
 10
-0.467078
 20
4.162277
 30
0.0
 40
0.205052
  1
%%c
 72
     5
 11
-0.262025
 21
4.162277
 31
0.0
100
AcDbText
  0
TEXT
  5
39C
100
AcDbEntity
  8
0
370
    13
390
0
 62
     7
 48
0.03937
100
AcDbText
 10
0.467078
 20
4.162277
 30
0.0
 40
0.205052
  1
 OD
 72
     5
 11
1.020305
 21
4.162277
 31
0.0
100
AcDbText
  0
LINE
  5
39D
100
AcDbEntity
  8
0
370
    13
390
0
 62
     7
 48
0.03937
100
AcDbLine
 10
-1.75
 20
2.743114
 30
0.0
 11
-1.75
 21
4.428845
 31
0.0
210
0.0
220
0.0
230
1.0
  0
LINE
  5
39E
100
AcDbEntity
  8
0
370
    13
390
0
 62
     7
 48
0.03937
100
AcDbLine
 10
1.75
 20
2.578372
 30
0.0
 11
1.75
 21
4.428845
 31
0.0
210
0.0
220
0.0
230
1.0
  0
LINE
  5
39F
100
AcDbEntity
  8
0
370
    13
390
0
 62
     7
 48
0.01749
100
AcDbLine
 10
-1.333339
 20
4.264803
 30
0.0
 11
-0.633745
 21
4.264803
 31
0.0
210
0.0
220
0.0
230
1.0
  0
LINE
  5
3A0
100
AcDbEntity
  8
0
370
    13
390
0
 62
     7
 48
0.003659
100
AcDbLine
 10
1.186972
 20
4.264803
 30
0.0
 11
1.333339
 21
4.264803
 31
0.0
210
0.0
220
0.0
230
1.0
  0
POLYLINE
  5
3A1
100
AcDbEntity
  8
0
370
    13
390
0
 62
     7
 48
0.03937
100
AcDb2dPolyline
 66
     1
 10
0.0
 20
0.0
 30
0.0
 70
     1
 71
     3
  0
VERTEX
  5
3A2
100
AcDbEntity
  8
0
370
     0
390
0
100
AcDbVertex
100
AcDb2dVertex
 10
1.333339
 20
4.19536
 30
0.0
  0
VERTEX
  5
3A3
100
AcDbEntity
  8
0
370
     0
390
0
100
AcDbVertex
100
AcDb2dVertex
 10
1.75
 20
4.264803
 30
0.0
  0
VERTEX
  5
3A4
100
AcDbEntity
  8
0
370
     0
390
0
100
AcDbVertex
100
AcDb2dVertex
 10
1.333339
 20
4.334246
 30
0.0
  0
SEQEND
  5
3A5
100
AcDbEntity
  8
0
370
     0
390
0
  0
POLYLINE
  5
3A6
100
AcDbEntity
  8
0
370
    13
390
0
 62
     7
 48
0.03937
100
AcDb2dPolyline
 66
     1
 10
0.0
 20
0.0
 30
0.0
 70
     1
 71
     3
  0
VERTEX
  5
3A7
100
AcDbEntity
  8
0
370
     0
390
0
100
AcDbVertex
100
AcDb2dVertex
 10
-1.333339
 20
4.334246
 30
0.0
  0
VERTEX
  5
3A8
100
AcDbEntity
  8
0
370
     0
390
0
100
AcDbVertex
100
AcDb2dVertex
 10
-1.75
 20
4.264803
 30
0.0
  0
VERTEX
  5
3A9
100
AcDbEntity
  8
0
370
     0
390
0
100
AcDbVertex
100
AcDb2dVertex
 10
-1.333339
 20
4.19536
 30
0.0
  0
SEQEND
  5
3AA
100
AcDbEntity
  8
0
370
     0
390
0
  0
ENDBLK
  5
3AB
100
AcDbEntity
  8
0
390
0
100
AcDbBlockEnd
  0
BLOCK
  5
3AC
100
AcDbEntity
  8
0
370
     0
390
0
100
AcDbBlockBegin
  2
BLOCK17
 70
     0
 10
0.0
 20
0.0
 30
0.0
  3
BLOCK17
  1

  0
SOLID
  5
3AD
100
AcDbEntity
  8
0
370
    13
390
0
 62
     7
 48
0.03937
100
AcDbTrace
 10
1.708339
 20
4.738568
 30
0.0
 11
2.125
 21
4.808011
 31
0.0
 12
1.708339
 22
4.738568
 32
0.0
 13
1.708339
 23
4.877455
 33
0.0
  0
SOLID
  5
3AE
100
AcDbEntity
  8
0
370
    13
390
0
 62
     7
 48
0.03937
100
AcDbTrace
 10
-1.708339
 20
4.877455
 30
0.0
 11
-2.125
 21
4.808011
 31
0.0
 12
-1.708339
 22
4.877455
 32
0.0
 13
-1.708339
 23
4.738568
 33
0.0
  0
TEXT
  5
3AF
100
AcDbEntity
  8
0
370
    13
390
0
 62
     7
 48
0.03937
100
AcDbText
 10
-0.127772
 20
4.705485
 30
0.0
 40
0.205052
  1
4.25
 72
     5
 11
0.390786
 21
4.705485
 31
0.0
100
AcDbText
  0
TEXT
  5
3B0
100
AcDbEntity
  8
0
370
    13
390
0
 62
     7
 48
0.03937
100
AcDbText
 10
0.390786
 20
4.705485
 30
0.0
 40
0.205052
  1
"
 72
     5
 11
0.541158
 21
4.705485
 31
0.0
100
AcDbText
  0
TEXT
  5
3B1
100
AcDbEntity
  8
0
370
    13
390
0
 62
     7
 48
0.03937
100
AcDbText
 10
-0.541158
 20
4.705485
 30
0.0
 40
0.205052
  1
%%c
 72
     5
 11
-0.336105
 21
4.705485
 31
0.0
100
AcDbText
  0
LINE
  5
3B2
100
AcDbEntity
  8
0
370
    13
390
0
 62
     7
 48
0.03937
100
AcDbLine
 10
-2.125
 20
1.268388
 30
0.0
 11
-2.125
 21
4.972054
 31
0.0
210
0.0
220
0.0
230
1.0
  0
LINE
  5
3B3
100
AcDbEntity
  8
0
370
    13
390
0
 62
     7
 48
0.03937
100
AcDbLine
 10
2.125
 20
1.268388
 30
0.0
 11
2.125
 21
4.972054
 31
0.0
210
0.0
220
0.0
230
1.0
  0
LINE
  5
3B4
100
AcDbEntity
  8
0
370
    13
390
0
 62
     7
 48
0.03937
100
AcDbLine
 10
-1.708339
 20
4.808011
 30
0.0
 11
-0.707824
 21
4.808011
 31
0.0
210
0.0
220
0.0
230
1.0
  0
LINE
  5
3B5
100
AcDbEntity
  8
0
370
    13
390
0
 62
     7
 48
0.03937
100
AcDbLine
 10
0.707824
 20
4.808011
 30
0.0
 11
1.708339
 21
4.808011
 31
0.0
210
0.0
220
0.0
230
1.0
  0
POLYLINE
  5
3B6
100
AcDbEntity
  8
0
370
    13
390
0
 62
     7
 48
0.03937
100
AcDb2dPolyline
 66
     1
 10
0.0
 20
0.0
 30
0.0
 70
     1
 71
     3
  0
VERTEX
  5
3B7
100
AcDbEntity
  8
0
370
     0
390
0
100
AcDbVertex
100
AcDb2dVertex
 10
1.708339
 20
4.738568
 30
0.0
  0
VERTEX
  5
3B8
100
AcDbEntity
  8
0
370
     0
390
0
100
AcDbVertex
100
AcDb2dVertex
 10
2.125
 20
4.808011
 30
0.0
  0
VERTEX
  5
3B9
100
AcDbEntity
  8
0
370
     0
390
0
100
AcDbVertex
100
AcDb2dVertex
 10
1.708339
 20
4.877455
 30
0.0
  0
SEQEND
  5
3BA
100
AcDbEntity
  8
0
370
     0
390
0
  0
POLYLINE
  5
3BB
100
AcDbEntity
  8
0
370
    13
390
0
 62
     7
 48
0.03937
100
AcDb2dPolyline
 66
     1
 10
0.0
 20
0.0
 30
0.0
 70
     1
 71
     3
  0
VERTEX
  5
3BC
100
AcDbEntity
  8
0
370
     0
390
0
100
AcDbVertex
100
AcDb2dVertex
 10
-1.708339
 20
4.877455
 30
0.0
  0
VERTEX
  5
3BD
100
AcDbEntity
  8
0
370
     0
390
0
100
AcDbVertex
100
AcDb2dVertex
 10
-2.125
 20
4.808011
 30
0.0
  0
VERTEX
  5
3BE
100
AcDbEntity
  8
0
370
     0
390
0
100
AcDbVertex
100
AcDb2dVertex
 10
-1.708339
 20
4.738568
 30
0.0
  0
SEQEND
  5
3BF
100
AcDbEntity
  8
0
370
     0
390
0
  0
ENDBLK
  5
3C0
100
AcDbEntity
  8
0
390
0
100
AcDbBlockEnd
  0
BLOCK
  5
3C1
100
AcDbEntity
  8
0
370
     0
390
0
100
AcDbBlockBegin
  2
BLOCK18
 70
     0
 10
0.0
 20
0.0
 30
0.0
  3
BLOCK18
  1

  0
SOLID
  5
3C2
100
AcDbEntity
  8
0
370
    13
390
0
 62
     7
 48
0.03937
100
AcDbTrace
 10
4.606845
 20
-0.416661
 30
0.0
 11
4.537402
 21
0.0
 31
0.0
 12
4.606845
 22
-0.416661
 32
0.0
 13
4.467958
 23
-0.416661
 33
0.0
  0
SOLID
  5
3C3
100
AcDbEntity
  8
0
370
    13
390
0
 62
     7
 48
0.03937
100
AcDbTrace
 10
4.467958
 20
1.296661
 30
0.0
 11
4.537402
 21
0.88
 31
0.0
 12
4.467958
 22
1.296661
 32
0.0
 13
4.606845
 23
1.296661
 33
0.0
  0
TEXT
  5
3C4
100
AcDbEntity
  8
0
370
    13
390
0
 62
     7
 48
0.03937
100
AcDbText
 10
4.202937
 20
0.337474
 30
0.0
 40
0.205052
  1
0.88
 72
     5
 11
4.721495
 21
0.337474
 31
0.0
100
AcDbText
  0
TEXT
  5
3C5
100
AcDbEntity
  8
0
370
    13
390
0
 62
     7
 48
0.03937
100
AcDbText
 10
4.721495
 20
0.337474
 30
0.0
 40
0.205052
  1
"
 72
     5
 11
4.871866
 21
0.337474
 31
0.0
100
AcDbText
  0
LINE
  5
3C6
100
AcDbEntity
  8
0
370
    13
390
0
 62
     7
 48
0.03937
100
AcDbLine
 10
3.914042
 20
0.0
 30
0.0
 11
4.701443
 21
0.0
 31
0.0
210
0.0
220
0.0
230
1.0
  0
LINE
  5
3C7
100
AcDbEntity
  8
0
370
    13
390
0
 62
     7
 48
0.03937
100
AcDbLine
 10
3.914042
 20
0.88
 30
0.0
 11
4.701443
 21
0.88
 31
0.0
210
0.0
220
0.0
230
1.0
  0
LINE
  5
3C8
100
AcDbEntity
  8
0
370
    13
390
0
 62
     7
 48
0.005988
100
AcDbLine
 10
4.537402
 20
-0.656168
 30
0.0
 11
4.537402
 21
-0.416661
 31
0.0
210
0.0
220
0.0
230
1.0
  0
LINE
  5
3C9
100
AcDbEntity
  8
0
370
    13
390
0
 62
     7
 48
0.005988
100
AcDbLine
 10
4.537402
 20
1.296661
 30
0.0
 11
4.537402
 21
1.536168
 31
0.0
210
0.0
220
0.0
230
1.0
  0
POLYLINE
  5
3CA
100
AcDbEntity
  8
0
370
    13
390
0
 62
     7
 48
0.03937
100
AcDb2dPolyline
 66
     1
 10
0.0
 20
0.0
 30
0.0
 70
     1
 71
     3
  0
VERTEX
  5
3CB
100
AcDbEntity
  8
0
370
     0
390
0
100
AcDbVertex
100
AcDb2dVertex
 10
4.606845
 20
-0.416661
 30
0.0
  0
VERTEX
  5
3CC
100
AcDbEntity
  8
0
370
     0
390
0
100
AcDbVertex
100
AcDb2dVertex
 10
4.537402
 20
0.0
 30
0.0
  0
VERTEX
  5
3CD
100
AcDbEntity
  8
0
370
     0
390
0
100
AcDbVertex
100
AcDb2dVertex
 10
4.467958
 20
-0.416661
 30
0.0
  0
SEQEND
  5
3CE
100
AcDbEntity
  8
0
370
     0
390
0
  0
POLYLINE
  5
3CF
100
AcDbEntity
  8
0
370
    13
390
0
 62
     7
 48
0.03937
100
AcDb2dPolyline
 66
     1
 10
0.0
 20
0.0
 30
0.0
 70
     1
 71
     3
  0
VERTEX
  5
3D0
100
AcDbEntity
  8
0
370
     0
390
0
100
AcDbVertex
100
AcDb2dVertex
 10
4.467958
 20
1.296661
 30
0.0
  0
VERTEX
  5
3D1
100
AcDbEntity
  8
0
370
     0
390
0
100
AcDbVertex
100
AcDb2dVertex
 10
4.537402
 20
0.88
 30
0.0
  0
VERTEX
  5
3D2
100
AcDbEntity
  8
0
370
     0
390
0
100
AcDbVertex
100
AcDb2dVertex
 10
4.606845
 20
1.296661
 30
0.0
  0
SEQEND
  5
3D3
100
AcDbEntity
  8
0
370
     0
390
0
  0
ENDBLK
  5
3D4
100
AcDbEntity
  8
0
390
0
100
AcDbBlockEnd
  0
BLOCK
  5
3D5
100
AcDbEntity
  8
0
370
     0
390
0
100
AcDbBlockBegin
  2
BLOCK19
 70
     0
 10
0.0
 20
0.0
 30
0.0
  3
BLOCK19
  1

  0
SOLID
  5
3D6
100
AcDbEntity
  8
0
370
    13
390
0
 62
     7
 48
0.03937
100
AcDbTrace
 10
5.509625
 20
0.416661
 30
0.0
 11
5.579068
 21
0.0
 31
0.0
 12
5.509625
 22
0.416661
 32
0.0
 13
5.648512
 23
0.416661
 33
0.0
  0
SOLID
  5
3D7
100
AcDbEntity
  8
0
370
    13
390
0
 62
     7
 48
0.03937
100
AcDbTrace
 10
5.648512
 20
2.273339
 30
0.0
 11
5.579068
 21
2.69
 31
0.0
 12
5.648512
 22
2.273339
 32
0.0
 13
5.509625
 23
2.273339
 33
0.0
  0
TEXT
  5
3D8
100
AcDbEntity
  8
0
370
    13
390
0
 62
     7
 48
0.03937
100
AcDbText
 10
5.244604
 20
1.242474
 30
0.0
 40
0.205052
  1
2.69
 72
     5
 11
5.763161
 21
1.242474
 31
0.0
100
AcDbText
  0
TEXT
  5
3D9
100
AcDbEntity
  8
0
370
    13
390
0
 62
     7
 48
0.03937
100
AcDbText
 10
5.763161
 20
1.242474
 30
0.0
 40
0.205052
  1
"
 72
     5
 11
5.913533
 21
1.242474
 31
0.0
100
AcDbText
  0
LINE
  5
3DA
100
AcDbEntity
  8
0
370
    13
390
0
 62
     7
 48
0.03937
100
AcDbLine
 10
3.914042
 20
0.0
 30
0.0
 11
5.74311
 21
0.0
 31
0.0
210
0.0
220
0.0
230
1.0
  0
LINE
  5
3DB
100
AcDbEntity
  8
0
370
    13
390
0
 62
     7
 48
0.03937
100
AcDbLine
 10
1.554782
 20
2.69
 30
0.0
 11
5.74311
 21
2.69
 31
0.0
210
0.0
220
0.0
230
1.0
  0
LINE
  5
3DC
100
AcDbEntity
  8
0
370
    13
390
0
 62
     7
 48
0.016479
100
AcDbLine
 10
5.579068
 20
0.416661
 30
0.0
 11
5.579068
 21
1.075807
 31
0.0
210
0.0
220
0.0
230
1.0
  0
LINE
  5
3DD
100
AcDbEntity
  8
0
370
    13
390
0
 62
     7
 48
0.016479
100
AcDbLine
 10
5.579068
 20
1.614193
 30
0.0
 11
5.579068
 21
2.273339
 31
0.0
210
0.0
220
0.0
230
1.0
  0
POLYLINE
  5
3DE
100
AcDbEntity
  8
0
370
    13
390
0
 62
     7
 48
0.03937
100
AcDb2dPolyline
 66
     1
 10
0.0
 20
0.0
 30
0.0
 70
     1
 71
     3
  0
VERTEX
  5
3DF
100
AcDbEntity
  8
0
370
     0
390
0
100
AcDbVertex
100
AcDb2dVertex
 10
5.509625
 20
0.416661
 30
0.0
  0
VERTEX
  5
3E0
100
AcDbEntity
  8
0
370
     0
390
0
100
AcDbVertex
100
AcDb2dVertex
 10
5.579068
 20
0.0
 30
0.0
  0
VERTEX
  5
3E1
100
AcDbEntity
  8
0
370
     0
390
0
100
AcDbVertex
100
AcDb2dVertex
 10
5.648512
 20
0.416661
 30
0.0
  0
SEQEND
  5
3E2
100
AcDbEntity
  8
0
370
     0
390
0
  0
POLYLINE
  5
3E3
100
AcDbEntity
  8
0
370
    13
390
0
 62
     7
 48
0.03937
100
AcDb2dPolyline
 66
     1
 10
0.0
 20
0.0
 30
0.0
 70
     1
 71
     3
  0
VERTEX
  5
3E4
100
AcDbEntity
  8
0
370
     0
390
0
100
AcDbVertex
100
AcDb2dVertex
 10
5.648512
 20
2.273339
 30
0.0
  0
VERTEX
  5
3E5
100
AcDbEntity
  8
0
370
     0
390
0
100
AcDbVertex
100
AcDb2dVertex
 10
5.579068
 20
2.69
 30
0.0
  0
VERTEX
  5
3E6
100
AcDbEntity
  8
0
370
     0
390
0
100
AcDbVertex
100
AcDb2dVertex
 10
5.509625
 20
2.273339
 30
0.0
  0
SEQEND
  5
3E7
100
AcDbEntity
  8
0
370
     0
390
0
  0
ENDBLK
  5
3E8
100
AcDbEntity
  8
0
390
0
100
AcDbBlockEnd
  0
BLOCK
  5
3E9
100
AcDbEntity
  8
0
370
     0
390
0
100
AcDbBlockBegin
  2
BLOCK20
 70
     0
 10
0.0
 20
0.0
 30
0.0
  3
BLOCK20
  1

  0
LINE
  5
3EA
100
AcDbEntity
  8
0
370
     5
390
0
 62
     7
 48
0.03937
100
AcDbLine
 10
-3.75
 20
0.0
 30
0.0
 11
-3.75
 21
0.88
 31
0.0
210
0.0
220
0.0
230
1.0
  0
LINE
  5
3EB
100
AcDbEntity
  8
0
370
     5
390
0
 62
     7
 48
0.009375
100
AcDbLine
 10
-3.75
 20
0.88
 30
0.0
 11
-3.375
 21
0.88
 31
0.0
210
0.0
220
0.0
230
1.0
  0
LINE
  5
3EC
100
AcDbEntity
  8
0
370
     5
390
0
 62
     7
 48
0.03937
100
AcDbLine
 10
-3.375
 20
0.88
 30
0.0
 11
-3.375
 21
0.0
 31
0.0
210
0.0
220
0.0
230
1.0
  0
LINE
  5
3ED
100
AcDbEntity
  8
0
370
     5
390
0
 62
     7
 48
0.009375
100
AcDbLine
 10
-3.375
 20
0.0
 30
0.0
 11
-3.75
 21
0.0
 31
0.0
210
0.0
220
0.0
230
1.0
  0
ENDBLK
  5
3EE
100
AcDbEntity
  8
0
390
0
100
AcDbBlockEnd
  0
BLOCK
  5
3EF
100
AcDbEntity
  8
0
370
     0
390
0
100
AcDbBlockBegin
  2
BLOCK21
 70
     0
 10
0.0
 20
0.0
 30
0.0
  3
BLOCK21
  1

  0
LINE
  5
3F0
100
AcDbEntity
  8
0
370
     5
390
0
 62
     7
 48
0.003125
100
AcDbLine
 10
-2.5
 20
0.0
 30
0.0
 11
-2.625
 21
0.0
 31
0.0
210
0.0
220
0.0
230
1.0
  0
LINE
  5
3F1
100
AcDbEntity
  8
0
370
     5
390
0
 62
     7
 48
0.03937
100
AcDbLine
 10
-2.625
 20
0.0
 30
0.0
 11
-2.625
 21
0.88
 31
0.0
210
0.0
220
0.0
230
1.0
  0
LINE
  5
3F2
100
AcDbEntity
  8
0
370
     5
390
0
 62
     7
 48
0.010244
100
AcDbLine
 10
-2.625
 20
0.88
 30
0.0
 11
-2.215241
 21
0.88
 31
0.0
210
0.0
220
0.0
230
1.0
  0
LINE
  5
3F3
100
AcDbEntity
  8
0
370
     5
390
0
 62
     7
 48
0.000204
100
AcDbLine
 10
-2.215241
 20
0.88
 30
0.0
 11
-2.207103
 21
0.880276
 31
0.0
210
0.0
220
0.0
230
1.0
  0
LINE
  5
3F4
100
AcDbEntity
  8
0
370
     5
390
0
 62
     7
 48
0.000204
100
AcDbLine
 10
-2.207103
 20
0.880276
 30
0.0
 11
-2.199002
 21
0.881104
 31
0.0
210
0.0
220
0.0
230
1.0
  0
LINE
  5
3F5
100
AcDbEntity
  8
0
370
     5
390
0
 62
     7
 48
0.000204
100
AcDbLine
 10
-2.199002
 20
0.881104
 30
0.0
 11
-2.190976
 21
0.882479
 31
0.0
210
0.0
220
0.0
230
1.0
  0
LINE
  5
3F6
100
AcDbEntity
  8
0
370
     5
390
0
 62
     7
 48
0.000204
100
AcDbLine
 10
-2.190976
 20
0.882479
 30
0.0
 11
-2.183061
 21
0.884395
 31
0.0
210
0.0
220
0.0
230
1.0
  0
LINE
  5
3F7
100
AcDbEntity
  8
0
370
     5
390
0
 62
     7
 48
0.000204
100
AcDbLine
 10
-2.183061
 20
0.884395
 30
0.0
 11
-2.175295
 21
0.886844
 31
0.0
210
0.0
220
0.0
230
1.0
  0
LINE
  5
3F8
100
AcDbEntity
  8
0
370
     5
390
0
 62
     7
 48
0.000204
100
AcDbLine
 10
-2.175295
 20
0.886844
 30
0.0
 11
-2.167712
 21
0.889814
 31
0.0
210
0.0
220
0.0
230
1.0
  0
LINE
  5
3F9
100
AcDbEntity
  8
0
370
     5
390
0
 62
     7
 48
0.000204
100
AcDbLine
 10
-2.167712
 20
0.889814
 30
0.0
 11
-2.160349
 21
0.893291
 31
0.0
210
0.0
220
0.0
230
1.0
  0
LINE
  5
3FA
100
AcDbEntity
  8
0
370
     5
390
0
 62
     7
 48
0.000204
100
AcDbLine
 10
-2.160349
 20
0.893291
 30
0.0
 11
-2.153238
 21
0.897259
 31
0.0
210
0.0
220
0.0
230
1.0
  0
LINE
  5
3FB
100
AcDbEntity
  8
0
370
     5
390
0
 62
     7
 48
0.000204
100
AcDbLine
 10
-2.153238
 20
0.897259
 30
0.0
 11
-2.146413
 21
0.901701
 31
0.0
210
0.0
220
0.0
230
1.0
  0
LINE
  5
3FC
100
AcDbEntity
  8
0
370
     5
390
0
 62
     7
 48
0.000204
100
AcDbLine
 10
-2.146413
 20
0.901701
 30
0.0
 11
-2.139905
 21
0.906595
 31
0.0
210
0.0
220
0.0
230
1.0
  0
LINE
  5
3FD
100
AcDbEntity
  8
0
370
     5
390
0
 62
     7
 48
0.000204
100
AcDbLine
 10
-2.139905
 20
0.906595
 30
0.0
 11
-2.133744
 21
0.911919
 31
0.0
210
0.0
220
0.0
230
1.0
  0
LINE
  5
3FE
100
AcDbEntity
  8
0
370
     5
390
0
 62
     7
 48
0.000204
100
AcDbLine
 10
-2.133744
 20
0.911919
 30
0.0
 11
-2.127958
 21
0.917649
 31
0.0
210
0.0
220
0.0
230
1.0
  0
LINE
  5
3FF
100
AcDbEntity
  8
0
370
     5
390
0
 62
     7
 48
0.000204
100
AcDbLine
 10
-2.127958
 20
0.917649
 30
0.0
 11
-2.122574
 21
0.923759
 31
0.0
210
0.0
220
0.0
230
1.0
  0
LINE
  5
400
100
AcDbEntity
  8
0
370
     5
390
0
 62
     7
 48
0.000204
100
AcDbLine
 10
-2.122574
 20
0.923759
 30
0.0
 11
-2.117616
 21
0.930219
 31
0.0
210
0.0
220
0.0
230
1.0
  0
LINE
  5
401
100
AcDbEntity
  8
0
370
     5
390
0
 62
     7
 48
0.000204
100
AcDbLine
 10
-2.117616
 20
0.930219
 30
0.0
 11
-2.113109
 21
0.937
 31
0.0
210
0.0
220
0.0
230
1.0
  0
LINE
  5
402
100
AcDbEntity
  8
0
370
     5
390
0
 62
     7
 48
0.000204
100
AcDbLine
 10
-2.113109
 20
0.937
 30
0.0
 11
-2.109071
 21
0.944072
 31
0.0
210
0.0
220
0.0
230
1.0
  0
LINE
  5
403
100
AcDbEntity
  8
0
370
     5
390
0
 62
     7
 48
0.000204
100
AcDbLine
 10
-2.109071
 20
0.944072
 30
0.0
 11
-2.105523
 21
0.951401
 31
0.0
210
0.0
220
0.0
230
1.0
  0
LINE
  5
404
100
AcDbEntity
  8
0
370
     5
390
0
 62
     7
 48
0.000204
100
AcDbLine
 10
-2.105523
 20
0.951401
 30
0.0
 11
-2.102479
 21
0.958954
 31
0.0
210
0.0
220
0.0
230
1.0
  0
LINE
  5
405
100
AcDbEntity
  8
0
370
     5
390
0
 62
     7
 48
0.000204
100
AcDbLine
 10
-2.102479
 20
0.958954
 30
0.0
 11
-2.099955
 21
0.966696
 31
0.0
210
0.0
220
0.0
230
1.0
  0
LINE
  5
406
100
AcDbEntity
  8
0
370
     5
390
0
 62
     7
 48
0.03937
100
AcDbLine
 10
-2.099955
 20
0.966696
 30
0.0
 11
-1.75
 21
2.17811
 31
0.0
210
0.0
220
0.0
230
1.0
  0
LINE
  5
407
100
AcDbEntity
  8
0
370
     5
390
0
 62
     7
 48
0.005906
100
AcDbLine
 10
-1.75
 20
2.17811
 30
0.0
 11
-1.75
 21
2.41433
 31
0.0
210
0.0
220
0.0
230
1.0
  0
LINE
  5
408
100
AcDbEntity
  8
0
370
     5
390
0
 62
     7
 48
0.011321
100
AcDbLine
 10
-1.75
 20
2.41433
 30
0.0
 11
-1.39074
 21
2.69
 31
0.0
210
0.0
220
0.0
230
1.0
  0
LINE
  5
409
100
AcDbEntity
  8
0
370
     5
390
0
 62
     7
 48
0.001969
100
AcDbLine
 10
-1.39074
 20
2.69
 30
0.0
 11
-1.312
 21
2.69
 31
0.0
210
0.0
220
0.0
230
1.0
  0
LINE
  5
40A
100
AcDbEntity
  8
0
370
     5
390
0
 62
     7
 48
0.03937
100
AcDbLine
 10
-1.312
 20
2.69
 30
0.0
 11
-1.312
 21
0.0
 31
0.0
210
0.0
220
0.0
230
1.0
  0
LINE
  5
40B
100
AcDbEntity
  8
0
370
     5
390
0
 62
     7
 48
0.03937
100
AcDbLine
 10
-1.312
 20
0.0
 30
0.0
 11
-2.5
 21
0.0
 31
0.0
210
0.0
220
0.0
230
1.0
  0
ENDBLK
  5
40C
100
AcDbEntity
  8
0
390
0
100
AcDbBlockEnd
  0
BLOCK
  5
40D
100
AcDbEntity
  8
0
370
     0
390
0
100
AcDbBlockBegin
  2
BLOCK22
 70
     0
 10
0.0
 20
0.0
 30
0.0
  3
BLOCK22
  1

  0
LINE
  5
40E
100
AcDbEntity
  8
0
370
     5
390
0
 62
     7
 48
0.003125
100
AcDbLine
 10
2.625
 20
0.0
 30
0.0
 11
2.5
 21
0.0
 31
0.0
210
0.0
220
0.0
230
1.0
  0
LINE
  5
40F
100
AcDbEntity
  8
0
370
     5
390
0
 62
     7
 48
0.03937
100
AcDbLine
 10
2.5
 20
0.0
 30
0.0
 11
1.312
 21
0.0
 31
0.0
210
0.0
220
0.0
230
1.0
  0
LINE
  5
410
100
AcDbEntity
  8
0
370
     5
390
0
 62
     7
 48
0.03937
100
AcDbLine
 10
1.312
 20
0.0
 30
0.0
 11
1.312
 21
2.69
 31
0.0
210
0.0
220
0.0
230
1.0
  0
LINE
  5
411
100
AcDbEntity
  8
0
370
     5
390
0
 62
     7
 48
0.001969
100
AcDbLine
 10
1.312
 20
2.69
 30
0.0
 11
1.39074
 21
2.69
 31
0.0
210
0.0
220
0.0
230
1.0
  0
LINE
  5
412
100
AcDbEntity
  8
0
370
     5
390
0
 62
     7
 48
0.011321
100
AcDbLine
 10
1.39074
 20
2.69
 30
0.0
 11
1.75
 21
2.41433
 31
0.0
210
0.0
220
0.0
230
1.0
  0
LINE
  5
413
100
AcDbEntity
  8
0
370
     5
390
0
 62
     7
 48
0.005906
100
AcDbLine
 10
1.75
 20
2.41433
 30
0.0
 11
1.75
 21
2.17811
 31
0.0
210
0.0
220
0.0
230
1.0
  0
LINE
  5
414
100
AcDbEntity
  8
0
370
     5
390
0
 62
     7
 48
0.03937
100
AcDbLine
 10
1.75
 20
2.17811
 30
0.0
 11
2.099955
 21
0.966696
 31
0.0
210
0.0
220
0.0
230
1.0
  0
LINE
  5
415
100
AcDbEntity
  8
0
370
     5
390
0
 62
     7
 48
0.000204
100
AcDbLine
 10
2.099955
 20
0.966696
 30
0.0
 11
2.102479
 21
0.958954
 31
0.0
210
0.0
220
0.0
230
1.0
  0
LINE
  5
416
100
AcDbEntity
  8
0
370
     5
390
0
 62
     7
 48
0.000204
100
AcDbLine
 10
2.102479
 20
0.958954
 30
0.0
 11
2.105523
 21
0.951401
 31
0.0
210
0.0
220
0.0
230
1.0
  0
LINE
  5
417
100
AcDbEntity
  8
0
370
     5
390
0
 62
     7
 48
0.000204
100
AcDbLine
 10
2.105523
 20
0.951401
 30
0.0
 11
2.109071
 21
0.944072
 31
0.0
210
0.0
220
0.0
230
1.0
  0
LINE
  5
418
100
AcDbEntity
  8
0
370
     5
390
0
 62
     7
 48
0.000204
100
AcDbLine
 10
2.109071
 20
0.944072
 30
0.0
 11
2.113109
 21
0.937
 31
0.0
210
0.0
220
0.0
230
1.0
  0
LINE
  5
419
100
AcDbEntity
  8
0
370
     5
390
0
 62
     7
 48
0.000204
100
AcDbLine
 10
2.113109
 20
0.937
 30
0.0
 11
2.117616
 21
0.930219
 31
0.0
210
0.0
220
0.0
230
1.0
  0
LINE
  5
41A
100
AcDbEntity
  8
0
370
     5
390
0
 62
     7
 48
0.000204
100
AcDbLine
 10
2.117616
 20
0.930219
 30
0.0
 11
2.122574
 21
0.923759
 31
0.0
210
0.0
220
0.0
230
1.0
  0
LINE
  5
41B
100
AcDbEntity
  8
0
370
     5
390
0
 62
     7
 48
0.000204
100
AcDbLine
 10
2.122574
 20
0.923759
 30
0.0
 11
2.127958
 21
0.917649
 31
0.0
210
0.0
220
0.0
230
1.0
  0
LINE
  5
41C
100
AcDbEntity
  8
0
370
     5
390
0
 62
     7
 48
0.000204
100
AcDbLine
 10
2.127958
 20
0.917649
 30
0.0
 11
2.133744
 21
0.911919
 31
0.0
210
0.0
220
0.0
230
1.0
  0
LINE
  5
41D
100
AcDbEntity
  8
0
370
     5
390
0
 62
     7
 48
0.000204
100
AcDbLine
 10
2.133744
 20
0.911919
 30
0.0
 11
2.139905
 21
0.906595
 31
0.0
210
0.0
220
0.0
230
1.0
  0
LINE
  5
41E
100
AcDbEntity
  8
0
370
     5
390
0
 62
     7
 48
0.000204
100
AcDbLine
 10
2.139905
 20
0.906595
 30
0.0
 11
2.146413
 21
0.901701
 31
0.0
210
0.0
220
0.0
230
1.0
  0
LINE
  5
41F
100
AcDbEntity
  8
0
370
     5
390
0
 62
     7
 48
0.000204
100
AcDbLine
 10
2.146413
 20
0.901701
 30
0.0
 11
2.153238
 21
0.897259
 31
0.0
210
0.0
220
0.0
230
1.0
  0
LINE
  5
420
100
AcDbEntity
  8
0
370
     5
390
0
 62
     7
 48
0.000204
100
AcDbLine
 10
2.153238
 20
0.897259
 30
0.0
 11
2.160349
 21
0.893291
 31
0.0
210
0.0
220
0.0
230
1.0
  0
LINE
  5
421
100
AcDbEntity
  8
0
370
     5
390
0
 62
     7
 48
0.000204
100
AcDbLine
 10
2.160349
 20
0.893291
 30
0.0
 11
2.167712
 21
0.889814
 31
0.0
210
0.0
220
0.0
230
1.0
  0
LINE
  5
422
100
AcDbEntity
  8
0
370
     5
390
0
 62
     7
 48
0.000204
100
AcDbLine
 10
2.167712
 20
0.889814
 30
0.0
 11
2.175295
 21
0.886844
 31
0.0
210
0.0
220
0.0
230
1.0
  0
LINE
  5
423
100
AcDbEntity
  8
0
370
     5
390
0
 62
     7
 48
0.000204
100
AcDbLine
 10
2.175295
 20
0.886844
 30
0.0
 11
2.183061
 21
0.884395
 31
0.0
210
0.0
220
0.0
230
1.0
  0
LINE
  5
424
100
AcDbEntity
  8
0
370
     5
390
0
 62
     7
 48
0.000204
100
AcDbLine
 10
2.183061
 20
0.884395
 30
0.0
 11
2.190976
 21
0.882479
 31
0.0
210
0.0
220
0.0
230
1.0
  0
LINE
  5
425
100
AcDbEntity
  8
0
370
     5
390
0
 62
     7
 48
0.000204
100
AcDbLine
 10
2.190976
 20
0.882479
 30
0.0
 11
2.199002
 21
0.881104
 31
0.0
210
0.0
220
0.0
230
1.0
  0
LINE
  5
426
100
AcDbEntity
  8
0
370
     5
390
0
 62
     7
 48
0.000204
100
AcDbLine
 10
2.199002
 20
0.881104
 30
0.0
 11
2.207103
 21
0.880276
 31
0.0
210
0.0
220
0.0
230
1.0
  0
LINE
  5
427
100
AcDbEntity
  8
0
370
     5
390
0
 62
     7
 48
0.000204
100
AcDbLine
 10
2.207103
 20
0.880276
 30
0.0
 11
2.215241
 21
0.88
 31
0.0
210
0.0
220
0.0
230
1.0
  0
LINE
  5
428
100
AcDbEntity
  8
0
370
     5
390
0
 62
     7
 48
0.010244
100
AcDbLine
 10
2.215241
 20
0.88
 30
0.0
 11
2.625
 21
0.88
 31
0.0
210
0.0
220
0.0
230
1.0
  0
LINE
  5
429
100
AcDbEntity
  8
0
370
     5
390
0
 62
     7
 48
0.03937
100
AcDbLine
 10
2.625
 20
0.88
 30
0.0
 11
2.625
 21
0.0
 31
0.0
210
0.0
220
0.0
230
1.0
  0
ENDBLK
  5
42A
100
AcDbEntity
  8
0
390
0
100
AcDbBlockEnd
  0
BLOCK
  5
42B
100
AcDbEntity
  8
0
370
     0
390
0
100
AcDbBlockBegin
  2
BLOCK23
 70
     0
 10
0.0
 20
0.0
 30
0.0
  3
BLOCK23
  1

  0
LINE
  5
42C
100
AcDbEntity
  8
0
370
     5
390
0
 62
     7
 48
0.03937
100
AcDbLine
 10
3.375
 20
0.0
 30
0.0
 11
3.375
 21
0.88
 31
0.0
210
0.0
220
0.0
230
1.0
  0
LINE
  5
42D
100
AcDbEntity
  8
0
370
     5
390
0
 62
     7
 48
0.009375
100
AcDbLine
 10
3.375
 20
0.88
 30
0.0
 11
3.75
 21
0.88
 31
0.0
210
0.0
220
0.0
230
1.0
  0
LINE
  5
42E
100
AcDbEntity
  8
0
370
     5
390
0
 62
     7
 48
0.03937
100
AcDbLine
 10
3.75
 20
0.88
 30
0.0
 11
3.75
 21
0.0
 31
0.0
210
0.0
220
0.0
230
1.0
  0
LINE
  5
42F
100
AcDbEntity
  8
0
370
     5
390
0
 62
     7
 48
0.009375
100
AcDbLine
 10
3.75
 20
0.0
 30
0.0
 11
3.375
 21
0.0
 31
0.0
210
0.0
220
0.0
230
1.0
  0
ENDBLK
  5
430
100
AcDbEntity
  8
0
390
0
100
AcDbBlockEnd
  0
ENDSEC
  0
SECTION
  2
ENTITIES
  0
VIEWPORT
  5
204
100
AcDbEntity
 67
     1
  8
0
370
     0
390
0
 62
     0
 48
0.0
100
AcDbViewport
 10
0.0
 20
0.0
 30
0.0
 40
1000.0
 41
1000.0
 68
     1
 69
     1
 12
0.0
 22
0.0
 13
0.0
 23
0.0
 14
1.0
 24
1.0
 15
1.0
 25
1.0
 16
0.0
 26
0.0
 36
1.0
 17
0.0
 27
0.0
 37
0.0
 42
50.0
 43
0.0
 44
0.0
 45
1000.0
 50
0.0
 51
0.0
 72
   100
 90
        0
340
0
  1

281
     0
 71
     0
 74
     1
110
0.0
120
0.0
130
0.0
111
1.0
121
0.0
131
0.0
112
0.0
122
1.0
132
0.0
345
0
346
0
 79
     0
146
0.0
  0
TEXT
  5
27
100
AcDbEntity
  8
0
370
    13
390
0
 62
     7
 48
0.03937
100
AcDbText
 10
7.774762
 20
1.08216
 30
0.0
 40
0.06
  1
SIZE:
 72
     5
 11
8.064134
 21
1.08216
 31
0.0
100
AcDbText
  0
TEXT
  5
28
100
AcDbEntity
  8
0
370
    13
390
0
 62
     7
 48
0.03937
100
AcDbText
 10
7.774762
 20
0.894218
 30
0.0
 40
0.06
  1
TYPE:
 72
     5
 11
8.064134
 21
0.894218
 31
0.0
100
AcDbText
  0
POINT
  5
29
100
AcDbEntity
  8
0
370
     5
390
0
 62
     7
 48
0.03937
100
AcDbPoint
 10
0.0
 20
0.0
 30
0.0
210
0.0
220
0.0
230
1.0
  0
POINT
  5
2A
100
AcDbEntity
  8
0
370
     5
390
0
 62
     7
 48
0.03937
100
AcDbPoint
 10
8.029755
 20
0.53125
 30
0.0
210
0.0
220
0.0
230
1.0
  0
LINE
  5
2B
100
AcDbEntity
  8
1
370
    35
390
0
 62
     7
 48
0.000032
100
AcDbLine
 10
9.035676
 20
0.778761
 30
0.0
 11
9.036922
 21
0.778449
 31
0.0
210
0.0
220
0.0
230
1.0
  0
LINE
  5
2C
100
AcDbEntity
  8
1
370
    35
390
0
 62
     7
 48
0.03937
100
AcDbLine
 10
0.25
 20
0.25
 30
0.0
 11
0.25
 21
8.25
 31
0.0
210
0.0
220
0.0
230
1.0
  0
LINE
  5
2D
100
AcDbEntity
  8
1
370
    35
390
0
 62
     7
 48
0.03937
100
AcDbLine
 10
7.75
 20
1.1875
 30
0.0
 11
10.75
 21
1.1875
 31
0.0
210
0.0
220
0.0
230
1.0
  0
LINE
  5
2E
100
AcDbEntity
  8
1
370
    35
390
0
 62
     7
 48
0.03937
100
AcDbLine
 10
7.75
 20
1.0
 30
0.0
 11
10.75
 21
1.0
 31
0.0
210
0.0
220
0.0
230
1.0
  0
LINE
  5
2F
100
AcDbEntity
  8
1
370
    35
390
0
 62
     7
 48
0.03937
100
AcDbLine
 10
0.25
 20
8.25
 30
0.0
 11
10.75
 21
8.25
 31
0.0
210
0.0
220
0.0
230
1.0
  0
LINE
  5
30
100
AcDbEntity
  8
1
370
    35
390
0
 62
     7
 48
0.03937
100
AcDbLine
 10
7.75
 20
0.8125
 30
0.0
 11
10.75
 21
0.8125
 31
0.0
210
0.0
220
0.0
230
1.0
  0
LINE
  5
31
100
AcDbEntity
  8
1
370
    35
390
0
 62
     7
 48
0.03937
100
AcDbLine
 10
0.25
 20
0.25
 30
0.0
 11
10.75
 21
0.25
 31
0.0
210
0.0
220
0.0
230
1.0
  0
LINE
  5
32
100
AcDbEntity
  8
1
370
    35
390
0
 62
     7
 48
0.03937
100
AcDbLine
 10
10.75
 20
8.25
 30
0.0
 11
10.75
 21
0.25
 31
0.0
210
0.0
220
0.0
230
1.0
  0
LINE
  5
33
100
AcDbEntity
  8
1
370
    35
390
0
 62
     7
 48
0.03937
100
AcDbLine
 10
7.75
 20
1.1875
 30
0.0
 11
7.75
 21
0.25
 31
0.0
210
0.0
220
0.0
230
1.0
  0
CIRCLE
  5
34
100
AcDbEntity
  8
0
370
    70
390
0
 62
     7
 48
0.03937
100
AcDbCircle
 10
8.029755
 20
0.53125
 30
0.0
 40
0.2475
210
0.0
220
0.0
230
1.0
  0
CIRCLE
  5
35
100
AcDbEntity
  8
0
370
    70
390
0
 62
     7
 48
0.03937
100
AcDbCircle
 10
8.029755
 20
0.53125
 30
0.0
 40
0.195
210
0.0
220
0.0
230
1.0
  0
CIRCLE
  5
36
100
AcDbEntity
  8
0
370
    35
390
0
 62
     7
 48
0.03937
100
AcDbCircle
 10
8.029755
 20
0.7525
 30
0.0
 40
0.015
210
0.0
220
0.0
230
1.0
  0
CIRCLE
  5
37
100
AcDbEntity
  8
0
370
    35
390
0
 62
     7
 48
0.03937
100
AcDbCircle
 10
8.251005
 20
0.53125
 30
0.0
 40
0.015
210
0.0
220
0.0
230
1.0
  0
CIRCLE
  5
38
100
AcDbEntity
  8
0
370
    35
390
0
 62
     7
 48
0.03937
100
AcDbCircle
 10
8.186202
 20
0.687697
 30
0.0
 40
0.015
210
0.0
220
0.0
230
1.0
  0
CIRCLE
  5
39
100
AcDbEntity
  8
0
370
    35
390
0
 62
     7
 48
0.03937
100
AcDbCircle
 10
8.029755
 20
0.31
 30
0.0
 40
0.015
210
0.0
220
0.0
230
1.0
  0
CIRCLE
  5
3A
100
AcDbEntity
  8
0
370
    35
390
0
 62
     7
 48
0.03937
100
AcDbCircle
 10
8.186202
 20
0.374803
 30
0.0
 40
0.015
210
0.0
220
0.0
230
1.0
  0
CIRCLE
  5
3B
100
AcDbEntity
  8
0
370
    35
390
0
 62
     7
 48
0.03937
100
AcDbCircle
 10
7.808505
 20
0.53125
 30
0.0
 40
0.015
210
0.0
220
0.0
230
1.0
  0
CIRCLE
  5
3C
100
AcDbEntity
  8
0
370
    35
390
0
 62
     7
 48
0.03937
100
AcDbCircle
 10
7.873308
 20
0.687697
 30
0.0
 40
0.015
210
0.0
220
0.0
230
1.0
  0
CIRCLE
  5
3D
100
AcDbEntity
  8
0
370
    35
390
0
 62
     7
 48
0.03937
100
AcDbCircle
 10
7.873308
 20
0.374803
 30
0.0
 40
0.015
210
0.0
220
0.0
230
1.0
  0
POLYLINE
  5
3E
100
AcDbEntity
  8
0
370
    13
390
0
 62
     7
 48
0.03937
100
AcDb2dPolyline
 66
     1
 10
0.0
 20
0.0
 30
0.0
 70
     1
 71
   118
  0
VERTEX
  5
3F
100
AcDbEntity
  8
0
370
     0
390
0
100
AcDbVertex
100
AcDb2dVertex
 10
8.029831
 20
0.605292
 30
0.0
  0
VERTEX
  5
40
100
AcDbEntity
  8
0
370
     0
390
0
100
AcDbVertex
100
AcDb2dVertex
 10
8.029019
 20
0.60375
 30
0.0
  0
VERTEX
  5
41
100
AcDbEntity
  8
0
370
     0
390
0
100
AcDbVertex
100
AcDb2dVertex
 10
8.021177
 20
0.589826
 30
0.0
  0
VERTEX
  5
42
100
AcDbEntity
  8
0
370
     0
390
0
100
AcDbVertex
100
AcDb2dVertex
 10
8.020426
 20
0.588405
 30
0.0
  0
VERTEX
  5
43
100
AcDbEntity
  8
0
370
     0
390
0
100
AcDbVertex
100
AcDb2dVertex
 10
8.019684
 20
0.586917
 30
0.0
  0
VERTEX
  5
44
100
AcDbEntity
  8
0
370
     0
390
0
100
AcDbVertex
100
AcDb2dVertex
 10
8.018954
 20
0.58536
 30
0.0
  0
VERTEX
  5
45
100
AcDbEntity
  8
0
370
     0
390
0
100
AcDbVertex
100
AcDb2dVertex
 10
8.018235
 20
0.583734
 30
0.0
  0
VERTEX
  5
46
100
AcDbEntity
  8
0
370
     0
390
0
100
AcDbVertex
100
AcDb2dVertex
 10
8.017528
 20
0.582038
 30
0.0
  0
VERTEX
  5
47
100
AcDbEntity
  8
0
370
     0
390
0
100
AcDbVertex
100
AcDb2dVertex
 10
8.01683
 20
0.580272
 30
0.0
  0
VERTEX
  5
48
100
AcDbEntity
  8
0
370
     0
390
0
100
AcDbVertex
100
AcDb2dVertex
 10
8.016143
 20
0.578438
 30
0.0
  0
VERTEX
  5
49
100
AcDbEntity
  8
0
370
     0
390
0
100
AcDbVertex
100
AcDb2dVertex
 10
8.015467
 20
0.576534
 30
0.0
  0
VERTEX
  5
4A
100
AcDbEntity
  8
0
370
     0
390
0
100
AcDbVertex
100
AcDb2dVertex
 10
8.014802
 20
0.574562
 30
0.0
  0
VERTEX
  5
4B
100
AcDbEntity
  8
0
370
     0
390
0
100
AcDbVertex
100
AcDb2dVertex
 10
8.014147
 20
0.572519
 30
0.0
  0
VERTEX
  5
4C
100
AcDbEntity
  8
0
370
     0
390
0
100
AcDbVertex
100
AcDb2dVertex
 10
8.012525
 20
0.574142
 30
0.0
  0
VERTEX
  5
4D
100
AcDbEntity
  8
0
370
     0
390
0
100
AcDbVertex
100
AcDb2dVertex
 10
8.011871
 20
0.576531
 30
0.0
  0
VERTEX
  5
4E
100
AcDbEntity
  8
0
370
     0
390
0
100
AcDbVertex
100
AcDb2dVertex
 10
8.011163
 20
0.578771
 30
0.0
  0
VERTEX
  5
4F
100
AcDbEntity
  8
0
370
     0
390
0
100
AcDbVertex
100
AcDb2dVertex
 10
8.010404
 20
0.580859
 30
0.0
  0
VERTEX
  5
50
100
AcDbEntity
  8
0
370
     0
390
0
100
AcDbVertex
100
AcDb2dVertex
 10
8.009591
 20
0.582795
 30
0.0
  0
VERTEX
  5
51
100
AcDbEntity
  8
0
370
     0
390
0
100
AcDbVertex
100
AcDb2dVertex
 10
8.008726
 20
0.584579
 30
0.0
  0
VERTEX
  5
52
100
AcDbEntity
  8
0
370
     0
390
0
100
AcDbVertex
100
AcDb2dVertex
 10
8.007806
 20
0.586212
 30
0.0
  0
VERTEX
  5
53
100
AcDbEntity
  8
0
370
     0
390
0
100
AcDbVertex
100
AcDb2dVertex
 10
8.006836
 20
0.587694
 30
0.0
  0
VERTEX
  5
54
100
AcDbEntity
  8
0
370
     0
390
0
100
AcDbVertex
100
AcDb2dVertex
 10
8.00581
 20
0.589025
 30
0.0
  0
VERTEX
  5
55
100
AcDbEntity
  8
0
370
     0
390
0
100
AcDbVertex
100
AcDb2dVertex
 10
8.004733
 20
0.590204
 30
0.0
  0
VERTEX
  5
56
100
AcDbEntity
  8
0
370
     0
390
0
100
AcDbVertex
100
AcDb2dVertex
 10
8.003601
 20
0.591231
 30
0.0
  0
VERTEX
  5
57
100
AcDbEntity
  8
0
370
     0
390
0
100
AcDbVertex
100
AcDb2dVertex
 10
8.002384
 20
0.592136
 30
0.0
  0
VERTEX
  5
58
100
AcDbEntity
  8
0
370
     0
390
0
100
AcDbVertex
100
AcDb2dVertex
 10
8.001043
 20
0.592944
 30
0.0
  0
VERTEX
  5
59
100
AcDbEntity
  8
0
370
     0
390
0
100
AcDbVertex
100
AcDb2dVertex
 10
7.99958
 20
0.593658
 30
0.0
  0
VERTEX
  5
5A
100
AcDbEntity
  8
0
370
     0
390
0
100
AcDbVertex
100
AcDb2dVertex
 10
7.997995
 20
0.594276
 30
0.0
  0
VERTEX
  5
5B
100
AcDbEntity
  8
0
370
     0
390
0
100
AcDbVertex
100
AcDb2dVertex
 10
7.996287
 20
0.5948
 30
0.0
  0
VERTEX
  5
5C
100
AcDbEntity
  8
0
370
     0
390
0
100
AcDbVertex
100
AcDb2dVertex
 10
7.994457
 20
0.595229
 30
0.0
  0
VERTEX
  5
5D
100
AcDbEntity
  8
0
370
     0
390
0
100
AcDbVertex
100
AcDb2dVertex
 10
7.992506
 20
0.595562
 30
0.0
  0
VERTEX
  5
5E
100
AcDbEntity
  8
0
370
     0
390
0
100
AcDbVertex
100
AcDb2dVertex
 10
7.990431
 20
0.595799
 30
0.0
  0
VERTEX
  5
5F
100
AcDbEntity
  8
0
370
     0
390
0
100
AcDbVertex
100
AcDb2dVertex
 10
7.988236
 20
0.595943
 30
0.0
  0
VERTEX
  5
60
100
AcDbEntity
  8
0
370
     0
390
0
100
AcDbVertex
100
AcDb2dVertex
 10
7.985918
 20
0.595991
 30
0.0
  0
VERTEX
  5
61
100
AcDbEntity
  8
0
370
     0
390
0
100
AcDbVertex
100
AcDb2dVertex
 10
7.983971
 20
0.595973
 30
0.0
  0
VERTEX
  5
62
100
AcDbEntity
  8
0
370
     0
390
0
100
AcDbVertex
100
AcDb2dVertex
 10
7.982024
 20
0.59592
 30
0.0
  0
VERTEX
  5
63
100
AcDbEntity
  8
0
370
     0
390
0
100
AcDbVertex
100
AcDb2dVertex
 10
7.980077
 20
0.595835
 30
0.0
  0
VERTEX
  5
64
100
AcDbEntity
  8
0
370
     0
390
0
100
AcDbVertex
100
AcDb2dVertex
 10
7.97813
 20
0.595713
 30
0.0
  0
VERTEX
  5
65
100
AcDbEntity
  8
0
370
     0
390
0
100
AcDbVertex
100
AcDb2dVertex
 10
7.976183
 20
0.595557
 30
0.0
  0
VERTEX
  5
66
100
AcDbEntity
  8
0
370
     0
390
0
100
AcDbVertex
100
AcDb2dVertex
 10
7.974885
 20
0.478313
 30
0.0
  0
VERTEX
  5
67
100
AcDbEntity
  8
0
370
     0
390
0
100
AcDbVertex
100
AcDb2dVertex
 10
7.987647
 20
0.466523
 30
0.0
  0
VERTEX
  5
68
100
AcDbEntity
  8
0
370
     0
390
0
100
AcDbVertex
100
AcDb2dVertex
 10
7.93822
 20
0.466523
 30
0.0
  0
VERTEX
  5
69
100
AcDbEntity
  8
0
370
     0
390
0
100
AcDbVertex
100
AcDb2dVertex
 10
7.953361
 20
0.479178
 30
0.0
  0
VERTEX
  5
6A
100
AcDbEntity
  8
0
370
     0
390
0
100
AcDbVertex
100
AcDb2dVertex
 10
7.953361
 20
0.586796
 30
0.0
  0
VERTEX
  5
6B
100
AcDbEntity
  8
0
370
     0
390
0
100
AcDbVertex
100
AcDb2dVertex
 10
7.945682
 20
0.586905
 30
0.0
  0
VERTEX
  5
6C
100
AcDbEntity
  8
0
370
     0
390
0
100
AcDbVertex
100
AcDb2dVertex
 10
7.943519
 20
0.58686
 30
0.0
  0
VERTEX
  5
6D
100
AcDbEntity
  8
0
370
     0
390
0
100
AcDbVertex
100
AcDb2dVertex
 10
7.941484
 20
0.58673
 30
0.0
  0
VERTEX
  5
6E
100
AcDbEntity
  8
0
370
     0
390
0
100
AcDbVertex
100
AcDb2dVertex
 10
7.939577
 20
0.586511
 30
0.0
  0
VERTEX
  5
6F
100
AcDbEntity
  8
0
370
     0
390
0
100
AcDbVertex
100
AcDb2dVertex
 10
7.937799
 20
0.586203
 30
0.0
  0
VERTEX
  5
70
100
AcDbEntity
  8
0
370
     0
390
0
100
AcDbVertex
100
AcDb2dVertex
 10
7.936151
 20
0.585809
 30
0.0
  0
VERTEX
  5
71
100
AcDbEntity
  8
0
370
     0
390
0
100
AcDbVertex
100
AcDb2dVertex
 10
7.93463
 20
0.585327
 30
0.0
  0
VERTEX
  5
72
100
AcDbEntity
  8
0
370
     0
390
0
100
AcDbVertex
100
AcDb2dVertex
 10
7.93324
 20
0.584759
 30
0.0
  0
VERTEX
  5
73
100
AcDbEntity
  8
0
370
     0
390
0
100
AcDbVertex
100
AcDb2dVertex
 10
7.930843
 20
0.583356
 30
0.0
  0
VERTEX
  5
74
100
AcDbEntity
  8
0
370
     0
390
0
100
AcDbVertex
100
AcDb2dVertex
 10
7.928935
 20
0.581582
 30
0.0
  0
VERTEX
  5
75
100
AcDbEntity
  8
0
370
     0
390
0
100
AcDbVertex
100
AcDb2dVertex
 10
7.92736
 20
0.579297
 30
0.0
  0
VERTEX
  5
76
100
AcDbEntity
  8
0
370
     0
390
0
100
AcDbVertex
100
AcDb2dVertex
 10
7.926092
 20
0.57648
 30
0.0
  0
VERTEX
  5
77
100
AcDbEntity
  8
0
370
     0
390
0
100
AcDbVertex
100
AcDb2dVertex
 10
7.925573
 20
0.574872
 30
0.0
  0
VERTEX
  5
78
100
AcDbEntity
  8
0
370
     0
390
0
100
AcDbVertex
100
AcDb2dVertex
 10
7.92513
 20
0.573132
 30
0.0
  0
VERTEX
  5
79
100
AcDbEntity
  8
0
370
     0
390
0
100
AcDbVertex
100
AcDb2dVertex
 10
7.924766
 20
0.571259
 30
0.0
  0
VERTEX
  5
7A
100
AcDbEntity
  8
0
370
     0
390
0
100
AcDbVertex
100
AcDb2dVertex
 10
7.924478
 20
0.569252
 30
0.0
  0
VERTEX
  5
7B
100
AcDbEntity
  8
0
370
     0
390
0
100
AcDbVertex
100
AcDb2dVertex
 10
7.924266
 20
0.567111
 30
0.0
  0
VERTEX
  5
7C
100
AcDbEntity
  8
0
370
     0
390
0
100
AcDbVertex
100
AcDb2dVertex
 10
7.921454
 20
0.567111
 30
0.0
  0
VERTEX
  5
7D
100
AcDbEntity
  8
0
370
     0
390
0
100
AcDbVertex
100
AcDb2dVertex
 10
7.921734
 20
0.569565
 30
0.0
  0
VERTEX
  5
7E
100
AcDbEntity
  8
0
370
     0
390
0
100
AcDbVertex
100
AcDb2dVertex
 10
7.922096
 20
0.571866
 30
0.0
  0
VERTEX
  5
7F
100
AcDbEntity
  8
0
370
     0
390
0
100
AcDbVertex
100
AcDb2dVertex
 10
7.922543
 20
0.574013
 30
0.0
  0
VERTEX
  5
80
100
AcDbEntity
  8
0
370
     0
390
0
100
AcDbVertex
100
AcDb2dVertex
 10
7.923073
 20
0.576006
 30
0.0
  0
VERTEX
  5
81
100
AcDbEntity
  8
0
370
     0
390
0
100
AcDbVertex
100
AcDb2dVertex
 10
7.923684
 20
0.577847
 30
0.0
  0
VERTEX
  5
82
100
AcDbEntity
  8
0
370
     0
390
0
100
AcDbVertex
100
AcDb2dVertex
 10
7.924381
 20
0.579533
 30
0.0
  0
VERTEX
  5
83
100
AcDbEntity
  8
0
370
     0
390
0
100
AcDbVertex
100
AcDb2dVertex
 10
7.92516
 20
0.581064
 30
0.0
  0
VERTEX
  5
84
100
AcDbEntity
  8
0
370
     0
390
0
100
AcDbVertex
100
AcDb2dVertex
 10
7.926023
 20
0.582444
 30
0.0
  0
VERTEX
  5
85
100
AcDbEntity
  8
0
370
     0
390
0
100
AcDbVertex
100
AcDb2dVertex
 10
7.926968
 20
0.58367
 30
0.0
  0
VERTEX
  5
86
100
AcDbEntity
  8
0
370
     0
390
0
100
AcDbVertex
100
AcDb2dVertex
 10
7.929138
 20
0.585687
 30
0.0
  0
VERTEX
  5
87
100
AcDbEntity
  8
0
370
     0
390
0
100
AcDbVertex
100
AcDb2dVertex
 10
7.930418
 20
0.586532
 30
0.0
  0
VERTEX
  5
88
100
AcDbEntity
  8
0
370
     0
390
0
100
AcDbVertex
100
AcDb2dVertex
 10
7.931839
 20
0.587279
 30
0.0
  0
VERTEX
  5
89
100
AcDbEntity
  8
0
370
     0
390
0
100
AcDbVertex
100
AcDb2dVertex
 10
7.933397
 20
0.587925
 30
0.0
  0
VERTEX
  5
8A
100
AcDbEntity
  8
0
370
     0
390
0
100
AcDbVertex
100
AcDb2dVertex
 10
7.935095
 20
0.588473
 30
0.0
  0
VERTEX
  5
8B
100
AcDbEntity
  8
0
370
     0
390
0
100
AcDbVertex
100
AcDb2dVertex
 10
7.936934
 20
0.588921
 30
0.0
  0
VERTEX
  5
8C
100
AcDbEntity
  8
0
370
     0
390
0
100
AcDbVertex
100
AcDb2dVertex
 10
7.938912
 20
0.589269
 30
0.0
  0
VERTEX
  5
8D
100
AcDbEntity
  8
0
370
     0
390
0
100
AcDbVertex
100
AcDb2dVertex
 10
7.941029
 20
0.589518
 30
0.0
  0
VERTEX
  5
8E
100
AcDbEntity
  8
0
370
     0
390
0
100
AcDbVertex
100
AcDb2dVertex
 10
7.943286
 20
0.589667
 30
0.0
  0
VERTEX
  5
8F
100
AcDbEntity
  8
0
370
     0
390
0
100
AcDbVertex
100
AcDb2dVertex
 10
7.945682
 20
0.589716
 30
0.0
  0
VERTEX
  5
90
100
AcDbEntity
  8
0
370
     0
390
0
100
AcDbVertex
100
AcDb2dVertex
 10
7.952171
 20
0.589608
 30
0.0
  0
VERTEX
  5
91
100
AcDbEntity
  8
0
370
     0
390
0
100
AcDbVertex
100
AcDb2dVertex
 10
7.953361
 20
0.594908
 30
0.0
  0
VERTEX
  5
92
100
AcDbEntity
  8
0
370
     0
390
0
100
AcDbVertex
100
AcDb2dVertex
 10
7.951177
 20
0.595142
 30
0.0
  0
VERTEX
  5
93
100
AcDbEntity
  8
0
370
     0
390
0
100
AcDbVertex
100
AcDb2dVertex
 10
7.949034
 20
0.595323
 30
0.0
  0
VERTEX
  5
94
100
AcDbEntity
  8
0
370
     0
390
0
100
AcDbVertex
100
AcDb2dVertex
 10
7.946936
 20
0.595454
 30
0.0
  0
VERTEX
  5
95
100
AcDbEntity
  8
0
370
     0
390
0
100
AcDbVertex
100
AcDb2dVertex
 10
7.944881
 20
0.595532
 30
0.0
  0
VERTEX
  5
96
100
AcDbEntity
  8
0
370
     0
390
0
100
AcDbVertex
100
AcDb2dVertex
 10
7.94287
 20
0.595557
 30
0.0
  0
VERTEX
  5
97
100
AcDbEntity
  8
0
370
     0
390
0
100
AcDbVertex
100
AcDb2dVertex
 10
7.940158
 20
0.5955
 30
0.0
  0
VERTEX
  5
98
100
AcDbEntity
  8
0
370
     0
390
0
100
AcDbVertex
100
AcDb2dVertex
 10
7.9376
 20
0.595331
 30
0.0
  0
VERTEX
  5
99
100
AcDbEntity
  8
0
370
     0
390
0
100
AcDbVertex
100
AcDb2dVertex
 10
7.9352
 20
0.595046
 30
0.0
  0
VERTEX
  5
9A
100
AcDbEntity
  8
0
370
     0
390
0
100
AcDbVertex
100
AcDb2dVertex
 10
7.932953
 20
0.594648
 30
0.0
  0
VERTEX
  5
9B
100
AcDbEntity
  8
0
370
     0
390
0
100
AcDbVertex
100
AcDb2dVertex
 10
7.930864
 20
0.594138
 30
0.0
  0
VERTEX
  5
9C
100
AcDbEntity
  8
0
370
     0
390
0
100
AcDbVertex
100
AcDb2dVertex
 10
7.92893
 20
0.593513
 30
0.0
  0
VERTEX
  5
9D
100
AcDbEntity
  8
0
370
     0
390
0
100
AcDbVertex
100
AcDb2dVertex
 10
7.927152
 20
0.592775
 30
0.0
  0
VERTEX
  5
9E
100
AcDbEntity
  8
0
370
     0
390
0
100
AcDbVertex
100
AcDb2dVertex
 10
7.92553
 20
0.591923
 30
0.0
  0
VERTEX
  5
9F
100
AcDbEntity
  8
0
370
     0
390
0
100
AcDbVertex
100
AcDb2dVertex
 10
7.924063
 20
0.590958
 30
0.0
  0
VERTEX
  5
A0
100
AcDbEntity
  8
0
370
     0
390
0
100
AcDbVertex
100
AcDb2dVertex
 10
7.922751
 20
0.58988
 30
0.0
  0
VERTEX
  5
A1
100
AcDbEntity
  8
0
370
     0
390
0
100
AcDbVertex
100
AcDb2dVertex
 10
7.921574
 20
0.588665
 30
0.0
  0
VERTEX
  5
A2
100
AcDbEntity
  8
0
370
     0
390
0
100
AcDbVertex
100
AcDb2dVertex
 10
7.920506
 20
0.587294
 30
0.0
  0
VERTEX
  5
A3
100
AcDbEntity
  8
0
370
     0
390
0
100
AcDbVertex
100
AcDb2dVertex
 10
7.919549
 20
0.585767
 30
0.0
  0
VERTEX
  5
A4
100
AcDbEntity
  8
0
370
     0
390
0
100
AcDbVertex
100
AcDb2dVertex
 10
7.918703
 20
0.584081
 30
0.0
  0
VERTEX
  5
A5
100
AcDbEntity
  8
0
370
     0
390
0
100
AcDbVertex
100
AcDb2dVertex
 10
7.917966
 20
0.58224
 30
0.0
  0
VERTEX
  5
A6
100
AcDbEntity
  8
0
370
     0
390
0
100
AcDbVertex
100
AcDb2dVertex
 10
7.917339
 20
0.580242
 30
0.0
  0
VERTEX
  5
A7
100
AcDbEntity
  8
0
370
     0
390
0
100
AcDbVertex
100
AcDb2dVertex
 10
7.916824
 20
0.578087
 30
0.0
  0
VERTEX
  5
A8
100
AcDbEntity
  8
0
370
     0
390
0
100
AcDbVertex
100
AcDb2dVertex
 10
7.916418
 20
0.575775
 30
0.0
  0
VERTEX
  5
A9
100
AcDbEntity
  8
0
370
     0
390
0
100
AcDbVertex
100
AcDb2dVertex
 10
7.916123
 20
0.573306
 30
0.0
  0
VERTEX
  5
AA
100
AcDbEntity
  8
0
370
     0
390
0
100
AcDbVertex
100
AcDb2dVertex
 10
7.915938
 20
0.570681
 30
0.0
  0
VERTEX
  5
AB
100
AcDbEntity
  8
0
370
     0
390
0
100
AcDbVertex
100
AcDb2dVertex
 10
7.913659
 20
0.573722
 30
0.0
  0
VERTEX
  5
AC
100
AcDbEntity
  8
0
370
     0
390
0
100
AcDbVertex
100
AcDb2dVertex
 10
7.912577
 20
0.576833
 30
0.0
  0
VERTEX
  5
AD
100
AcDbEntity
  8
0
370
     0
390
0
100
AcDbVertex
100
AcDb2dVertex
 10
7.911392
 20
0.580013
 30
0.0
  0
VERTEX
  5
AE
100
AcDbEntity
  8
0
370
     0
390
0
100
AcDbVertex
100
AcDb2dVertex
 10
7.910106
 20
0.583262
 30
0.0
  0
VERTEX
  5
AF
100
AcDbEntity
  8
0
370
     0
390
0
100
AcDbVertex
100
AcDb2dVertex
 10
7.908719
 20
0.58658
 30
0.0
  0
VERTEX
  5
B0
100
AcDbEntity
  8
0
370
     0
390
0
100
AcDbVertex
100
AcDb2dVertex
 10
7.907229
 20
0.589967
 30
0.0
  0
VERTEX
  5
B1
100
AcDbEntity
  8
0
370
     0
390
0
100
AcDbVertex
100
AcDb2dVertex
 10
7.905638
 20
0.593424
 30
0.0
  0
VERTEX
  5
B2
100
AcDbEntity
  8
0
370
     0
390
0
100
AcDbVertex
100
AcDb2dVertex
 10
7.903945
 20
0.596951
 30
0.0
  0
VERTEX
  5
B3
100
AcDbEntity
  8
0
370
     0
390
0
100
AcDbVertex
100
AcDb2dVertex
 10
7.902151
 20
0.600546
 30
0.0
  0
VERTEX
  5
B4
100
AcDbEntity
  8
0
370
     0
390
0
100
AcDbVertex
100
AcDb2dVertex
 10
7.900255
 20
0.604209
 30
0.0
  0
SEQEND
  5
B5
100
AcDbEntity
  8
0
370
     0
390
0
  0
POLYLINE
  5
B6
100
AcDbEntity
  8
0
370
    13
390
0
 62
     7
 48
0.03937
100
AcDb2dPolyline
 66
     1
 10
0.0
 20
0.0
 30
0.0
 70
     1
 71
    22
  0
VERTEX
  5
B7
100
AcDbEntity
  8
0
370
     0
390
0
100
AcDbVertex
100
AcDb2dVertex
 10
8.036644
 20
0.598478
 30
0.0
  0
VERTEX
  5
B8
100
AcDbEntity
  8
0
370
     0
390
0
100
AcDbVertex
100
AcDb2dVertex
 10
8.035144
 20
0.596448
 30
0.0
  0
VERTEX
  5
B9
100
AcDbEntity
  8
0
370
     0
390
0
100
AcDbVertex
100
AcDb2dVertex
 10
8.033629
 20
0.594168
 30
0.0
  0
VERTEX
  5
BA
100
AcDbEntity
  8
0
370
     0
390
0
100
AcDbVertex
100
AcDb2dVertex
 10
8.032099
 20
0.591638
 30
0.0
  0
VERTEX
  5
BB
100
AcDbEntity
  8
0
370
     0
390
0
100
AcDbVertex
100
AcDb2dVertex
 10
8.030552
 20
0.588855
 30
0.0
  0
VERTEX
  5
BC
100
AcDbEntity
  8
0
370
     0
390
0
100
AcDbVertex
100
AcDb2dVertex
 10
8.028992
 20
0.585822
 30
0.0
  0
VERTEX
  5
BD
100
AcDbEntity
  8
0
370
     0
390
0
100
AcDbVertex
100
AcDb2dVertex
 10
8.027416
 20
0.582539
 30
0.0
  0
VERTEX
  5
BE
100
AcDbEntity
  8
0
370
     0
390
0
100
AcDbVertex
100
AcDb2dVertex
 10
8.025824
 20
0.579005
 30
0.0
  0
VERTEX
  5
BF
100
AcDbEntity
  8
0
370
     0
390
0
100
AcDbVertex
100
AcDb2dVertex
 10
8.024219
 20
0.575219
 30
0.0
  0
VERTEX
  5
C0
100
AcDbEntity
  8
0
370
     0
390
0
100
AcDbVertex
100
AcDb2dVertex
 10
8.022597
 20
0.571182
 30
0.0
  0
VERTEX
  5
C1
100
AcDbEntity
  8
0
370
     0
390
0
100
AcDbVertex
100
AcDb2dVertex
 10
8.020961
 20
0.566895
 30
0.0
  0
VERTEX
  5
C2
100
AcDbEntity
  8
0
370
     0
390
0
100
AcDbVertex
100
AcDb2dVertex
 10
8.018149
 20
0.567869
 30
0.0
  0
VERTEX
  5
C3
100
AcDbEntity
  8
0
370
     0
390
0
100
AcDbVertex
100
AcDb2dVertex
 10
8.020069
 20
0.573183
 30
0.0
  0
VERTEX
  5
C4
100
AcDbEntity
  8
0
370
     0
390
0
100
AcDbVertex
100
AcDb2dVertex
 10
8.021652
 20
0.577253
 30
0.0
  0
VERTEX
  5
C5
100
AcDbEntity
  8
0
370
     0
390
0
100
AcDbVertex
100
AcDb2dVertex
 10
8.023227
 20
0.581049
 30
0.0
  0
VERTEX
  5
C6
100
AcDbEntity
  8
0
370
     0
390
0
100
AcDbVertex
100
AcDb2dVertex
 10
8.024791
 20
0.584573
 30
0.0
  0
VERTEX
  5
C7
100
AcDbEntity
  8
0
370
     0
390
0
100
AcDbVertex
100
AcDb2dVertex
 10
8.026342
 20
0.587825
 30
0.0
  0
VERTEX
  5
C8
100
AcDbEntity
  8
0
370
     0
390
0
100
AcDbVertex
100
AcDb2dVertex
 10
8.027884
 20
0.590802
 30
0.0
  0
VERTEX
  5
C9
100
AcDbEntity
  8
0
370
     0
390
0
100
AcDbVertex
100
AcDb2dVertex
 10
8.029413
 20
0.593508
 30
0.0
  0
VERTEX
  5
CA
100
AcDbEntity
  8
0
370
     0
390
0
100
AcDbVertex
100
AcDb2dVertex
 10
8.030933
 20
0.595943
 30
0.0
  0
VERTEX
  5
CB
100
AcDbEntity
  8
0
370
     0
390
0
100
AcDbVertex
100
AcDb2dVertex
 10
8.032442
 20
0.598104
 30
0.0
  0
VERTEX
  5
CC
100
AcDbEntity
  8
0
370
     0
390
0
100
AcDbVertex
100
AcDb2dVertex
 10
8.03394
 20
0.599991
 30
0.0
  0
SEQEND
  5
CD
100
AcDbEntity
  8
0
370
     0
390
0
  0
POLYLINE
  5
CE
100
AcDbEntity
  8
0
370
    13
390
0
 62
     7
 48
0.03937
100
AcDb2dPolyline
 66
     1
 10
0.0
 20
0.0
 30
0.0
 70
     1
 71
    34
  0
VERTEX
  5
CF
100
AcDbEntity
  8
0
370
     0
390
0
100
AcDbVertex
100
AcDb2dVertex
 10
8.007766
 20
0.581604
 30
0.0
  0
VERTEX
  5
D0
100
AcDbEntity
  8
0
370
     0
390
0
100
AcDbVertex
100
AcDb2dVertex
 10
8.006072
 20
0.582632
 30
0.0
  0
VERTEX
  5
D1
100
AcDbEntity
  8
0
370
     0
390
0
100
AcDbVertex
100
AcDb2dVertex
 10
8.004322
 20
0.583551
 30
0.0
  0
VERTEX
  5
D2
100
AcDbEntity
  8
0
370
     0
390
0
100
AcDbVertex
100
AcDb2dVertex
 10
8.002516
 20
0.584363
 30
0.0
  0
VERTEX
  5
D3
100
AcDbEntity
  8
0
370
     0
390
0
100
AcDbVertex
100
AcDb2dVertex
 10
8.000652
 20
0.585066
 30
0.0
  0
VERTEX
  5
D4
100
AcDbEntity
  8
0
370
     0
390
0
100
AcDbVertex
100
AcDb2dVertex
 10
7.998734
 20
0.58566
 30
0.0
  0
VERTEX
  5
D5
100
AcDbEntity
  8
0
370
     0
390
0
100
AcDbVertex
100
AcDb2dVertex
 10
7.996758
 20
0.586148
 30
0.0
  0
VERTEX
  5
D6
100
AcDbEntity
  8
0
370
     0
390
0
100
AcDbVertex
100
AcDb2dVertex
 10
7.994728
 20
0.586526
 30
0.0
  0
VERTEX
  5
D7
100
AcDbEntity
  8
0
370
     0
390
0
100
AcDbVertex
100
AcDb2dVertex
 10
7.992641
 20
0.586796
 30
0.0
  0
VERTEX
  5
D8
100
AcDbEntity
  8
0
370
     0
390
0
100
AcDbVertex
100
AcDb2dVertex
 10
7.990496
 20
0.586959
 30
0.0
  0
VERTEX
  5
D9
100
AcDbEntity
  8
0
370
     0
390
0
100
AcDbVertex
100
AcDb2dVertex
 10
7.988297
 20
0.587013
 30
0.0
  0
VERTEX
  5
DA
100
AcDbEntity
  8
0
370
     0
390
0
100
AcDbVertex
100
AcDb2dVertex
 10
7.986785
 20
0.586983
 30
0.0
  0
VERTEX
  5
DB
100
AcDbEntity
  8
0
370
     0
390
0
100
AcDbVertex
100
AcDb2dVertex
 10
7.985234
 20
0.586896
 30
0.0
  0
VERTEX
  5
DC
100
AcDbEntity
  8
0
370
     0
390
0
100
AcDbVertex
100
AcDb2dVertex
 10
7.983644
 20
0.586751
 30
0.0
  0
VERTEX
  5
DD
100
AcDbEntity
  8
0
370
     0
390
0
100
AcDbVertex
100
AcDb2dVertex
 10
7.983538
 20
0.477987
 30
0.0
  0
VERTEX
  5
DE
100
AcDbEntity
  8
0
370
     0
390
0
100
AcDbVertex
100
AcDb2dVertex
 10
8.000735
 20
0.457653
 30
0.0
  0
VERTEX
  5
DF
100
AcDbEntity
  8
0
370
     0
390
0
100
AcDbVertex
100
AcDb2dVertex
 10
7.945466
 20
0.457653
 30
0.0
  0
VERTEX
  5
E0
100
AcDbEntity
  8
0
370
     0
390
0
100
AcDbVertex
100
AcDb2dVertex
 10
7.942978
 20
0.460574
 30
0.0
  0
VERTEX
  5
E1
100
AcDbEntity
  8
0
370
     0
390
0
100
AcDbVertex
100
AcDb2dVertex
 10
7.994786
 20
0.460574
 30
0.0
  0
VERTEX
  5
E2
100
AcDbEntity
  8
0
370
     0
390
0
100
AcDbVertex
100
AcDb2dVertex
 10
7.980293
 20
0.477123
 30
0.0
  0
VERTEX
  5
E3
100
AcDbEntity
  8
0
370
     0
390
0
100
AcDbVertex
100
AcDb2dVertex
 10
7.980293
 20
0.589826
 30
0.0
  0
VERTEX
  5
E4
100
AcDbEntity
  8
0
370
     0
390
0
100
AcDbVertex
100
AcDb2dVertex
 10
7.986134
 20
0.589934
 30
0.0
  0
VERTEX
  5
E5
100
AcDbEntity
  8
0
370
     0
390
0
100
AcDbVertex
100
AcDb2dVertex
 10
7.988171
 20
0.589916
 30
0.0
  0
VERTEX
  5
E6
100
AcDbEntity
  8
0
370
     0
390
0
100
AcDbVertex
100
AcDb2dVertex
 10
7.990086
 20
0.589866
 30
0.0
  0
VERTEX
  5
E7
100
AcDbEntity
  8
0
370
     0
390
0
100
AcDbVertex
100
AcDb2dVertex
 10
7.991879
 20
0.589782
 30
0.0
  0
VERTEX
  5
E8
100
AcDbEntity
  8
0
370
     0
390
0
100
AcDbVertex
100
AcDb2dVertex
 10
7.993549
 20
0.589665
 30
0.0
  0
VERTEX
  5
E9
100
AcDbEntity
  8
0
370
     0
390
0
100
AcDbVertex
100
AcDb2dVertex
 10
7.995098
 20
0.589514
 30
0.0
  0
VERTEX
  5
EA
100
AcDbEntity
  8
0
370
     0
390
0
100
AcDbVertex
100
AcDb2dVertex
 10
7.997828
 20
0.589112
 30
0.0
  0
VERTEX
  5
EB
100
AcDbEntity
  8
0
370
     0
390
0
100
AcDbVertex
100
AcDb2dVertex
 10
8.000069
 20
0.588575
 30
0.0
  0
VERTEX
  5
EC
100
AcDbEntity
  8
0
370
     0
390
0
100
AcDbVertex
100
AcDb2dVertex
 10
8.001862
 20
0.587888
 30
0.0
  0
VERTEX
  5
ED
100
AcDbEntity
  8
0
370
     0
390
0
100
AcDbVertex
100
AcDb2dVertex
 10
8.003455
 20
0.586953
 30
0.0
  0
VERTEX
  5
EE
100
AcDbEntity
  8
0
370
     0
390
0
100
AcDbVertex
100
AcDb2dVertex
 10
8.004886
 20
0.585755
 30
0.0
  0
VERTEX
  5
EF
100
AcDbEntity
  8
0
370
     0
390
0
100
AcDbVertex
100
AcDb2dVertex
 10
8.006157
 20
0.584294
 30
0.0
  0
VERTEX
  5
F0
100
AcDbEntity
  8
0
370
     0
390
0
100
AcDbVertex
100
AcDb2dVertex
 10
8.007269
 20
0.582567
 30
0.0
  0
SEQEND
  5
F1
100
AcDbEntity
  8
0
370
     0
390
0
  0
POLYLINE
  5
F2
100
AcDbEntity
  8
0
370
    13
390
0
 62
     7
 48
0.03937
100
AcDb2dPolyline
 66
     1
 10
0.0
 20
0.0
 30
0.0
 70
     1
 71
   138
  0
VERTEX
  5
F3
100
AcDbEntity
  8
0
370
     0
390
0
100
AcDbVertex
100
AcDb2dVertex
 10
8.03978
 20
0.605292
 30
0.0
  0
VERTEX
  5
F4
100
AcDbEntity
  8
0
370
     0
390
0
100
AcDbVertex
100
AcDb2dVertex
 10
8.152051
 20
0.605292
 30
0.0
  0
VERTEX
  5
F5
100
AcDbEntity
  8
0
370
     0
390
0
100
AcDbVertex
100
AcDb2dVertex
 10
8.150747
 20
0.603555
 30
0.0
  0
VERTEX
  5
F6
100
AcDbEntity
  8
0
370
     0
390
0
100
AcDbVertex
100
AcDb2dVertex
 10
8.149522
 20
0.601895
 30
0.0
  0
VERTEX
  5
F7
100
AcDbEntity
  8
0
370
     0
390
0
100
AcDbVertex
100
AcDb2dVertex
 10
8.148372
 20
0.600311
 30
0.0
  0
VERTEX
  5
F8
100
AcDbEntity
  8
0
370
     0
390
0
100
AcDbVertex
100
AcDb2dVertex
 10
8.1473
 20
0.598802
 30
0.0
  0
VERTEX
  5
F9
100
AcDbEntity
  8
0
370
     0
390
0
100
AcDbVertex
100
AcDb2dVertex
 10
8.146304
 20
0.597369
 30
0.0
  0
VERTEX
  5
FA
100
AcDbEntity
  8
0
370
     0
390
0
100
AcDbVertex
100
AcDb2dVertex
 10
8.145386
 20
0.596012
 30
0.0
  0
VERTEX
  5
FB
100
AcDbEntity
  8
0
370
     0
390
0
100
AcDbVertex
100
AcDb2dVertex
 10
8.144543
 20
0.594729
 30
0.0
  0
VERTEX
  5
FC
100
AcDbEntity
  8
0
370
     0
390
0
100
AcDbVertex
100
AcDb2dVertex
 10
8.143089
 20
0.592394
 30
0.0
  0
VERTEX
  5
FD
100
AcDbEntity
  8
0
370
     0
390
0
100
AcDbVertex
100
AcDb2dVertex
 10
8.14189
 20
0.590261
 30
0.0
  0
VERTEX
  5
FE
100
AcDbEntity
  8
0
370
     0
390
0
100
AcDbVertex
100
AcDb2dVertex
 10
8.140617
 20
0.587735
 30
0.0
  0
VERTEX
  5
FF
100
AcDbEntity
  8
0
370
     0
390
0
100
AcDbVertex
100
AcDb2dVertex
 10
8.139935
 20
0.586286
 30
0.0
  0
VERTEX
  5
100
100
AcDbEntity
  8
0
370
     0
390
0
100
AcDbVertex
100
AcDb2dVertex
 10
8.13922
 20
0.584714
 30
0.0
  0
VERTEX
  5
101
100
AcDbEntity
  8
0
370
     0
390
0
100
AcDbVertex
100
AcDb2dVertex
 10
8.138474
 20
0.583019
 30
0.0
  0
VERTEX
  5
102
100
AcDbEntity
  8
0
370
     0
390
0
100
AcDbVertex
100
AcDb2dVertex
 10
8.137697
 20
0.581201
 30
0.0
  0
VERTEX
  5
103
100
AcDbEntity
  8
0
370
     0
390
0
100
AcDbVertex
100
AcDb2dVertex
 10
8.136889
 20
0.57926
 30
0.0
  0
VERTEX
  5
104
100
AcDbEntity
  8
0
370
     0
390
0
100
AcDbVertex
100
AcDb2dVertex
 10
8.136049
 20
0.577196
 30
0.0
  0
VERTEX
  5
105
100
AcDbEntity
  8
0
370
     0
390
0
100
AcDbVertex
100
AcDb2dVertex
 10
8.135177
 20
0.575007
 30
0.0
  0
VERTEX
  5
106
100
AcDbEntity
  8
0
370
     0
390
0
100
AcDbVertex
100
AcDb2dVertex
 10
8.134311
 20
0.572844
 30
0.0
  0
VERTEX
  5
107
100
AcDbEntity
  8
0
370
     0
390
0
100
AcDbVertex
100
AcDb2dVertex
 10
8.132887
 20
0.575682
 30
0.0
  0
VERTEX
  5
108
100
AcDbEntity
  8
0
370
     0
390
0
100
AcDbVertex
100
AcDb2dVertex
 10
8.131463
 20
0.578313
 30
0.0
  0
VERTEX
  5
109
100
AcDbEntity
  8
0
370
     0
390
0
100
AcDbVertex
100
AcDb2dVertex
 10
8.130044
 20
0.580736
 30
0.0
  0
VERTEX
  5
10A
100
AcDbEntity
  8
0
370
     0
390
0
100
AcDbVertex
100
AcDb2dVertex
 10
8.128628
 20
0.582951
 30
0.0
  0
VERTEX
  5
10B
100
AcDbEntity
  8
0
370
     0
390
0
100
AcDbVertex
100
AcDb2dVertex
 10
8.127215
 20
0.584958
 30
0.0
  0
VERTEX
  5
10C
100
AcDbEntity
  8
0
370
     0
390
0
100
AcDbVertex
100
AcDb2dVertex
 10
8.125804
 20
0.586758
 30
0.0
  0
VERTEX
  5
10D
100
AcDbEntity
  8
0
370
     0
390
0
100
AcDbVertex
100
AcDb2dVertex
 10
8.124398
 20
0.58835
 30
0.0
  0
VERTEX
  5
10E
100
AcDbEntity
  8
0
370
     0
390
0
100
AcDbVertex
100
AcDb2dVertex
 10
8.122994
 20
0.589734
 30
0.0
  0
VERTEX
  5
10F
100
AcDbEntity
  8
0
370
     0
390
0
100
AcDbVertex
100
AcDb2dVertex
 10
8.121594
 20
0.59091
 30
0.0
  0
VERTEX
  5
110
100
AcDbEntity
  8
0
370
     0
390
0
100
AcDbVertex
100
AcDb2dVertex
 10
8.120198
 20
0.591881
 30
0.0
  0
VERTEX
  5
111
100
AcDbEntity
  8
0
370
     0
390
0
100
AcDbVertex
100
AcDb2dVertex
 10
8.118707
 20
0.592701
 30
0.0
  0
VERTEX
  5
112
100
AcDbEntity
  8
0
370
     0
390
0
100
AcDbVertex
100
AcDb2dVertex
 10
8.117024
 20
0.593438
 30
0.0
  0
VERTEX
  5
113
100
AcDbEntity
  8
0
370
     0
390
0
100
AcDbVertex
100
AcDb2dVertex
 10
8.11515
 20
0.594086
 30
0.0
  0
VERTEX
  5
114
100
AcDbEntity
  8
0
370
     0
390
0
100
AcDbVertex
100
AcDb2dVertex
 10
8.113085
 20
0.594648
 30
0.0
  0
VERTEX
  5
115
100
AcDbEntity
  8
0
370
     0
390
0
100
AcDbVertex
100
AcDb2dVertex
 10
8.110827
 20
0.595125
 30
0.0
  0
VERTEX
  5
116
100
AcDbEntity
  8
0
370
     0
390
0
100
AcDbVertex
100
AcDb2dVertex
 10
8.108379
 20
0.595514
 30
0.0
  0
VERTEX
  5
117
100
AcDbEntity
  8
0
370
     0
390
0
100
AcDbVertex
100
AcDb2dVertex
 10
8.10574
 20
0.595817
 30
0.0
  0
VERTEX
  5
118
100
AcDbEntity
  8
0
370
     0
390
0
100
AcDbVertex
100
AcDb2dVertex
 10
8.102909
 20
0.596033
 30
0.0
  0
VERTEX
  5
119
100
AcDbEntity
  8
0
370
     0
390
0
100
AcDbVertex
100
AcDb2dVertex
 10
8.099887
 20
0.596163
 30
0.0
  0
VERTEX
  5
11A
100
AcDbEntity
  8
0
370
     0
390
0
100
AcDbVertex
100
AcDb2dVertex
 10
8.096672
 20
0.596207
 30
0.0
  0
VERTEX
  5
11B
100
AcDbEntity
  8
0
370
     0
390
0
100
AcDbVertex
100
AcDb2dVertex
 10
8.090507
 20
0.596099
 30
0.0
  0
VERTEX
  5
11C
100
AcDbEntity
  8
0
370
     0
390
0
100
AcDbVertex
100
AcDb2dVertex
 10
8.080016
 20
0.596207
 30
0.0
  0
VERTEX
  5
11D
100
AcDbEntity
  8
0
370
     0
390
0
100
AcDbVertex
100
AcDb2dVertex
 10
8.076014
 20
0.596315
 30
0.0
  0
VERTEX
  5
11E
100
AcDbEntity
  8
0
370
     0
390
0
100
AcDbVertex
100
AcDb2dVertex
 10
8.076014
 20
0.545696
 30
0.0
  0
VERTEX
  5
11F
100
AcDbEntity
  8
0
370
     0
390
0
100
AcDbVertex
100
AcDb2dVertex
 10
8.082612
 20
0.545696
 30
0.0
  0
VERTEX
  5
120
100
AcDbEntity
  8
0
370
     0
390
0
100
AcDbVertex
100
AcDb2dVertex
 10
8.082612
 20
0.590366
 30
0.0
  0
VERTEX
  5
121
100
AcDbEntity
  8
0
370
     0
390
0
100
AcDbVertex
100
AcDb2dVertex
 10
8.085749
 20
0.590474
 30
0.0
  0
VERTEX
  5
122
100
AcDbEntity
  8
0
370
     0
390
0
100
AcDbVertex
100
AcDb2dVertex
 10
8.088465
 20
0.590591
 30
0.0
  0
VERTEX
  5
123
100
AcDbEntity
  8
0
370
     0
390
0
100
AcDbVertex
100
AcDb2dVertex
 10
8.091251
 20
0.590682
 30
0.0
  0
VERTEX
  5
124
100
AcDbEntity
  8
0
370
     0
390
0
100
AcDbVertex
100
AcDb2dVertex
 10
8.094107
 20
0.590747
 30
0.0
  0
VERTEX
  5
125
100
AcDbEntity
  8
0
370
     0
390
0
100
AcDbVertex
100
AcDb2dVertex
 10
8.097032
 20
0.590786
 30
0.0
  0
VERTEX
  5
126
100
AcDbEntity
  8
0
370
     0
390
0
100
AcDbVertex
100
AcDb2dVertex
 10
8.100026
 20
0.590798
 30
0.0
  0
VERTEX
  5
127
100
AcDbEntity
  8
0
370
     0
390
0
100
AcDbVertex
100
AcDb2dVertex
 10
8.104273
 20
0.590684
 30
0.0
  0
VERTEX
  5
128
100
AcDbEntity
  8
0
370
     0
390
0
100
AcDbVertex
100
AcDb2dVertex
 10
8.108189
 20
0.59034
 30
0.0
  0
VERTEX
  5
129
100
AcDbEntity
  8
0
370
     0
390
0
100
AcDbVertex
100
AcDb2dVertex
 10
8.111775
 20
0.589767
 30
0.0
  0
VERTEX
  5
12A
100
AcDbEntity
  8
0
370
     0
390
0
100
AcDbVertex
100
AcDb2dVertex
 10
8.115029
 20
0.588965
 30
0.0
  0
VERTEX
  5
12B
100
AcDbEntity
  8
0
370
     0
390
0
100
AcDbVertex
100
AcDb2dVertex
 10
8.117954
 20
0.587933
 30
0.0
  0
VERTEX
  5
12C
100
AcDbEntity
  8
0
370
     0
390
0
100
AcDbVertex
100
AcDb2dVertex
 10
8.120546
 20
0.586671
 30
0.0
  0
VERTEX
  5
12D
100
AcDbEntity
  8
0
370
     0
390
0
100
AcDbVertex
100
AcDb2dVertex
 10
8.122807
 20
0.58518
 30
0.0
  0
VERTEX
  5
12E
100
AcDbEntity
  8
0
370
     0
390
0
100
AcDbVertex
100
AcDb2dVertex
 10
8.124737
 20
0.583461
 30
0.0
  0
VERTEX
  5
12F
100
AcDbEntity
  8
0
370
     0
390
0
100
AcDbVertex
100
AcDb2dVertex
 10
8.126338
 20
0.581511
 30
0.0
  0
VERTEX
  5
130
100
AcDbEntity
  8
0
370
     0
390
0
100
AcDbVertex
100
AcDb2dVertex
 10
8.127607
 20
0.579333
 30
0.0
  0
VERTEX
  5
131
100
AcDbEntity
  8
0
370
     0
390
0
100
AcDbVertex
100
AcDb2dVertex
 10
8.125449
 20
0.581235
 30
0.0
  0
VERTEX
  5
132
100
AcDbEntity
  8
0
370
     0
390
0
100
AcDbVertex
100
AcDb2dVertex
 10
8.123219
 20
0.582873
 30
0.0
  0
VERTEX
  5
133
100
AcDbEntity
  8
0
370
     0
390
0
100
AcDbVertex
100
AcDb2dVertex
 10
8.120915
 20
0.584246
 30
0.0
  0
VERTEX
  5
134
100
AcDbEntity
  8
0
370
     0
390
0
100
AcDbVertex
100
AcDb2dVertex
 10
8.118538
 20
0.585356
 30
0.0
  0
VERTEX
  5
135
100
AcDbEntity
  8
0
370
     0
390
0
100
AcDbVertex
100
AcDb2dVertex
 10
8.116087
 20
0.586202
 30
0.0
  0
VERTEX
  5
136
100
AcDbEntity
  8
0
370
     0
390
0
100
AcDbVertex
100
AcDb2dVertex
 10
8.113329
 20
0.586844
 30
0.0
  0
VERTEX
  5
137
100
AcDbEntity
  8
0
370
     0
390
0
100
AcDbVertex
100
AcDb2dVertex
 10
8.111747
 20
0.587112
 30
0.0
  0
VERTEX
  5
138
100
AcDbEntity
  8
0
370
     0
390
0
100
AcDbVertex
100
AcDb2dVertex
 10
8.110031
 20
0.587343
 30
0.0
  0
VERTEX
  5
139
100
AcDbEntity
  8
0
370
     0
390
0
100
AcDbVertex
100
AcDb2dVertex
 10
8.108179
 20
0.58754
 30
0.0
  0
VERTEX
  5
13A
100
AcDbEntity
  8
0
370
     0
390
0
100
AcDbVertex
100
AcDb2dVertex
 10
8.106191
 20
0.5877
 30
0.0
  0
VERTEX
  5
13B
100
AcDbEntity
  8
0
370
     0
390
0
100
AcDbVertex
100
AcDb2dVertex
 10
8.104068
 20
0.587826
 30
0.0
  0
VERTEX
  5
13C
100
AcDbEntity
  8
0
370
     0
390
0
100
AcDbVertex
100
AcDb2dVertex
 10
8.101811
 20
0.587915
 30
0.0
  0
VERTEX
  5
13D
100
AcDbEntity
  8
0
370
     0
390
0
100
AcDbVertex
100
AcDb2dVertex
 10
8.099417
 20
0.587969
 30
0.0
  0
VERTEX
  5
13E
100
AcDbEntity
  8
0
370
     0
390
0
100
AcDbVertex
100
AcDb2dVertex
 10
8.09689
 20
0.587987
 30
0.0
  0
VERTEX
  5
13F
100
AcDbEntity
  8
0
370
     0
390
0
100
AcDbVertex
100
AcDb2dVertex
 10
8.094938
 20
0.587964
 30
0.0
  0
VERTEX
  5
140
100
AcDbEntity
  8
0
370
     0
390
0
100
AcDbVertex
100
AcDb2dVertex
 10
8.092805
 20
0.5879
 30
0.0
  0
VERTEX
  5
141
100
AcDbEntity
  8
0
370
     0
390
0
100
AcDbVertex
100
AcDb2dVertex
 10
8.090491
 20
0.587792
 30
0.0
  0
VERTEX
  5
142
100
AcDbEntity
  8
0
370
     0
390
0
100
AcDbVertex
100
AcDb2dVertex
 10
8.087994
 20
0.58764
 30
0.0
  0
VERTEX
  5
143
100
AcDbEntity
  8
0
370
     0
390
0
100
AcDbVertex
100
AcDb2dVertex
 10
8.085316
 20
0.587445
 30
0.0
  0
VERTEX
  5
144
100
AcDbEntity
  8
0
370
     0
390
0
100
AcDbVertex
100
AcDb2dVertex
 10
8.085316
 20
0.545696
 30
0.0
  0
VERTEX
  5
145
100
AcDbEntity
  8
0
370
     0
390
0
100
AcDbVertex
100
AcDb2dVertex
 10
8.101647
 20
0.545696
 30
0.0
  0
VERTEX
  5
146
100
AcDbEntity
  8
0
370
     0
390
0
100
AcDbVertex
100
AcDb2dVertex
 10
8.118953
 20
0.563975
 30
0.0
  0
VERTEX
  5
147
100
AcDbEntity
  8
0
370
     0
390
0
100
AcDbVertex
100
AcDb2dVertex
 10
8.118953
 20
0.518655
 30
0.0
  0
VERTEX
  5
148
100
AcDbEntity
  8
0
370
     0
390
0
100
AcDbVertex
100
AcDb2dVertex
 10
8.100782
 20
0.53661
 30
0.0
  0
VERTEX
  5
149
100
AcDbEntity
  8
0
370
     0
390
0
100
AcDbVertex
100
AcDb2dVertex
 10
8.076014
 20
0.53661
 30
0.0
  0
VERTEX
  5
14A
100
AcDbEntity
  8
0
370
     0
390
0
100
AcDbVertex
100
AcDb2dVertex
 10
8.076014
 20
0.482097
 30
0.0
  0
VERTEX
  5
14B
100
AcDbEntity
  8
0
370
     0
390
0
100
AcDbVertex
100
AcDb2dVertex
 10
8.089859
 20
0.468038
 30
0.0
  0
VERTEX
  5
14C
100
AcDbEntity
  8
0
370
     0
390
0
100
AcDbVertex
100
AcDb2dVertex
 10
8.036753
 20
0.468038
 30
0.0
  0
VERTEX
  5
14D
100
AcDbEntity
  8
0
370
     0
390
0
100
AcDbVertex
100
AcDb2dVertex
 10
8.054382
 20
0.482097
 30
0.0
  0
VERTEX
  5
14E
100
AcDbEntity
  8
0
370
     0
390
0
100
AcDbVertex
100
AcDb2dVertex
 10
8.054382
 20
0.528606
 30
0.0
  0
VERTEX
  5
14F
100
AcDbEntity
  8
0
370
     0
390
0
100
AcDbVertex
100
AcDb2dVertex
 10
8.052737
 20
0.528543
 30
0.0
  0
VERTEX
  5
150
100
AcDbEntity
  8
0
370
     0
390
0
100
AcDbVertex
100
AcDb2dVertex
 10
8.051134
 20
0.528356
 30
0.0
  0
VERTEX
  5
151
100
AcDbEntity
  8
0
370
     0
390
0
100
AcDbVertex
100
AcDb2dVertex
 10
8.049571
 20
0.528042
 30
0.0
  0
VERTEX
  5
152
100
AcDbEntity
  8
0
370
     0
390
0
100
AcDbVertex
100
AcDb2dVertex
 10
8.048048
 20
0.527603
 30
0.0
  0
VERTEX
  5
153
100
AcDbEntity
  8
0
370
     0
390
0
100
AcDbVertex
100
AcDb2dVertex
 10
8.046567
 20
0.527039
 30
0.0
  0
VERTEX
  5
154
100
AcDbEntity
  8
0
370
     0
390
0
100
AcDbVertex
100
AcDb2dVertex
 10
8.045129
 20
0.526349
 30
0.0
  0
VERTEX
  5
155
100
AcDbEntity
  8
0
370
     0
390
0
100
AcDbVertex
100
AcDb2dVertex
 10
8.04373
 20
0.525533
 30
0.0
  0
VERTEX
  5
156
100
AcDbEntity
  8
0
370
     0
390
0
100
AcDbVertex
100
AcDb2dVertex
 10
8.042372
 20
0.524592
 30
0.0
  0
VERTEX
  5
157
100
AcDbEntity
  8
0
370
     0
390
0
100
AcDbVertex
100
AcDb2dVertex
 10
8.041057
 20
0.523526
 30
0.0
  0
VERTEX
  5
158
100
AcDbEntity
  8
0
370
     0
390
0
100
AcDbVertex
100
AcDb2dVertex
 10
8.03978
 20
0.522333
 30
0.0
  0
VERTEX
  5
159
100
AcDbEntity
  8
0
370
     0
390
0
100
AcDbVertex
100
AcDb2dVertex
 10
8.037725
 20
0.524604
 30
0.0
  0
VERTEX
  5
15A
100
AcDbEntity
  8
0
370
     0
390
0
100
AcDbVertex
100
AcDb2dVertex
 10
8.039021
 20
0.52592
 30
0.0
  0
VERTEX
  5
15B
100
AcDbEntity
  8
0
370
     0
390
0
100
AcDbVertex
100
AcDb2dVertex
 10
8.0404
 20
0.527097
 30
0.0
  0
VERTEX
  5
15C
100
AcDbEntity
  8
0
370
     0
390
0
100
AcDbVertex
100
AcDb2dVertex
 10
8.041859
 20
0.528135
 30
0.0
  0
VERTEX
  5
15D
100
AcDbEntity
  8
0
370
     0
390
0
100
AcDbVertex
100
AcDb2dVertex
 10
8.043403
 20
0.529035
 30
0.0
  0
VERTEX
  5
15E
100
AcDbEntity
  8
0
370
     0
390
0
100
AcDbVertex
100
AcDb2dVertex
 10
8.045027
 20
0.529796
 30
0.0
  0
VERTEX
  5
15F
100
AcDbEntity
  8
0
370
     0
390
0
100
AcDbVertex
100
AcDb2dVertex
 10
8.046733
 20
0.53042
 30
0.0
  0
VERTEX
  5
160
100
AcDbEntity
  8
0
370
     0
390
0
100
AcDbVertex
100
AcDb2dVertex
 10
8.048522
 20
0.530904
 30
0.0
  0
VERTEX
  5
161
100
AcDbEntity
  8
0
370
     0
390
0
100
AcDbVertex
100
AcDb2dVertex
 10
8.050394
 20
0.531249
 30
0.0
  0
VERTEX
  5
162
100
AcDbEntity
  8
0
370
     0
390
0
100
AcDbVertex
100
AcDb2dVertex
 10
8.052347
 20
0.531458
 30
0.0
  0
VERTEX
  5
163
100
AcDbEntity
  8
0
370
     0
390
0
100
AcDbVertex
100
AcDb2dVertex
 10
8.054382
 20
0.531527
 30
0.0
  0
VERTEX
  5
164
100
AcDbEntity
  8
0
370
     0
390
0
100
AcDbVertex
100
AcDb2dVertex
 10
8.054382
 20
0.53661
 30
0.0
  0
VERTEX
  5
165
100
AcDbEntity
  8
0
370
     0
390
0
100
AcDbVertex
100
AcDb2dVertex
 10
8.052773
 20
0.536748
 30
0.0
  0
VERTEX
  5
166
100
AcDbEntity
  8
0
370
     0
390
0
100
AcDbVertex
100
AcDb2dVertex
 10
8.051138
 20
0.536826
 30
0.0
  0
VERTEX
  5
167
100
AcDbEntity
  8
0
370
     0
390
0
100
AcDbVertex
100
AcDb2dVertex
 10
8.049152
 20
0.536744
 30
0.0
  0
VERTEX
  5
168
100
AcDbEntity
  8
0
370
     0
390
0
100
AcDbVertex
100
AcDb2dVertex
 10
8.047222
 20
0.536498
 30
0.0
  0
VERTEX
  5
169
100
AcDbEntity
  8
0
370
     0
390
0
100
AcDbVertex
100
AcDb2dVertex
 10
8.045345
 20
0.536087
 30
0.0
  0
VERTEX
  5
16A
100
AcDbEntity
  8
0
370
     0
390
0
100
AcDbVertex
100
AcDb2dVertex
 10
8.043522
 20
0.535512
 30
0.0
  0
VERTEX
  5
16B
100
AcDbEntity
  8
0
370
     0
390
0
100
AcDbVertex
100
AcDb2dVertex
 10
8.041754
 20
0.534771
 30
0.0
  0
VERTEX
  5
16C
100
AcDbEntity
  8
0
370
     0
390
0
100
AcDbVertex
100
AcDb2dVertex
 10
8.04004
 20
0.533868
 30
0.0
  0
VERTEX
  5
16D
100
AcDbEntity
  8
0
370
     0
390
0
100
AcDbVertex
100
AcDb2dVertex
 10
8.038381
 20
0.532799
 30
0.0
  0
VERTEX
  5
16E
100
AcDbEntity
  8
0
370
     0
390
0
100
AcDbVertex
100
AcDb2dVertex
 10
8.036774
 20
0.531566
 30
0.0
  0
VERTEX
  5
16F
100
AcDbEntity
  8
0
370
     0
390
0
100
AcDbVertex
100
AcDb2dVertex
 10
8.035222
 20
0.530168
 30
0.0
  0
VERTEX
  5
170
100
AcDbEntity
  8
0
370
     0
390
0
100
AcDbVertex
100
AcDb2dVertex
 10
8.033725
 20
0.528606
 30
0.0
  0
VERTEX
  5
171
100
AcDbEntity
  8
0
370
     0
390
0
100
AcDbVertex
100
AcDb2dVertex
 10
8.032967
 20
0.530337
 30
0.0
  0
VERTEX
  5
172
100
AcDbEntity
  8
0
370
     0
390
0
100
AcDbVertex
100
AcDb2dVertex
 10
8.034058
 20
0.533022
 30
0.0
  0
VERTEX
  5
173
100
AcDbEntity
  8
0
370
     0
390
0
100
AcDbVertex
100
AcDb2dVertex
 10
8.03538
 20
0.535451
 30
0.0
  0
VERTEX
  5
174
100
AcDbEntity
  8
0
370
     0
390
0
100
AcDbVertex
100
AcDb2dVertex
 10
8.036938
 20
0.537626
 30
0.0
  0
VERTEX
  5
175
100
AcDbEntity
  8
0
370
     0
390
0
100
AcDbVertex
100
AcDb2dVertex
 10
8.03873
 20
0.539544
 30
0.0
  0
VERTEX
  5
176
100
AcDbEntity
  8
0
370
     0
390
0
100
AcDbVertex
100
AcDb2dVertex
 10
8.040755
 20
0.541208
 30
0.0
  0
VERTEX
  5
177
100
AcDbEntity
  8
0
370
     0
390
0
100
AcDbVertex
100
AcDb2dVertex
 10
8.043013
 20
0.542615
 30
0.0
  0
VERTEX
  5
178
100
AcDbEntity
  8
0
370
     0
390
0
100
AcDbVertex
100
AcDb2dVertex
 10
8.045504
 20
0.543768
 30
0.0
  0
VERTEX
  5
179
100
AcDbEntity
  8
0
370
     0
390
0
100
AcDbVertex
100
AcDb2dVertex
 10
8.048231
 20
0.544665
 30
0.0
  0
VERTEX
  5
17A
100
AcDbEntity
  8
0
370
     0
390
0
100
AcDbVertex
100
AcDb2dVertex
 10
8.051189
 20
0.545309
 30
0.0
  0
VERTEX
  5
17B
100
AcDbEntity
  8
0
370
     0
390
0
100
AcDbVertex
100
AcDb2dVertex
 10
8.054382
 20
0.545696
 30
0.0
  0
VERTEX
  5
17C
100
AcDbEntity
  8
0
370
     0
390
0
100
AcDbVertex
100
AcDb2dVertex
 10
8.054382
 20
0.591339
 30
0.0
  0
SEQEND
  5
17D
100
AcDbEntity
  8
0
370
     0
390
0
  0
POLYLINE
  5
17E
100
AcDbEntity
  8
0
370
    13
390
0
 62
     7
 48
0.03937
100
AcDb2dPolyline
 66
     1
 10
0.0
 20
0.0
 30
0.0
 70
     1
 71
    22
  0
VERTEX
  5
17F
100
AcDbEntity
  8
0
370
     0
390
0
100
AcDbVertex
100
AcDb2dVertex
 10
8.160271
 20
0.598694
 30
0.0
  0
VERTEX
  5
180
100
AcDbEntity
  8
0
370
     0
390
0
100
AcDbVertex
100
AcDb2dVertex
 10
8.157292
 20
0.595112
 30
0.0
  0
VERTEX
  5
181
100
AcDbEntity
  8
0
370
     0
390
0
100
AcDbVertex
100
AcDb2dVertex
 10
8.154542
 20
0.59159
 30
0.0
  0
VERTEX
  5
182
100
AcDbEntity
  8
0
370
     0
390
0
100
AcDbVertex
100
AcDb2dVertex
 10
8.152022
 20
0.588129
 30
0.0
  0
VERTEX
  5
183
100
AcDbEntity
  8
0
370
     0
390
0
100
AcDbVertex
100
AcDb2dVertex
 10
8.149732
 20
0.584729
 30
0.0
  0
VERTEX
  5
184
100
AcDbEntity
  8
0
370
     0
390
0
100
AcDbVertex
100
AcDb2dVertex
 10
8.147671
 20
0.581388
 30
0.0
  0
VERTEX
  5
185
100
AcDbEntity
  8
0
370
     0
390
0
100
AcDbVertex
100
AcDb2dVertex
 10
8.145838
 20
0.578109
 30
0.0
  0
VERTEX
  5
186
100
AcDbEntity
  8
0
370
     0
390
0
100
AcDbVertex
100
AcDb2dVertex
 10
8.144234
 20
0.57489
 30
0.0
  0
VERTEX
  5
187
100
AcDbEntity
  8
0
370
     0
390
0
100
AcDbVertex
100
AcDb2dVertex
 10
8.142862
 20
0.571733
 30
0.0
  0
VERTEX
  5
188
100
AcDbEntity
  8
0
370
     0
390
0
100
AcDbVertex
100
AcDb2dVertex
 10
8.141717
 20
0.568634
 30
0.0
  0
VERTEX
  5
189
100
AcDbEntity
  8
0
370
     0
390
0
100
AcDbVertex
100
AcDb2dVertex
 10
8.140802
 20
0.565596
 30
0.0
  0
VERTEX
  5
18A
100
AcDbEntity
  8
0
370
     0
390
0
100
AcDbVertex
100
AcDb2dVertex
 10
8.138531
 20
0.567111
 30
0.0
  0
VERTEX
  5
18B
100
AcDbEntity
  8
0
370
     0
390
0
100
AcDbVertex
100
AcDb2dVertex
 10
8.139469
 20
0.570503
 30
0.0
  0
VERTEX
  5
18C
100
AcDbEntity
  8
0
370
     0
390
0
100
AcDbVertex
100
AcDb2dVertex
 10
8.140637
 20
0.573882
 30
0.0
  0
VERTEX
  5
18D
100
AcDbEntity
  8
0
370
     0
390
0
100
AcDbVertex
100
AcDb2dVertex
 10
8.142038
 20
0.577251
 30
0.0
  0
VERTEX
  5
18E
100
AcDbEntity
  8
0
370
     0
390
0
100
AcDbVertex
100
AcDb2dVertex
 10
8.14367
 20
0.58061
 30
0.0
  0
VERTEX
  5
18F
100
AcDbEntity
  8
0
370
     0
390
0
100
AcDbVertex
100
AcDb2dVertex
 10
8.145533
 20
0.583958
 30
0.0
  0
VERTEX
  5
190
100
AcDbEntity
  8
0
370
     0
390
0
100
AcDbVertex
100
AcDb2dVertex
 10
8.147629
 20
0.587294
 30
0.0
  0
VERTEX
  5
191
100
AcDbEntity
  8
0
370
     0
390
0
100
AcDbVertex
100
AcDb2dVertex
 10
8.149955
 20
0.590619
 30
0.0
  0
VERTEX
  5
192
100
AcDbEntity
  8
0
370
     0
390
0
100
AcDbVertex
100
AcDb2dVertex
 10
8.152513
 20
0.593936
 30
0.0
  0
VERTEX
  5
193
100
AcDbEntity
  8
0
370
     0
390
0
100
AcDbVertex
100
AcDb2dVertex
 10
8.155303
 20
0.597239
 30
0.0
  0
VERTEX
  5
194
100
AcDbEntity
  8
0
370
     0
390
0
100
AcDbVertex
100
AcDb2dVertex
 10
8.158324
 20
0.600533
 30
0.0
  0
SEQEND
  5
195
100
AcDbEntity
  8
0
370
     0
390
0
  0
POLYLINE
  5
196
100
AcDbEntity
  8
0
370
    13
390
0
 62
     7
 48
0.03937
100
AcDb2dPolyline
 66
     1
 10
0.0
 20
0.0
 30
0.0
 70
     1
 71
     4
  0
VERTEX
  5
197
100
AcDbEntity
  8
0
370
     0
390
0
100
AcDbVertex
100
AcDb2dVertex
 10
8.126849
 20
0.560189
 30
0.0
  0
VERTEX
  5
198
100
AcDbEntity
  8
0
370
     0
390
0
100
AcDbVertex
100
AcDb2dVertex
 10
8.126849
 20
0.513464
 30
0.0
  0
VERTEX
  5
199
100
AcDbEntity
  8
0
370
     0
390
0
100
AcDbVertex
100
AcDb2dVertex
 10
8.124036
 20
0.515087
 30
0.0
  0
VERTEX
  5
19A
100
AcDbEntity
  8
0
370
     0
390
0
100
AcDbVertex
100
AcDb2dVertex
 10
8.124036
 20
0.561812
 30
0.0
  0
SEQEND
  5
19B
100
AcDbEntity
  8
0
370
     0
390
0
  0
POLYLINE
  5
19C
100
AcDbEntity
  8
0
370
    13
390
0
 62
     7
 48
0.03937
100
AcDb2dPolyline
 66
     1
 10
0.0
 20
0.0
 30
0.0
 70
     1
 71
    10
  0
VERTEX
  5
19D
100
AcDbEntity
  8
0
370
     0
390
0
100
AcDbVertex
100
AcDb2dVertex
 10
8.107488
 20
0.527525
 30
0.0
  0
VERTEX
  5
19E
100
AcDbEntity
  8
0
370
     0
390
0
100
AcDbVertex
100
AcDb2dVertex
 10
8.085316
 20
0.527525
 30
0.0
  0
VERTEX
  5
19F
100
AcDbEntity
  8
0
370
     0
390
0
100
AcDbVertex
100
AcDb2dVertex
 10
8.085316
 20
0.481233
 30
0.0
  0
VERTEX
  5
1A0
100
AcDbEntity
  8
0
370
     0
390
0
100
AcDbVertex
100
AcDb2dVertex
 10
8.104352
 20
0.457653
 30
0.0
  0
VERTEX
  5
1A1
100
AcDbEntity
  8
0
370
     0
390
0
100
AcDbVertex
100
AcDb2dVertex
 10
8.041727
 20
0.457653
 30
0.0
  0
VERTEX
  5
1A2
100
AcDbEntity
  8
0
370
     0
390
0
100
AcDbVertex
100
AcDb2dVertex
 10
8.039024
 20
0.460574
 30
0.0
  0
VERTEX
  5
1A3
100
AcDbEntity
  8
0
370
     0
390
0
100
AcDbVertex
100
AcDb2dVertex
 10
8.098295
 20
0.460574
 30
0.0
  0
VERTEX
  5
1A4
100
AcDbEntity
  8
0
370
     0
390
0
100
AcDbVertex
100
AcDb2dVertex
 10
8.082612
 20
0.479934
 30
0.0
  0
VERTEX
  5
1A5
100
AcDbEntity
  8
0
370
     0
390
0
100
AcDbVertex
100
AcDb2dVertex
 10
8.082612
 20
0.530445
 30
0.0
  0
VERTEX
  5
1A6
100
AcDbEntity
  8
0
370
     0
390
0
100
AcDbVertex
100
AcDb2dVertex
 10
8.104352
 20
0.530445
 30
0.0
  0
SEQEND
  5
1A7
100
AcDbEntity
  8
0
370
     0
390
0
  0
CIRCLE
  5
1A8
100
AcDbEntity
  8
0
370
    35
390
0
 62
     7
 48
0.03937
100
AcDbCircle
 10
2.050845
 20
5.729829
 30
0.0
 40
0.18
210
0.0
220
0.0
230
1.0
  0
CIRCLE
  5
1A9
100
AcDbEntity
  8
0
370
    35
390
0
 62
     7
 48
0.03937
100
AcDbCircle
 10
3.490845
 20
5.729829
 30
0.0
 40
1.8
210
0.0
220
0.0
230
1.0
  0
CIRCLE
  5
1AA
100
AcDbEntity
  8
0
370
    13
390
0
 62
     7
 48
0.03937
100
AcDbCircle
 10
3.490845
 20
5.729829
 30
0.0
 40
1.063316
210
0.0
220
0.0
230
1.0
  0
CIRCLE
  5
1AB
100
AcDbEntity
  8
0
370
    13
390
0
 62
     7
 48
0.03937
100
AcDbCircle
 10
3.490845
 20
5.729829
 30
0.0
 40
1.007978
210
0.0
220
0.0
230
1.0
  0
CIRCLE
  5
1AC
100
AcDbEntity
  8
0
370
    35
390
0
 62
     7
 48
0.03937
100
AcDbCircle
 10
3.490845
 20
5.729829
 30
0.0
 40
0.84
210
0.0
220
0.0
230
1.0
  0
CIRCLE
  5
1AD
100
AcDbEntity
  8
0
370
    35
390
0
 62
     7
 48
0.03937
100
AcDbCircle
 10
3.490845
 20
5.729829
 30
0.0
 40
0.667555
210
0.0
220
0.0
230
1.0
  0
CIRCLE
  5
1AE
100
AcDbEntity
  8
0
370
    35
390
0
 62
     7
 48
0.03937
100
AcDbCircle
 10
3.490845
 20
5.729829
 30
0.0
 40
0.62976
210
0.0
220
0.0
230
1.0
  0
CIRCLE
  5
1AF
100
AcDbEntity
  8
0
370
    35
390
0
 62
     7
 48
0.03937
100
AcDbCircle
 10
3.490845
 20
7.169829
 30
0.0
 40
0.18
210
0.0
220
0.0
230
1.0
  0
CIRCLE
  5
1B0
100
AcDbEntity
  8
0
370
    35
390
0
 62
     7
 48
0.03937
100
AcDbCircle
 10
4.930845
 20
5.729829
 30
0.0
 40
0.18
210
0.0
220
0.0
230
1.0
  0
CIRCLE
  5
1B1
100
AcDbEntity
  8
0
370
    35
390
0
 62
     7
 48
0.03937
100
AcDbCircle
 10
3.490845
 20
4.289829
 30
0.0
 40
0.18
210
0.0
220
0.0
230
1.0
  0
LINE
  5
1B2
100
AcDbEntity
  8
0
370
    13
390
0
  6
DASHDOT
 62
     7
 48
0.03937
100
AcDbLine
 10
3.490845
 20
2.644385
 30
0.0
 11
3.490845
 21
1.094934
 31
0.0
210
0.0
220
0.0
230
1.0
  0
LINE
  5
1B3
100
AcDbEntity
  8
0
370
    35
390
0
 62
     7
 48
0.01056
100
AcDbLine
 10
1.690845
 20
1.646464
 30
0.0
 11
1.690845
 21
1.224064
 31
0.0
210
0.0
220
0.0
230
1.0
  0
LINE
  5
1B4
100
AcDbEntity
  8
0
370
    35
390
0
 62
     7
 48
0.0045
100
AcDbLine
 10
1.870845
 20
1.646464
 30
0.0
 11
1.690845
 21
1.646464
 31
0.0
210
0.0
220
0.0
230
1.0
  0
LINE
  5
1B5
100
AcDbEntity
  8
0
370
    35
390
0
 62
     7
 48
0.01056
100
AcDbLine
 10
1.870845
 20
1.646464
 30
0.0
 11
1.870845
 21
1.224064
 31
0.0
210
0.0
220
0.0
230
1.0
  0
LINE
  5
1B6
100
AcDbEntity
  8
0
370
    35
390
0
 62
     7
 48
0.0045
100
AcDbLine
 10
1.870845
 20
1.224064
 30
0.0
 11
1.690845
 21
1.224064
 31
0.0
210
0.0
220
0.0
230
1.0
  0
LINE
  5
1B7
100
AcDbEntity
  8
0
370
    35
390
0
 62
     7
 48
0.004917
100
AcDbLine
 10
2.427529
 20
1.646464
 30
0.0
 11
2.230845
 21
1.646464
 31
0.0
210
0.0
220
0.0
230
1.0
  0
LINE
  5
1B8
100
AcDbEntity
  8
0
370
    35
390
0
 62
     7
 48
0.004917
100
AcDbLine
 10
4.750845
 20
1.646464
 30
0.0
 11
4.554161
 21
1.646464
 31
0.0
210
0.0
220
0.0
230
1.0
  0
LINE
  5
1B9
100
AcDbEntity
  8
0
370
    35
390
0
 62
     7
 48
0.000551
100
AcDbLine
 10
4.750845
 20
1.646464
 30
0.0
 11
4.77288
 21
1.646464
 31
0.0
210
0.0
220
0.0
230
1.0
  0
LINE
  5
1BA
100
AcDbEntity
  8
0
370
    35
390
0
 62
     7
 48
0.008449
100
AcDbLine
 10
4.77288
 20
1.646464
 30
0.0
 11
5.110845
 21
1.646464
 31
0.0
210
0.0
220
0.0
230
1.0
  0
LINE
  5
1BB
100
AcDbEntity
  8
0
370
    35
390
0
 62
     7
 48
0.0045
100
AcDbLine
 10
5.290845
 20
1.646464
 30
0.0
 11
5.110845
 21
1.646464
 31
0.0
210
0.0
220
0.0
230
1.0
  0
LINE
  5
1BC
100
AcDbEntity
  8
0
370
    35
390
0
 62
     7
 48
0.000551
100
AcDbLine
 10
1.870845
 20
1.646464
 30
0.0
 11
1.89288
 21
1.646464
 31
0.0
210
0.0
220
0.0
230
1.0
  0
LINE
  5
1BD
100
AcDbEntity
  8
0
370
    35
390
0
 62
     7
 48
0.008449
100
AcDbLine
 10
1.89288
 20
1.646464
 30
0.0
 11
2.230845
 21
1.646464
 31
0.0
210
0.0
220
0.0
230
1.0
  0
LINE
  5
1BE
100
AcDbEntity
  8
0
370
    35
390
0
 62
     7
 48
0.008449
100
AcDbLine
 10
1.89288
 20
1.224064
 30
0.0
 11
2.230845
 21
1.224064
 31
0.0
210
0.0
220
0.0
230
1.0
  0
LINE
  5
1BF
100
AcDbEntity
  8
0
370
    35
390
0
 62
     7
 48
0.000551
100
AcDbLine
 10
1.870845
 20
1.224064
 30
0.0
 11
1.89288
 21
1.224064
 31
0.0
210
0.0
220
0.0
230
1.0
  0
LINE
  5
1C0
100
AcDbEntity
  8
0
370
    35
390
0
 62
     7
 48
0.0045
100
AcDbLine
 10
5.290845
 20
1.224064
 30
0.0
 11
5.110845
 21
1.224064
 31
0.0
210
0.0
220
0.0
230
1.0
  0
LINE
  5
1C1
100
AcDbEntity
  8
0
370
    35
390
0
 62
     7
 48
0.008449
100
AcDbLine
 10
4.77288
 20
1.224064
 30
0.0
 11
5.110845
 21
1.224064
 31
0.0
210
0.0
220
0.0
230
1.0
  0
LINE
  5
1C2
100
AcDbEntity
  8
0
370
    35
390
0
 62
     7
 48
0.000551
100
AcDbLine
 10
4.750845
 20
1.224064
 30
0.0
 11
4.77288
 21
1.224064
 31
0.0
210
0.0
220
0.0
230
1.0
  0
LINE
  5
1C3
100
AcDbEntity
  8
0
370
    35
390
0
 62
     7
 48
0.0015
100
AcDbLine
 10
4.750845
 20
1.224064
 30
0.0
 11
4.690845
 21
1.224064
 31
0.0
210
0.0
220
0.0
230
1.0
  0
LINE
  5
1C4
100
AcDbEntity
  8
0
370
    35
390
0
 62
     7
 48
0.0015
100
AcDbLine
 10
2.290845
 20
1.224064
 30
0.0
 11
2.230845
 21
1.224064
 31
0.0
210
0.0
220
0.0
230
1.0
  0
LINE
  5
1C5
100
AcDbEntity
  8
0
370
    35
390
0
 62
     7
 48
0.01056
100
AcDbLine
 10
2.230845
 20
1.646464
 30
0.0
 11
2.230845
 21
1.224064
 31
0.0
210
0.0
220
0.0
230
1.0
  0
LINE
  5
1C6
100
AcDbEntity
  8
0
370
    35
390
0
 62
     7
 48
0.01056
100
AcDbLine
 10
5.290845
 20
1.646464
 30
0.0
 11
5.290845
 21
1.224064
 31
0.0
210
0.0
220
0.0
230
1.0
  0
LINE
  5
1C7
100
AcDbEntity
  8
0
370
    35
390
0
 62
     7
 48
0.01056
100
AcDbLine
 10
5.110845
 20
1.646464
 30
0.0
 11
5.110845
 21
1.224064
 31
0.0
210
0.0
220
0.0
230
1.0
  0
LINE
  5
1C8
100
AcDbEntity
  8
0
370
    35
390
0
 62
     7
 48
0.01056
100
AcDbLine
 10
4.750845
 20
1.646464
 30
0.0
 11
4.750845
 21
1.224064
 31
0.0
210
0.0
220
0.0
230
1.0
  0
POLYLINE
  5
1C9
100
AcDbEntity
  8
0
370
    35
390
0
 62
     7
 48
0.03937
100
AcDb2dPolyline
 66
     1
 10
0.0
 20
0.0
 30
0.0
 71
     2
  0
VERTEX
  5
1CA
100
AcDbEntity
  8
0
370
     0
390
0
100
AcDbVertex
100
AcDb2dVertex
 10
4.498823
 20
1.688078
 30
0.0
 42
0.334046
  0
VERTEX
  5
1CB
100
AcDbEntity
  8
0
370
     0
390
0
100
AcDbVertex
100
AcDb2dVertex
 10
4.554161
 20
1.646464
 30
0.0
  0
SEQEND
  5
1CC
100
AcDbEntity
  8
0
370
     0
390
0
  0
POLYLINE
  5
1CD
100
AcDbEntity
  8
0
370
    35
390
0
 62
     7
 48
0.03937
100
AcDb2dPolyline
 66
     1
 10
0.0
 20
0.0
 30
0.0
 71
     2
  0
VERTEX
  5
1CE
100
AcDbEntity
  8
0
370
     0
390
0
100
AcDbVertex
100
AcDb2dVertex
 10
2.427529
 20
1.646464
 30
0.0
 42
0.334046
  0
VERTEX
  5
1CF
100
AcDbEntity
  8
0
370
     0
390
0
100
AcDbVertex
100
AcDb2dVertex
 10
2.482866
 20
1.688078
 30
0.0
  0
SEQEND
  5
1D0
100
AcDbEntity
  8
0
370
     0
390
0
  0
LINE
  5
1D1
100
AcDbEntity
  8
0
370
    35
390
0
 62
     7
 48
0.014256
100
AcDbLine
 10
4.690845
 20
1.224064
 30
0.0
 11
4.120605
 21
1.224064
 31
0.0
210
0.0
220
0.0
230
1.0
  0
LINE
  5
1D2
100
AcDbEntity
  8
0
370
    35
390
0
 62
     7
 48
0.008196
100
AcDbLine
 10
3.792768
 20
1.224064
 30
0.0
 11
4.120605
 21
1.224064
 31
0.0
210
0.0
220
0.0
230
1.0
  0
LINE
  5
1D3
100
AcDbEntity
  8
0
370
    35
390
0
 62
     7
 48
0.03937
100
AcDbLine
 10
2.861085
 20
1.224064
 30
0.0
 11
3.792768
 21
1.224064
 31
0.0
210
0.0
220
0.0
230
1.0
  0
LINE
  5
1D4
100
AcDbEntity
  8
0
370
    35
390
0
 62
     7
 48
0.014256
100
AcDbLine
 10
2.861085
 20
1.224064
 30
0.0
 11
2.290845
 21
1.224064
 31
0.0
210
0.0
220
0.0
230
1.0
  0
LINE
  5
1D5
100
AcDbEntity
  8
0
370
    35
390
0
 62
     7
 48
0.015131
100
AcDbLine
 10
4.330845
 20
2.269557
 30
0.0
 11
4.498823
 21
1.688078
 31
0.0
210
0.0
220
0.0
230
1.0
  0
LINE
  5
1D6
100
AcDbEntity
  8
0
370
    35
390
0
 62
     7
 48
0.015131
100
AcDbLine
 10
2.650845
 20
2.269557
 30
0.0
 11
2.482866
 21
1.688078
 31
0.0
210
0.0
220
0.0
230
1.0
  0
LINE
  5
1D7
100
AcDbEntity
  8
0
370
    35
390
0
 62
     7
 48
0.03937
100
AcDbLine
 10
4.120605
 20
2.515264
 30
0.0
 11
4.120605
 21
1.224064
 31
0.0
210
0.0
220
0.0
230
1.0
  0
LINE
  5
1D8
100
AcDbEntity
  8
0
370
    35
390
0
 62
     7
 48
0.008196
100
AcDbLine
 10
3.792768
 20
2.515264
 30
0.0
 11
4.120605
 21
2.515264
 31
0.0
210
0.0
220
0.0
230
1.0
  0
LINE
  5
1D9
100
AcDbEntity
  8
0
370
    35
390
0
 62
     7
 48
0.03937
100
AcDbLine
 10
2.861085
 20
2.515264
 30
0.0
 11
2.861085
 21
1.224064
 31
0.0
210
0.0
220
0.0
230
1.0
  0
LINE
  5
1DA
100
AcDbEntity
  8
0
370
    35
390
0
 62
     7
 48
0.03937
100
AcDbLine
 10
2.861085
 20
2.515264
 30
0.0
 11
3.792768
 21
2.515264
 31
0.0
210
0.0
220
0.0
230
1.0
  0
LINE
  5
1DB
100
AcDbEntity
  8
0
370
    35
390
0
 62
     7
 48
0.002835
100
AcDbLine
 10
4.330845
 20
2.382943
 30
0.0
 11
4.330845
 21
2.269557
 31
0.0
210
0.0
220
0.0
230
1.0
  0
LINE
  5
1DC
100
AcDbEntity
  8
0
370
    35
390
0
 62
     7
 48
0.002835
100
AcDbLine
 10
2.650845
 20
2.382943
 30
0.0
 11
2.650845
 21
2.269557
 31
0.0
210
0.0
220
0.0
230
1.0
  0
LINE
  5
1DD
100
AcDbEntity
  8
0
370
    35
390
0
 62
     7
 48
0.000945
100
AcDbLine
 10
2.861085
 20
2.515264
 30
0.0
 11
2.82329
 21
2.515264
 31
0.0
210
0.0
220
0.0
230
1.0
  0
LINE
  5
1DE
100
AcDbEntity
  8
0
370
    35
390
0
 62
     7
 48
0.000945
100
AcDbLine
 10
4.1584
 20
2.515264
 30
0.0
 11
4.120605
 21
2.515264
 31
0.0
210
0.0
220
0.0
230
1.0
  0
LINE
  5
1DF
100
AcDbEntity
  8
0
370
    35
390
0
 62
     7
 48
0.005434
100
AcDbLine
 10
4.1584
 20
2.515264
 30
0.0
 11
4.330845
 21
2.382943
 31
0.0
210
0.0
220
0.0
230
1.0
  0
LINE
  5
1E0
100
AcDbEntity
  8
0
370
    35
390
0
 62
     7
 48
0.005434
100
AcDbLine
 10
2.82329
 20
2.515264
 30
0.0
 11
2.650845
 21
2.382943
 31
0.0
210
0.0
220
0.0
230
1.0
  0
ELLIPSE
  5
1E1
100
AcDbEntity
  8
0
370
    35
390
0
 62
     7
 48
0.03937
100
AcDbEllipse
 10
9.277506
 20
4.815286
 30
0.0
 11
0.0673421274256277
 21
-0.1669282416910025
 31
0.0
210
0.0
220
0.0
230
1.0
 40
0.616564
 41
3.1414735213477916
 42
6.2830661749375851
  0
ELLIPSE
  5
1E2
100
AcDbEntity
  8
0
370
    35
390
0
 62
     7
 48
0.03937
100
AcDbEllipse
 10
9.277506
 20
4.815286
 30
0.0
 11
0.0673421274256277
 21
-0.1669282416910025
 31
0.0
210
0.0
220
0.0
230
1.0
 40
0.616564
 41
0.4276278823656214
 42
3.1414735213477916
  0
ELLIPSE
  5
1E3
100
AcDbEntity
  8
0
370
    35
390
0
 62
     7
 48
0.03937
100
AcDbEllipse
 10
9.277506
 20
4.815286
 30
0.0
 11
0.0673421274256277
 21
-0.1669282416910025
 31
0.0
210
0.0
220
0.0
230
1.0
 40
0.616564
 41
6.2830661749375851
 42
6.7108131895452079
  0
ELLIPSE
  5
1E4
100
AcDbEntity
  8
0
370
    35
390
0
 62
     7
 48
0.03937
100
AcDbEllipse
 10
8.603949
 20
5.474804
 30
0.0
 11
0.673421274256287
 21
-1.6692824169100204
 31
0.0
210
0.0
220
0.0
230
1.0
 40
0.616564
 41
1.9984242091605207
 42
3.1416185276537867
  0
ELLIPSE
  5
1E5
100
AcDbEntity
  8
0
370
    35
390
0
 62
     7
 48
0.03937
100
AcDbEllipse
 10
8.295542
 20
5.350387
 30
0.0
 11
0.6734212742562902
 21
-1.6692824169100191
 31
0.0
210
0.0
220
0.0
230
1.0
 40
0.616564
 41
3.1416185276537867
 42
6.2832111812435798
  0
ELLIPSE
  5
1E6
100
AcDbEntity
  8
0
370
    35
390
0
 62
     7
 48
0.03937
100
AcDbEllipse
 10
8.295542
 20
5.350387
 30
0.0
 11
0.6734212742562902
 21
-1.6692824169100191
 31
0.0
210
0.0
220
0.0
230
1.0
 40
0.616564
 41
1.9984242091605207
 42
3.1416185276537867
  0
ELLIPSE
  5
1E7
100
AcDbEntity
  8
0
370
    35
390
0
 62
     7
 48
0.03937
100
AcDbEllipse
 10
8.603949
 20
5.474804
 30
0.0
 11
0.673421274256287
 21
-1.6692824169100204
 31
0.0
210
0.0
220
0.0
230
1.0
 40
0.616564
 41
0.0000258740639938
 42
1.9984242091605189
  0
ELLIPSE
  5
1E8
100
AcDbEntity
  8
0
370
    35
390
0
 62
     7
 48
0.03937
100
AcDbEllipse
 10
8.295542
 20
5.350387
 30
0.0
 11
0.6734212742562902
 21
-1.6692824169100191
 31
0.0
210
0.0
220
0.0
230
1.0
 40
0.616564
 41
0.0000258740639938
 42
1.9984242091605189
  0
ELLIPSE
  5
1E9
100
AcDbEntity
  8
0
370
    13
390
0
 62
     7
 48
0.03937
100
AcDbEllipse
 10
8.295542
 20
5.350387
 30
0.0
 11
0.3978107856527668
 21
-0.9860967794352841
 31
0.0
210
0.0
220
0.0
230
1.0
 40
0.616564
 41
5.7685643300572069
 42
9.9393988253714696
  0
ELLIPSE
  5
1EA
100
AcDbEntity
  8
0
370
    13
390
0
 62
     7
 48
0.03937
100
AcDbEllipse
 10
8.265158
 20
5.33813
 30
0.0
 11
0.3771078535054635
 21
-0.9347781740791622
 31
0.0
210
0.0
220
0.0
230
1.0
 40
0.616564
 41
6.0549753715290828
 42
9.6529909982623909
  0
ELLIPSE
  5
1EB
100
AcDbEntity
  8
0
370
    35
390
0
 62
     7
 48
0.03937
100
AcDbEllipse
 10
7.840603
 20
5.166856
 30
0.0
 11
0.3142632613195958
 21
-0.778998461224678
 31
0.0
210
0.0
220
0.0
230
1.0
 40
0.616564
 41
0.0000258740639991
 42
3.1416185276537907
  0
ELLIPSE
  5
1EC
100
AcDbEntity
  8
0
370
    35
390
0
 62
     7
 48
0.03937
100
AcDbEllipse
 10
7.757817
 20
5.133458
 30
0.0
 11
-0.3142632613196013
 21
0.7789984612246761
 31
0.0
210
0.0
220
0.0
230
1.0
 40
0.616564
 41
2.9984242091605191
 42
3.1416149735327386
  0
ELLIPSE
  5
1ED
100
AcDbEntity
  8
0
370
    35
390
0
 62
     7
 48
0.03937
100
AcDbEllipse
 10
7.757817
 20
5.133458
 30
0.0
 11
-0.3142632613196013
 21
0.7789984612246761
 31
0.0
210
0.0
220
0.0
230
1.0
 40
0.616564
 41
3.1416149735327386
 42
5.1400168627503122
  0
ELLIPSE
  5
1EE
100
AcDbEntity
  8
0
370
    35
390
0
 62
     7
 48
0.03937
100
AcDbEllipse
 10
7.757817
 20
5.133458
 30
0.0
 11
0.3142632613195959
 21
-0.7789984612246782
 31
0.0
210
0.0
220
0.0
230
1.0
 40
0.616564
 41
5.1400168627503104
 42
6.1400168627503122
  0
ELLIPSE
  5
1EF
100
AcDbEntity
  8
0
370
    35
390
0
 62
     7
 48
0.03937
100
AcDbEllipse
 10
7.757817
 20
5.133458
 30
0.0
 11
-0.3142632613196013
 21
0.7789984612246761
 31
0.0
210
0.0
220
0.0
230
1.0
 40
0.616564
 41
6.1400168627503122
 42
6.2832076271225326
  0
ELLIPSE
  5
1F0
100
AcDbEntity
  8
0
370
    35
390
0
 62
     7
 48
0.03937
100
AcDbEllipse
 10
7.757817
 20
5.133458
 30
0.0
 11
-0.3142632613196013
 21
0.7789984612246761
 31
0.0
210
0.0
220
0.0
230
1.0
 40
0.616564
 41
0.0000223199429466
 42
1.9984242091605187
  0
ELLIPSE
  5
1F1
100
AcDbEntity
  8
0
370
    35
390
0
 62
     7
 48
0.03937
100
AcDbEllipse
 10
7.757817
 20
5.133458
 30
0.0
 11
0.3142632613196021
 21
-0.7789984612246758
 31
0.0
210
0.0
220
0.0
230
1.0
 40
0.616564
 41
1.9984242091605187
 42
2.9984242091605191
  0
ELLIPSE
  5
1F2
100
AcDbEntity
  8
0
370
    35
390
0
 62
     7
 48
0.03937
100
AcDbEllipse
 10
7.661205
 20
5.094483
 30
0.0
 11
-0.249747735735882
 21
0.6190768243658628
 31
0.0
210
0.0
220
0.0
230
1.0
 40
0.616564
 41
6.1400168627503131
 42
12.423202169929901
  0
ELLIPSE
  5
1F3
100
AcDbEntity
  8
0
370
    35
390
0
 62
     7
 48
0.03937
100
AcDbEllipse
 10
7.661205
 20
5.094483
 30
0.0
 11
0.2356076564864674
 21
-0.5840262749295855
 31
0.0
210
0.0
220
0.0
230
1.0
 40
0.616564
 41
3.141618527653792
 42
6.2832111812435851
  0
ELLIPSE
  5
1F4
100
AcDbEntity
  8
0
370
    35
390
0
 62
     7
 48
0.03937
100
AcDbEllipse
 10
7.661205
 20
5.094483
 30
0.0
 11
0.2356076564864674
 21
-0.5840262749295855
 31
0.0
210
0.0
220
0.0
230
1.0
 40
0.616564
 41
1.9984242091605202
 42
3.141618527653792
  0
ELLIPSE
  5
1F5
100
AcDbEntity
  8
0
370
    35
390
0
 62
     7
 48
0.03937
100
AcDbEllipse
 10
7.661205
 20
5.094483
 30
0.0
 11
0.2356076564864674
 21
-0.5840262749295855
 31
0.0
210
0.0
220
0.0
230
1.0
 40
0.616564
 41
0.0000258740639991
 42
1.9984242091605173
  0
ELLIPSE
  5
1F6
100
AcDbEntity
  8
0
370
    35
390
0
 62
     7
 48
0.03937
100
AcDbEllipse
 10
8.232833
 20
4.082569
 30
0.0
 11
0.0673421274256284
 21
-0.1669282416910022
 31
0.0
210
0.0
220
0.0
230
1.0
 40
0.616564
 41
3.1416185276537885
 42
6.283211181243586
  0
ELLIPSE
  5
1F7
100
AcDbEntity
  8
0
370
    35
390
0
 62
     7
 48
0.03937
100
AcDbEllipse
 10
8.232833
 20
4.082569
 30
0.0
 11
0.067342127425629
 21
-0.166928241691002
 31
0.0
210
0.0
220
0.0
230
1.0
 40
0.616564
 41
1.9984242091605158
 42
3.1416185276537885
  0
ELLIPSE
  5
1F8
100
AcDbEntity
  8
0
370
    35
390
0
 62
     7
 48
0.03937
100
AcDbEllipse
 10
8.232833
 20
4.082569
 30
0.0
 11
0.0673421274256284
 21
-0.1669282416910022
 31
0.0
210
0.0
220
0.0
230
1.0
 40
0.616564
 41
0.0000258740639962
 42
1.9984242091605202
  0
ELLIPSE
  5
1F9
100
AcDbEntity
  8
0
370
    35
390
0
 62
     7
 48
0.03937
100
AcDbEllipse
 10
7.313578
 20
5.885488
 30
0.0
 11
0.0673421274256263
 21
-0.1669282416910028
 31
0.0
210
0.0
220
0.0
230
1.0
 40
0.616564
 41
3.1414735213477916
 42
5.3288552955085029
  0
ELLIPSE
  5
1FA
100
AcDbEntity
  8
0
370
    35
390
0
 62
     7
 48
0.03937
100
AcDbEllipse
 10
7.313578
 20
5.885488
 30
0.0
 11
0.0673421274256263
 21
-0.1669282416910028
 31
0.0
210
0.0
220
0.0
230
1.0
 40
0.616564
 41
1.4354653992886139
 42
3.1414735213477916
  0
ELLIPSE
  5
1FB
100
AcDbEntity
  8
0
370
    35
390
0
 62
     7
 48
0.03937
100
AcDbEllipse
 10
8.358251
 20
6.618205
 30
0.0
 11
0.0673421274256287
 21
-0.1669282416910021
 31
0.0
210
0.0
220
0.0
230
1.0
 40
0.616564
 41
0.0000258740639976
 42
3.1416185276537898
  0
ELLIPSE
  5
1FC
100
AcDbEntity
  8
0
370
    35
390
0
 62
     7
 48
0.03937
100
AcDbEllipse
 10
8.358251
 20
6.618205
 30
0.0
 11
0.0673421274256287
 21
-0.1669282416910021
 31
0.0
210
0.0
220
0.0
230
1.0
 40
0.616564
 41
5.1400168627503122
 42
6.2832111812435842
  0
ELLIPSE
  5
1FD
100
AcDbEntity
  8
0
370
    35
390
0
 62
     7
 48
0.03937
100
AcDbEllipse
 10
8.358251
 20
6.618205
 30
0.0
 11
0.0673421274256287
 21
-0.1669282416910021
 31
0.0
210
0.0
220
0.0
230
1.0
 40
0.616564
 41
3.1416185276537898
 42
5.1400168627503122
  0
LINE
  5
1FE
100
AcDbEntity
  8
0
370
    35
390
0
 62
     7
 48
0.008314
100
AcDbLine
 10
7.622094
 20
7.019659
 30
0.0
 11
7.930501
 21
7.144076
 31
0.0
210
0.0
220
0.0
230
1.0
  0
LINE
  5
1FF
100
AcDbEntity
  8
0
370
    35
390
0
 62
     7
 48
0.008314
100
AcDbLine
 10
8.96899
 20
3.681115
 30
0.0
 11
9.277397
 21
3.805533
 31
0.0
210
0.0
220
0.0
230
1.0
  0
LINE
  5
200
100
AcDbEntity
  8
0
370
    35
390
0
 62
     7
 48
0.01006
100
AcDbLine
 10
8.099823
 20
4.365652
 30
0.0
 11
8.502098
 21
4.374985
 31
0.0
210
0.0
220
0.0
230
1.0
  0
LINE
  5
201
100
AcDbEntity
  8
0
370
    35
390
0
 62
     7
 48
0.01006
100
AcDbLine
 10
7.471296
 20
5.923648
 30
0.0
 11
7.767436
 21
6.196068
 31
0.0
210
0.0
220
0.0
230
1.0
  0
LINE
  5
202
100
AcDbEntity
  8
0
370
    35
390
0
 62
     7
 48
0.002232
100
AcDbLine
 10
8.072091
 20
4.354464
 30
0.0
 11
8.154879
 21
4.387862
 31
0.0
210
0.0
220
0.0
230
1.0
  0
LINE
  5
203
100
AcDbEntity
  8
0
370
    35
390
0
 62
     7
 48
0.002232
100
AcDbLine
 10
7.443543
 20
5.912452
 30
0.0
 11
7.526328
 21
5.945849
 31
0.0
210
0.0
220
0.0
230
1.0
  0
INSERT
  5
431
100
AcDbEntity
  8
0
370
     0
390
0
100
AcDbBlockReference
  2
BLOCK1
 10
0.0
 20
0.0
 30
0.0
210
0.0
220
0.0
230
1.0
  0
INSERT
  5
432
100
AcDbEntity
  8
0
370
     0
390
0
100
AcDbBlockReference
  2
BLOCK2
 10
0.0
 20
0.0
 30
0.0
210
0.0
220
0.0
230
1.0
  0
INSERT
  5
433
100
AcDbEntity
  8
0
370
     0
390
0
100
AcDbBlockReference
  2
BLOCK3
 10
0.0
 20
0.0
 30
0.0
210
0.0
220
0.0
230
1.0
  0
INSERT
  5
434
100
AcDbEntity
  8
0
370
     0
390
0
100
AcDbBlockReference
  2
BLOCK4
 10
0.0
 20
0.0
 30
0.0
210
0.0
220
0.0
230
1.0
  0
INSERT
  5
435
100
AcDbEntity
  8
0
370
     0
390
0
100
AcDbBlockReference
  2
BLOCK5
 10
0.0
 20
0.0
 30
0.0
210
0.0
220
0.0
230
1.0
  0
INSERT
  5
436
100
AcDbEntity
  8
0
370
     0
390
0
100
AcDbBlockReference
  2
BLOCK6
 10
0.0
 20
0.0
 30
0.0
210
0.0
220
0.0
230
1.0
  0
INSERT
  5
437
100
AcDbEntity
  8
0
370
     0
390
0
100
AcDbBlockReference
  2
BLOCK7
 10
3.490845
 20
5.729829
 30
0.0
 41
0.48
 42
0.48
 43
0.48
210
0.0
220
0.0
230
1.0
  0
INSERT
  5
438
100
AcDbEntity
  8
0
370
     0
390
0
100
AcDbBlockReference
  2
BLOCK8
 10
3.490845
 20
5.729829
 30
0.0
 41
0.48
 42
0.48
 43
0.48
210
0.0
220
0.0
230
1.0
  0
INSERT
  5
439
100
AcDbEntity
  8
0
370
     0
390
0
100
AcDbBlockReference
  2
BLOCK9
 10
3.490845
 20
5.729829
 30
0.0
 41
0.48
 42
0.48
 43
0.48
210
0.0
220
0.0
230
1.0
  0
INSERT
  5
43A
100
AcDbEntity
  8
0
370
     0
390
0
100
AcDbBlockReference
  2
BLOCK10
 10
3.490845
 20
5.729829
 30
0.0
 41
0.48
 42
0.48
 43
0.48
210
0.0
220
0.0
230
1.0
  0
INSERT
  5
43B
100
AcDbEntity
  8
0
370
     0
390
0
100
AcDbBlockReference
  2
BLOCK11
 10
3.490845
 20
5.729829
 30
0.0
 41
0.48
 42
0.48
 43
0.48
210
0.0
220
0.0
230
1.0
  0
INSERT
  5
43C
100
AcDbEntity
  8
0
370
     0
390
0
100
AcDbBlockReference
  2
BLOCK12
 10
3.490845
 20
5.729829
 30
0.0
 41
0.48
 42
0.48
 43
0.48
210
0.0
220
0.0
230
1.0
  0
INSERT
  5
43D
100
AcDbEntity
  8
0
370
     0
390
0
100
AcDbBlockReference
  2
BLOCK13
 10
3.490845
 20
5.729829
 30
0.0
 41
0.48
 42
0.48
 43
0.48
210
0.0
220
0.0
230
1.0
  0
INSERT
  5
43E
100
AcDbEntity
  8
0
370
     0
390
0
100
AcDbBlockReference
  2
BLOCK14
 10
3.490845
 20
5.729829
 30
0.0
 41
0.48
 42
0.48
 43
0.48
210
0.0
220
0.0
230
1.0
  0
INSERT
  5
43F
100
AcDbEntity
  8
0
370
     0
390
0
100
AcDbBlockReference
  2
BLOCK15
 10
3.490845
 20
1.224064
 30
0.0
 41
0.48
 42
0.48
 43
0.48
210
0.0
220
0.0
230
1.0
  0
INSERT
  5
440
100
AcDbEntity
  8
0
370
     0
390
0
100
AcDbBlockReference
  2
BLOCK16
 10
3.490845
 20
1.224064
 30
0.0
 41
0.48
 42
0.48
 43
0.48
210
0.0
220
0.0
230
1.0
  0
INSERT
  5
441
100
AcDbEntity
  8
0
370
     0
390
0
100
AcDbBlockReference
  2
BLOCK17
 10
3.490845
 20
1.224064
 30
0.0
 41
0.48
 42
0.48
 43
0.48
210
0.0
220
0.0
230
1.0
  0
INSERT
  5
442
100
AcDbEntity
  8
0
370
     0
390
0
100
AcDbBlockReference
  2
BLOCK18
 10
3.490845
 20
1.224064
 30
0.0
 41
0.48
 42
0.48
 43
0.48
210
0.0
220
0.0
230
1.0
  0
INSERT
  5
443
100
AcDbEntity
  8
0
370
     0
390
0
100
AcDbBlockReference
  2
BLOCK19
 10
3.490845
 20
1.224064
 30
0.0
 41
0.48
 42
0.48
 43
0.48
210
0.0
220
0.0
230
1.0
  0
INSERT
  5
444
100
AcDbEntity
  8
0
370
     0
390
0
100
AcDbBlockReference
  2
BLOCK20
 10
3.490845
 20
1.224064
 30
0.0
 41
0.48
 42
0.48
 43
0.48
210
0.0
220
0.0
230
1.0
  0
INSERT
  5
445
100
AcDbEntity
  8
0
370
     0
390
0
100
AcDbBlockReference
  2
BLOCK21
 10
3.490845
 20
1.224064
 30
0.0
 41
0.48
 42
0.48
 43
0.48
210
0.0
220
0.0
230
1.0
  0
INSERT
  5
446
100
AcDbEntity
  8
0
370
     0
390
0
100
AcDbBlockReference
  2
BLOCK22
 10
3.490845
 20
1.224064
 30
0.0
 41
0.48
 42
0.48
 43
0.48
210
0.0
220
0.0
230
1.0
  0
INSERT
  5
447
100
AcDbEntity
  8
0
370
     0
390
0
100
AcDbBlockReference
  2
BLOCK23
 10
3.490845
 20
1.224064
 30
0.0
 41
0.48
 42
0.48
 43
0.48
210
0.0
220
0.0
230
1.0
  0
ENDSEC
  0
SECTION
  2
OBJECTS
  0
DICTIONARY
  5
19
100
AcDbDictionary
280
     0
281
     1
  3
ACAD_GROUP
350
1A
  3
ACAD_MLINESTYLE
350
1B
  3
ACAD_LAYOUT
350
1E
  3
ACAD_PLOTSETTINGS
350
22
  3
ACAD_PLOTSTYLENAME
350
1F
  3
ACAD_WIPEOUT_VARS
350
23
  0
DICTIONARY
  5
1A
102
{ACAD_REACTORS
330
19
102
}
100
AcDbDictionary
280
     0
281
     1
  0
DICTIONARY
  5
1B
102
{ACAD_REACTORS
330
19
102
}
100
AcDbDictionary
280
     0
281
     1
  3
Standard
350
1C
  0
MLINESTYLE
  5
1C
102
{ACAD_REACTORS
330
1B
102
}
100
AcDbMlineStyle
  2
Standard
 70
     0
  3

 62
     0
 51
90.0
 52
90.0
 71
     2
 49
0.5
 62
   256
  6
ByLayer
 49
-0.5
 62
   256
  6
ByLayer
  0
ACDBDICTIONARYWDFLT
  5
1F
102
{ACAD_REACTORS
330
19
102
}
100
AcDbDictionary
281
     1
  3
Normal
350
1D
100
AcDbDictionaryWithDefault
340
1D
  0
ACDBPLACEHOLDER
  5
1D
102
{ACAD_REACTORS
330
1F
102
}
  0
LAYOUT
  5
20
102
{ACAD_REACTORS
330
1E
102
}
100
AcDbPlotSettings
  1

  2

  4

  6

 40
0.0
 41
0.0
 42
0.0
 43
0.0
 44
0.0
 45
0.0
 46
0.0
 47
0.0
 48
0.0
 49
0.0
140
0.0
141
0.0
142
1.0
143
1.0
 70
  1024
 72
     0
 73
     0
 74
     0
  7

 75
     0
147
1.0
148
0.0
149
0.0
100
AcDbLayout
  1
Model
 70
     0
 71
     0
 10
0.0
 20
0.0
 11
0.0
 21
0.0
 12
0.0
 22
0.0
 32
0.0
 14
0.0
 24
0.0
 34
0.0
 15
0.0
 25
0.0
 35
0.0
146
0.0
 13
0.0
 23
0.0
 33
0.0
 16
0.0
 26
0.0
 36
0.0
 17
0.0
 27
0.0
 37
0.0
 76
     0
330
A
331
0
345
0
346
0
  0
LAYOUT
  5
21
102
{ACAD_REACTORS
330
1E
102
}
100
AcDbPlotSettings
  1

  2

  4

  6

 40
0.0
 41
0.0
 42
0.0
 43
0.0
 44
0.0
 45
0.0
 46
0.0
 47
0.0
 48
0.0
 49
0.0
140
0.0
141
0.0
142
1.0
143
1.0
 70
     0
 72
     0
 73
     0
 74
     0
  7

 75
     0
147
1.0
148
0.0
149
0.0
100
AcDbLayout
  1
Layout1
 70
     0
 71
     0
 10
0.0
 20
0.0
 11
0.0
 21
0.0
 12
0.0
 22
0.0
 32
0.0
 14
0.0
 24
0.0
 34
0.0
 15
0.0
 25
0.0
 35
0.0
146
0.0
 13
0.0
 23
0.0
 33
0.0
 16
0.0
 26
0.0
 36
0.0
 17
0.0
 27
0.0
 37
0.0
 76
     0
330
B
331
0
345
0
346
0
  0
DICTIONARY
  5
1E
102
{ACAD_REACTORS
330
19
102
}
100
AcDbDictionary
280
     0
281
     1
  3
Layout1
350
21
  3
Model
350
20
  0
DICTIONARY
  5
22
102
{ACAD_REACTORS
330
19
102
}
100
AcDbDictionary
280
     0
281
     1
  0
WIPEOUTVARIABLES
  5
23
100
AcDbWipeoutVariables
 70
     1
  0
ENDSEC
  0
EOF
