  0
SECTION
  2
HEADER
  9
$ACADVER
  1
AC1015
  9
$ACADMAINTVER
 70
     6
  9
$DWGCODEPAGE
  3
ANSI_1252
  9
$INSBASE
 10
0.0
 20
0.0
 30
0.0
  9
$EXTMIN
 10
0.0
 20
0.0
 30
0.0
  9
$EXTMAX
 10
164.460831
 20
2.948422
 30
2.0
  9
$LIMMIN
 10
0.0
 20
0.0
  9
$LIMMAX
 10
17.0
 20
11.0
  9
$ORTHOMODE
 70
     0
  9
$REGENMODE
 70
     1
  9
$FILLMODE
 70
     1
  9
$QTEXTMODE
 70
     0
  9
$MIRRTEXT
 70
     1
  9
$LTSCALE
 40
1.0
  9
$ATTMODE
 70
     1
  9
$TEXTSIZE
 40
0.2
  9
$TRACEWID
 40
0.05
  9
$TEXTSTYLE
  7
STANDARD
  9
$CLAYER
  8
0
  9
$CELTYPE
  6
ByLayer
  9
$CECOLOR
 62
   256
  9
$CELTSCALE
 40
1.0
  9
$DISPSILH
 70
     0
  9
$DIMSCALE
 40
1.0
  9
$DIMASZ
 40
0.18
  9
$DIMEXO
 40
0.0625
  9
$DIMDLI
 40
0.38
  9
$DIMRND
 40
0.0
  9
$DIMDLE
 40
0.0
  9
$DIMEXE
 40
0.18
  9
$DIMTP
 40
0.0
  9
$DIMTM
 40
0.0
  9
$DIMTXT
 40
0.18
  9
$DIMCEN
 40
0.09
  9
$DIMTSZ
 40
0.0
  9
$DIMTOL
 70
     0
  9
$DIMLIM
 70
     0
  9
$DIMTIH
 70
     1
  9
$DIMTOH
 70
     1
  9
$DIMSE1
 70
     0
  9
$DIMSE2
 70
     0
  9
$DIMTAD
 70
     0
  9
$DIMZIN
 70
     0
  9
$DIMBLK
  1

  9
$DIMASO
 70
     1
  9
$DIMSHO
 70
     1
  9
$DIMPOST
  1

  9
$DIMAPOST
  1

  9
$DIMALT
 70
     0
  9
$DIMALTD
 70
     2
  9
$DIMALTF
 40
25.4
  9
$DIMLFAC
 40
1.0
  9
$DIMTOFL
 70
     0
  9
$DIMTVP
 40
0.0
  9
$DIMTIX
 70
     0
  9
$DIMSOXD
 70
     0
  9
$DIMSAH
 70
     0
  9
$DIMBLK1
  1

  9
$DIMBLK2
  1

  9
$DIMSTYLE
  2
STANDARD
  9
$DIMCLRD
 70
     0
  9
$DIMCLRE
 70
     0
  9
$DIMCLRT
 70
     0
  9
$DIMTFAC
 40
1.0
  9
$DIMGAP
 40
0.09
  9
$DIMJUST
 70
     0
  9
$DIMSD1
 70
     0
  9
$DIMSD2
 70
     0
  9
$DIMTOLJ
 70
     1
  9
$DIMTZIN
 70
     0
  9
$DIMALTZ
 70
     0
  9
$DIMALTTZ
 70
     0
  9
$DIMUPT
 70
     0
  9
$DIMDEC
 70
     4
  9
$DIMTDEC
 70
     4
  9
$DIMALTU
 70
     2
  9
$DIMALTTD
 70
     2
  9
$DIMTXSTY
  7
STANDARD
  9
$DIMAUNIT
 70
     0
  9
$DIMADEC
 70
     0
  9
$DIMALTRND
 40
0.0
  9
$DIMAZIN
 70
     0
  9
$DIMDSEP
 70
    46
  9
$DIMATFIT
 70
     0
  9
$DIMFRAC
 70
     0
  9
$DIMLDRBLK
  1

  9
$DIMLUNIT
 70
     2
  9
$DIMLWD
 70
    -2
  9
$DIMLWE
 70
    -2
  9
$DIMTMOVE
 70
     0
  9
$LUNITS
 70
     2
  9
$LUPREC
 70
     4
  9
$SKETCHINC
 40
0.1
  9
$FILLETRAD
 40
0.125
  9
$AUNITS
 70
     0
  9
$AUPREC
 70
     0
  9
$MENU
  1
.
  9
$ELEVATION
 40
0.0
  9
$PELEVATION
 40
0.0
  9
$THICKNESS
 40
0.0
  9
$LIMCHECK
 70
     0
  9
$CHAMFERA
 40
0.125
  9
$CHAMFERB
 40
0.125
  9
$CHAMFERC
 40
0.0
  9
$CHAMFERD
 40
0.0
  9
$SKPOLY
 70
     0
  9
$TDCREATE
 40
0.000000000
  9
$TDUCREATE
 40
0.000000000
  9
$TDUPDATE
 40
0.000000000
  9
$TDUUPDATE
 40
0.000000000
  9
$TDINDWG
 40
0.0000000000
  9
$TDUSRTIMER
 40
0.0000000000
  9
$USRTIMER
 70
     1
  9
$ANGBASE
 50
0.0
  9
$ANGDIR
 70
     0
  9
$PDMODE
 70
     0
  9
$PDSIZE
 40
0.0
  9
$PLINEWID
 40
0.0
  9
$SPLFRAME
 70
     0
  9
$SPLINETYPE
 70
     6
  9
$SPLINESEGS
 70
     8
  9
$HANDSEED
  5
58B
  9
$SURFTAB1
 70
     6
  9
$SURFTAB2
 70
     6
  9
$SURFTYPE
 70
     6
  9
$SURFU
 70
     6
  9
$SURFV
 70
     6
  9
$UCSBASE
  2

  9
$UCSNAME
  2

  9
$UCSORG
 10
0.0
 20
0.0
 30
0.0
  9
$UCSXDIR
 10
1.0
 20
0.0
 30
0.0
  9
$UCSYDIR
 10
0.0
 20
1.0
 30
0.0
  9
$UCSORTHOREF
  2

  9
$UCSORTHOVIEW
 70
     1
  9
$UCSORGTOP
 10
0.0
 20
0.0
 30
0.0
  9
$UCSORGBOTTOM
 10
0.0
 20
0.0
 30
0.0
  9
$UCSORGLEFT
 10
0.0
 20
0.0
 30
0.0
  9
$UCSORGRIGHT
 10
0.0
 20
0.0
 30
0.0
  9
$UCSORGFRONT
 10
0.0
 20
0.0
 30
0.0
  9
$UCSORGBACK
 10
0.0
 20
0.0
 30
0.0
  9
$PUCSBASE
  2

  9
$PUCSNAME
  2

  9
$PUCSORG
 10
0.0
 20
0.0
 30
0.0
  9
$PUCSXDIR
 10
1.0
 20
0.0
 30
0.0
  9
$PUCSYDIR
 10
0.0
 20
1.0
 30
0.0
  9
$PUCSORTHOREF
  2

  9
$PUCSORTHOVIEW
 70
     0
  9
$PUCSORGTOP
 10
0.0
 20
0.0
 30
0.0
  9
$PUCSORGBOTTOM
 10
0.0
 20
0.0
 30
0.0
  9
$PUCSORGLEFT
 10
0.0
 20
0.0
 30
0.0
  9
$PUCSORGRIGHT
 10
0.0
 20
0.0
 30
0.0
  9
$PUCSORGFRONT
 10
0.0
 20
0.0
 30
0.0
  9
$PUCSORGBACK
 10
0.0
 20
0.0
 30
0.0
  9
$USERI1
 70
     0
  9
$USERI2
 70
     0
  9
$USERI3
 70
     0
  9
$USERI4
 70
     0
  9
$USERI5
 70
     0
  9
$USERR1
 40
0.0
  9
$USERR2
 40
0.0
  9
$USERR3
 40
0.0
  9
$USERR4
 40
0.0
  9
$USERR5
 40
0.0
  9
$WORLDVIEW
 70
     1
  9
$SHADEDGE
 70
     3
  9
$SHADEDIF
 70
    70
  9
$TILEMODE
 70
     1
  9
$MAXACTVP
 70
    48
  9
$PINSBASE
 10
0.0
 20
0.0
 30
0.0
  9
$PLIMCHECK
 70
     0
  9
$PEXTMIN
 10
0.0
 20
0.0
 30
0.0
  9
$PEXTMAX
 10
164.460831
 20
2.948422
 30
2.0
  9
$PLIMMIN
 10
0.0
 20
0.0
  9
$PLIMMAX
 10
12.0
 20
9.0
  9
$UNITMODE
 70
     0
  9
$VISRETAIN
 70
     0
  9
$PLINEGEN
 70
     0
  9
$PSLTSCALE
 70
     1
  9
$TREEDEPTH
 70
  3020
  9
$CMLSTYLE
  2
Standard
  9
$CMLJUST
 70
     0
  9
$CMLSCALE
 40
1.0
  9
$PROXYGRAPHICS
 70
     1
  9
$MEASUREMENT
 70
     0
  9
$CELWEIGHT
370
    -1
  9
$ENDCAPS
280
     0
  9
$JOINSTYLE
280
     0
  9
$LWDISPLAY
290
     0
  9
$INSUNITS
 70
     0
  9
$HYPERLINKBASE
  1

  9
$STYLESHEET
  1

  9
$XEDIT
290
     1
  9
$CEPSNTYPE
380
     0
  9
$PSTYLEMODE
290
     0
  9
$FINGERPRINTGUID
  2

  9
$VERSIONGUID
  2

  9
$EXTNAMES
290
     0
  9
$PSVPSCALE
 40
0.0
  0
ENDSEC
  0
SECTION
  2
CLASSES
  0
CLASS
  1
LWPOLYLINE
  2
AcDbPolyline
  3
AutoCAD 2000
 90
        0
280
     0
281
     1
  0
CLASS
  1
IMAGE
  2
AcDbRasterImage
  3
ISM
 90
      127
280
     0
281
     1
  0
CLASS
  1
OLE2FRAME
  2
AcDbOle2Frame
  3
AutoCAD 2000
 90
        0
280
     0
281
     1
  0
CLASS
  1
HATCH
  2
AcDbHatch
  3
AutoCAD 2000
 90
        0
280
     0
281
     1
  0
CLASS
  1
DICTIONARYVAR
  2
AcDbDictionaryVar
  3
AutoCAD 2000
 90
        0
280
     0
281
     0
  0
CLASS
  1
RASTERVARIABLES
  2
AcDbRasterVariables
  3
ISM
 90
        0
280
     0
281
     0
  0
CLASS
  1
IMAGEDEF
  2
AcDbRasterImageDef
  3
ISM
 90
        0
280
     0
281
     0
  0
CLASS
  1
IMAGEDEF_REACTOR
  2
AcDbRasterImageDefReactor
  3
ISM
 90
        1
280
     0
281
     0
  0
CLASS
  1
IDBUFFER
  2
AcDbIdBuffer
  3
AutoCAD 2000
 90
        0
280
     0
281
     0
  0
CLASS
  1
SPATIAL_FILTER
  2
AcDbSpatialFilter
  3
AutoCAD 2000
 90
        0
280
     0
281
     0
  0
CLASS
  1
XRECORD
  2
AcDbXrecord
  3
AutoCAD 2000
 90
        0
280
     0
281
     0
  0
CLASS
  1
SORTENTSTABLE
  2
AcDbSortentsTable
  3
AutoCAD 2000
 90
        0
280
     0
281
     0
  0
CLASS
  1
LAYER_INDEX
  2
AcDbLayerIndex
  3
AutoCAD 2000
 90
        0
280
     0
281
     0
  0
CLASS
  1
SPATIAL_INDEX
  2
AcDbSpatialIndex
  3
AutoCAD 2000
 90
        0
280
     0
281
     0
  0
CLASS
  1
OBJECT_PTR
  2
CAseDLPNTableRecord
  3
"ASE-LPNTableRecord"
 90
        1
280
     0
281
     0
  0
CLASS
  1
LAYOUT
  2
AcDbLayout
  3
AutoCAD 2000
 90
        0
280
     0
281
     0
  0
CLASS
  1
PLOTSETTINGS
  2
AcDbPlotSettings
  3
AutoCAD 2000
 90
        0
280
     0
281
     0
  0
CLASS
  1
ACDBDICTIONARYWDFLT
  2
AcDbDictionaryWithDefault
  3
AutoCAD 2000
 90
        0
280
     0
281
     0
  0
CLASS
  1
ACDBPLACEHOLDER
  2
AcDbPlaceHolder
  3
AutoCAD 2000
 90
        0
280
     0
281
     0
  0
CLASS
  1
VBA_PROJECT
  2
AcDbVbaProject
  3
acadvba
 90
        0
280
     0
281
     0
  0
CLASS
  1
WIPEOUT
  2
AcDbWipeout
  3
WipeOut|AutoCAD Express Tool|expresstools@autodesk.com
 90
      127
280
     0
281
     1
  0
CLASS
  1
WIPEOUTVARIABLES
  2
AcDbWipeoutVariables
  3
WipeOut|AutoCAD Express Tool|expresstools@autodesk.com
 90
        0
280
     0
281
     0
  0
CLASS
  1
RTEXT
  2
RText
  3
RText|AutoCAD Express Tool|expresstools@autodesk.com
 90
        0
280
     0
281
     1
  0
CLASS
  1
ARCALIGNEDTEXT
  2
AcDbArcAlignedText
  3
ATEXT|AutoCAD Express Tool|expresstools@autodesk.com
 90
        0
280
     0
281
     1
  0
ENDSEC
  0
SECTION
  2
TABLES
  0
TABLE
  2
VPORT
  5
7
100
AcDbSymbolTable
 70
     1
  0
VPORT
  5
15
100
AcDbSymbolTableRecord
100
AcDbViewportTableRecord
  2
*ACTIVE
 70
     0
 10
0.0
 20
0.0
 11
1.0
 21
1.0
 12
6.591288
 22
4.579184
 13
0.0
 23
0.0
 14
1.0
 24
1.0
 15
0.0
 25
0.0
 16
0.0
 26
0.0
 36
1.0
 17
0.0
 27
0.0
 37
0.0
 40
9.158369
 41
0.688564
 42
50.0
 43
0.0
 44
0.0
 50
0.0
 51
0.0
 71
     0
 72
   100
 73
     1
 74
     1
 75
     0
 76
     0
 77
     0
 78
     0
281
     0
 65
     0
110
0.0
120
0.0
130
0.0
111
1.0
121
0.0
131
0.0
112
0.0
122
1.0
132
0.0
345
0
346
0
 79
     0
146
0.0
  0
ENDTAB
  0
TABLE
  2
LTYPE
  5
4
100
AcDbSymbolTable
 70
     4
  0
LTYPE
  5
11
100
AcDbSymbolTableRecord
100
AcDbLinetypeTableRecord
  2
ByBlock
 70
    64
  3

 72
    65
 73
     0
 40
0.0
  0
LTYPE
  5
12
100
AcDbSymbolTableRecord
100
AcDbLinetypeTableRecord
  2
ByLayer
 70
    64
  3

 72
    65
 73
     0
 40
0.0
  0
LTYPE
  5
13
100
AcDbSymbolTableRecord
100
AcDbLinetypeTableRecord
  2
Continuous
 70
    64
  3
Solid line
 72
    65
 73
     0
 40
0.0
  0
LTYPE
  5
24
100
AcDbSymbolTableRecord
100
AcDbLinetypeTableRecord
  2
DASHDOT
 70
     0
  3
 __ . __ . __ . __ . __ . __ . __ . 
 72
    65
 73
     4
 40
18.5
 49
12.0
 74
     0
 49
-3.0
 74
     0
 49
0.5
 74
     0
 49
-3.0
 74
     0
  0
ENDTAB
  0
TABLE
  2
LAYER
  5
2
100
AcDbSymbolTable
 70
     2
  0
LAYER
  5
14
100
AcDbSymbolTableRecord
100
AcDbLayerTableRecord
  2
0
 70
     0
 62
     7
  6
Continuous
290
     1
370
    13
390
1D
  0
LAYER
  5
25
100
AcDbSymbolTableRecord
100
AcDbLayerTableRecord
  2
1
 70
     0
 62
     7
  6
Continuous
290
     1
370
    13
390
1D
  0
ENDTAB
  0
TABLE
  2
STYLE
  5
3
100
AcDbSymbolTable
 70
     2
  0
STYLE
  5
17
100
AcDbSymbolTableRecord
100
AcDbTextStyleTableRecord
  2
STANDARD
 70
     0
 40
0.0
 41
1.0
 50
0.0
 71
     0
 42
0.0
  3
isocp.shx
  4

  0
STYLE
  5
26
100
AcDbSymbolTableRecord
100
AcDbTextStyleTableRecord
  2
GDT
 70
     0
 40
0.0
 41
1.0
 50
0.0
 71
     0
 42
0.0
  3
gdt.shx
  4

  0
ENDTAB
  0
TABLE
  2
VIEW
  5
5
100
AcDbSymbolTable
 70
     0
  0
ENDTAB
  0
TABLE
  2
UCS
  5
6
100
AcDbSymbolTable
 70
     0
  0
ENDTAB
  0
TABLE
  2
APPID
  5
8
100
AcDbSymbolTable
 70
     1
  0
APPID
  5
16
100
AcDbSymbolTableRecord
100
AcDbRegAppTableRecord
  2
ACAD
 70
     0
  0
ENDTAB
  0
TABLE
  2
DIMSTYLE
  5
9
100
AcDbSymbolTable
 70
     1
100
AcDbDimStyleTable
 71
     0
  0
DIMSTYLE
105
18
100
AcDbSymbolTableRecord
100
AcDbDimStyleTableRecord
  2
STANDARD
 70
     0
  3

  4

 40
1.0
 41
0.18
 42
0.0625
 43
0.38
 44
0.18
 45
0.0
 46
0.0
 47
0.0
 48
0.0
 71
     0
 72
     0
 73
     1
 74
     1
 75
     0
 76
     0
 77
     0
 78
     0
 79
     0
140
0.18
141
0.09
142
0.0
143
25.4
144
1.0
145
0.0
146
1.0
147
0.09
148
0.0
170
     0
171
     2
172
     0
173
     0
174
     0
175
     0
176
     0
177
     0
178
     0
179
     0
271
     4
272
     4
273
     2
274
     2
275
     0
276
     0
277
     2
278
    46
279
     0
280
     0
281
     0
282
     0
283
     1
284
     0
285
     0
286
     0
288
     0
289
     0
340
0
341
0
342
0
343
0
344
0
371
    -2
372
    -2
  0
ENDTAB
  0
TABLE
  2
BLOCK_RECORD
  5
1
100
AcDbSymbolTable
 70
    19
  0
BLOCK_RECORD
  5
A
100
AcDbSymbolTableRecord
100
AcDbBlockTableRecord
  2
*MODEL_SPACE
340
20
  0
BLOCK_RECORD
  5
B
100
AcDbSymbolTableRecord
100
AcDbBlockTableRecord
  2
*PAPER_SPACE
340
21
  0
BLOCK_RECORD
  5
3B4
100
AcDbSymbolTableRecord
100
AcDbBlockTableRecord
  2
BLOCK1
340
0
102
{BLKREFS
331
578
102
}
  0
BLOCK_RECORD
  5
3B5
100
AcDbSymbolTableRecord
100
AcDbBlockTableRecord
  2
BLOCK2
340
0
102
{BLKREFS
331
579
102
}
  0
BLOCK_RECORD
  5
3B6
100
AcDbSymbolTableRecord
100
AcDbBlockTableRecord
  2
BLOCK3
340
0
102
{BLKREFS
331
57A
102
}
  0
BLOCK_RECORD
  5
3B7
100
AcDbSymbolTableRecord
100
AcDbBlockTableRecord
  2
BLOCK4
340
0
102
{BLKREFS
331
57B
102
}
  0
BLOCK_RECORD
  5
3B8
100
AcDbSymbolTableRecord
100
AcDbBlockTableRecord
  2
BLOCK5
340
0
102
{BLKREFS
331
57C
102
}
  0
BLOCK_RECORD
  5
3B9
100
AcDbSymbolTableRecord
100
AcDbBlockTableRecord
  2
BLOCK6
340
0
102
{BLKREFS
331
57D
102
}
  0
BLOCK_RECORD
  5
3BA
100
AcDbSymbolTableRecord
100
AcDbBlockTableRecord
  2
BLOCK7
340
0
102
{BLKREFS
331
57E
102
}
  0
BLOCK_RECORD
  5
3BB
100
AcDbSymbolTableRecord
100
AcDbBlockTableRecord
  2
BLOCK8
340
0
102
{BLKREFS
331
57F
102
}
  0
BLOCK_RECORD
  5
3BC
100
AcDbSymbolTableRecord
100
AcDbBlockTableRecord
  2
BLOCK9
340
0
102
{BLKREFS
331
580
102
}
  0
BLOCK_RECORD
  5
3BD
100
AcDbSymbolTableRecord
100
AcDbBlockTableRecord
  2
BLOCK10
340
0
102
{BLKREFS
331
581
102
}
  0
BLOCK_RECORD
  5
3BE
100
AcDbSymbolTableRecord
100
AcDbBlockTableRecord
  2
BLOCK11
340
0
102
{BLKREFS
331
582
102
}
  0
BLOCK_RECORD
  5
3BF
100
AcDbSymbolTableRecord
100
AcDbBlockTableRecord
  2
BLOCK12
340
0
102
{BLKREFS
331
583
102
}
  0
BLOCK_RECORD
  5
3C0
100
AcDbSymbolTableRecord
100
AcDbBlockTableRecord
  2
BLOCK13
340
0
102
{BLKREFS
331
584
102
}
  0
BLOCK_RECORD
  5
3C1
100
AcDbSymbolTableRecord
100
AcDbBlockTableRecord
  2
BLOCK14
340
0
102
{BLKREFS
331
585
102
}
  0
BLOCK_RECORD
  5
3C2
100
AcDbSymbolTableRecord
100
AcDbBlockTableRecord
  2
BLOCK15
340
0
102
{BLKREFS
331
586
102
}
  0
BLOCK_RECORD
  5
3C3
100
AcDbSymbolTableRecord
100
AcDbBlockTableRecord
  2
BLOCK16
340
0
102
{BLKREFS
331
587
102
}
  0
BLOCK_RECORD
  5
3C4
100
AcDbSymbolTableRecord
100
AcDbBlockTableRecord
  2
BLOCK17
340
0
102
{BLKREFS
331
588
102
}
  0
BLOCK_RECORD
  5
3C5
100
AcDbSymbolTableRecord
100
AcDbBlockTableRecord
  2
BLOCK18
340
0
102
{BLKREFS
331
589
102
}
  0
BLOCK_RECORD
  5
3C6
100
AcDbSymbolTableRecord
100
AcDbBlockTableRecord
  2
BLOCK19
340
0
102
{BLKREFS
331
58A
102
}
  0
ENDTAB
  0
ENDSEC
  0
SECTION
  2
BLOCKS
  0
BLOCK
  5
D
100
AcDbEntity
  8
0
390
0
100
AcDbBlockBegin
  2
*MODEL_SPACE
 70
     0
 10
0.0
 20
0.0
 30
0.0
  3
*MODEL_SPACE
  1

  0
ENDBLK
  5
E
100
AcDbEntity
  8
0
390
0
100
AcDbBlockEnd
  0
BLOCK
  5
F
100
AcDbEntity
 67
     1
  8
0
390
0
100
AcDbBlockBegin
  2
*PAPER_SPACE
 70
     0
 10
0.0
 20
0.0
 30
0.0
  3
*PAPER_SPACE
  1

  0
ENDBLK
  5
10
100
AcDbEntity
 67
     1
  8
0
390
0
100
AcDbBlockEnd
  0
BLOCK
  5
3C7
100
AcDbEntity
  8
0
370
     0
390
0
100
AcDbBlockBegin
  2
BLOCK1
 70
     0
 10
0.0
 20
0.0
 30
0.0
  3
BLOCK1
  1

  0
TEXT
  5
3C8
100
AcDbEntity
  8
0
370
    13
390
0
 62
     7
 48
0.03937
100
AcDbText
 10
8.745479
 20
1.043156
 30
0.0
 40
0.098425
  1
SIZE 
 72
     5
 11
9.119436
 21
1.043156
 31
0.0
100
AcDbText
  0
TEXT
  5
3C9
100
AcDbEntity
  8
0
370
    13
390
0
 62
     7
 48
0.03937
100
AcDbText
 10
9.120936
 20
1.043156
 30
0.0
 40
0.098425
  1
3
 72
     5
 11
9.192053
 21
1.043156
 31
0.0
100
AcDbText
  0
TEXT
  5
3CA
100
AcDbEntity
  8
0
370
    13
390
0
 62
     7
 48
0.03937
100
AcDbText
 10
9.193553
 20
1.043156
 30
0.0
 40
0.098425
  1
 INCH ID
 72
     5
 11
9.824899
 21
1.043156
 31
0.0
100
AcDbText
  0
ENDBLK
  5
3CB
100
AcDbEntity
  8
0
390
0
100
AcDbBlockEnd
  0
BLOCK
  5
3CC
100
AcDbEntity
  8
0
370
     0
390
0
100
AcDbBlockBegin
  2
BLOCK2
 70
     0
 10
0.0
 20
0.0
 30
0.0
  3
BLOCK2
  1

  0
TEXT
  5
3CD
100
AcDbEntity
  8
0
370
    13
390
0
 62
     7
 48
0.03937
100
AcDbText
 10
10.093103
 20
0.689966
 30
0.0
 40
0.06
  1
PO Box 2889
 72
     5
 11
10.730818
 21
0.689966
 31
0.0
100
AcDbText
  0
TEXT
  5
3CE
100
AcDbEntity
  8
0
370
    13
390
0
 62
     7
 48
0.03937
100
AcDbText
 10
9.686702
 20
0.589966
 30
0.0
 40
0.06
  1
Pearland, TX 77588
 72
     5
 11
10.730818
 21
0.589966
 31
0.0
100
AcDbText
  0
TEXT
  5
3CF
100
AcDbEntity
  8
0
370
    13
390
0
 62
     7
 48
0.03937
100
AcDbText
 10
9.802816
 20
0.489966
 30
0.0
 40
0.06
  1
PH: 800-826-3801
 72
     5
 11
10.730818
 21
0.489966
 31
0.0
100
AcDbText
  0
TEXT
  5
3D0
100
AcDbEntity
  8
0
370
    13
390
0
 62
     7
 48
0.03937
100
AcDbText
 10
9.744759
 20
0.389966
 30
0.0
 40
0.06
  1
FAX: 281-484-8730
 72
     5
 11
10.730818
 21
0.389966
 31
0.0
100
AcDbText
  0
TEXT
  5
3D1
100
AcDbEntity
  8
0
370
    13
390
0
 62
     7
 48
0.03937
100
AcDbText
 10
9.628644
 20
0.289966
 30
0.0
 40
0.06
  1
www.texasflange.com
 72
     5
 11
10.730818
 21
0.289966
 31
0.0
100
AcDbText
  0
ENDBLK
  5
3D2
100
AcDbEntity
  8
0
390
0
100
AcDbBlockEnd
  0
BLOCK
  5
3D3
100
AcDbEntity
  8
0
370
     0
390
0
100
AcDbBlockBegin
  2
BLOCK3
 70
     0
 10
0.0
 20
0.0
 30
0.0
  3
BLOCK3
  1

  0
TEXT
  5
3D4
100
AcDbEntity
  8
0
370
    13
390
0
 62
     7
 48
0.03937
100
AcDbText
 10
8.289209
 20
0.587871
 30
0.0
 40
0.2
  1
Texas
 72
     5
 11
9.383692
 21
0.587871
 31
0.0
100
AcDbText
  0
TEXT
  5
3D5
100
AcDbEntity
  8
0
370
    13
390
0
 62
     7
 48
0.03937
100
AcDbText
 10
8.289209
 20
0.327871
 30
0.0
 40
0.2
  1
Flange
 72
     5
 11
9.608945
 21
0.327871
 31
0.0
100
AcDbText
  0
ENDBLK
  5
3D6
100
AcDbEntity
  8
0
390
0
100
AcDbBlockEnd
  0
BLOCK
  5
3D7
100
AcDbEntity
  8
0
370
     0
390
0
100
AcDbBlockBegin
  2
BLOCK4
 70
     0
 10
0.0
 20
0.0
 30
0.0
  3
BLOCK4
  1

  0
LINE
  5
3D8
100
AcDbEntity
  8
0
370
     5
390
0
 62
     7
 48
0.00324
100
AcDbLine
 10
8.029831
 20
0.605292
 30
0.0
 11
7.900255
 21
0.604209
 31
0.0
210
0.0
220
0.0
230
1.0
  0
LINE
  5
3D9
100
AcDbEntity
  8
0
370
     5
390
0
 62
     7
 48
0.000103
100
AcDbLine
 10
7.900255
 20
0.604209
 30
0.0
 11
7.902151
 21
0.600546
 31
0.0
210
0.0
220
0.0
230
1.0
  0
LINE
  5
3DA
100
AcDbEntity
  8
0
370
     5
390
0
 62
     7
 48
0.0001
100
AcDbLine
 10
7.902151
 20
0.600546
 30
0.0
 11
7.903945
 21
0.596951
 31
0.0
210
0.0
220
0.0
230
1.0
  0
LINE
  5
3DB
100
AcDbEntity
  8
0
370
     5
390
0
 62
     7
 48
0.000098
100
AcDbLine
 10
7.903945
 20
0.596951
 30
0.0
 11
7.905638
 21
0.593424
 31
0.0
210
0.0
220
0.0
230
1.0
  0
LINE
  5
3DC
100
AcDbEntity
  8
0
370
     5
390
0
 62
     7
 48
0.000095
100
AcDbLine
 10
7.905638
 20
0.593424
 30
0.0
 11
7.907229
 21
0.589967
 31
0.0
210
0.0
220
0.0
230
1.0
  0
LINE
  5
3DD
100
AcDbEntity
  8
0
370
     5
390
0
 62
     7
 48
0.000093
100
AcDbLine
 10
7.907229
 20
0.589967
 30
0.0
 11
7.908719
 21
0.58658
 31
0.0
210
0.0
220
0.0
230
1.0
  0
LINE
  5
3DE
100
AcDbEntity
  8
0
370
     5
390
0
 62
     7
 48
0.00009
100
AcDbLine
 10
7.908719
 20
0.58658
 30
0.0
 11
7.910106
 21
0.583262
 31
0.0
210
0.0
220
0.0
230
1.0
  0
LINE
  5
3DF
100
AcDbEntity
  8
0
370
     5
390
0
 62
     7
 48
0.000087
100
AcDbLine
 10
7.910106
 20
0.583262
 30
0.0
 11
7.911392
 21
0.580013
 31
0.0
210
0.0
220
0.0
230
1.0
  0
LINE
  5
3E0
100
AcDbEntity
  8
0
370
     5
390
0
 62
     7
 48
0.000085
100
AcDbLine
 10
7.911392
 20
0.580013
 30
0.0
 11
7.912577
 21
0.576833
 31
0.0
210
0.0
220
0.0
230
1.0
  0
LINE
  5
3E1
100
AcDbEntity
  8
0
370
     5
390
0
 62
     7
 48
0.000082
100
AcDbLine
 10
7.912577
 20
0.576833
 30
0.0
 11
7.913659
 21
0.573722
 31
0.0
210
0.0
220
0.0
230
1.0
  0
LINE
  5
3E2
100
AcDbEntity
  8
0
370
     5
390
0
 62
     7
 48
0.000095
100
AcDbLine
 10
7.913659
 20
0.573722
 30
0.0
 11
7.915938
 21
0.570681
 31
0.0
210
0.0
220
0.0
230
1.0
  0
LINE
  5
3E3
100
AcDbEntity
  8
0
370
     5
390
0
 62
     7
 48
0.000066
100
AcDbLine
 10
7.915938
 20
0.570681
 30
0.0
 11
7.916123
 21
0.573306
 31
0.0
210
0.0
220
0.0
230
1.0
  0
LINE
  5
3E4
100
AcDbEntity
  8
0
370
     5
390
0
 62
     7
 48
0.000062
100
AcDbLine
 10
7.916123
 20
0.573306
 30
0.0
 11
7.916418
 21
0.575775
 31
0.0
210
0.0
220
0.0
230
1.0
  0
LINE
  5
3E5
100
AcDbEntity
  8
0
370
     5
390
0
 62
     7
 48
0.000059
100
AcDbLine
 10
7.916418
 20
0.575775
 30
0.0
 11
7.916824
 21
0.578087
 31
0.0
210
0.0
220
0.0
230
1.0
  0
LINE
  5
3E6
100
AcDbEntity
  8
0
370
     5
390
0
 62
     7
 48
0.000055
100
AcDbLine
 10
7.916824
 20
0.578087
 30
0.0
 11
7.917339
 21
0.580242
 31
0.0
210
0.0
220
0.0
230
1.0
  0
LINE
  5
3E7
100
AcDbEntity
  8
0
370
     5
390
0
 62
     7
 48
0.000052
100
AcDbLine
 10
7.917339
 20
0.580242
 30
0.0
 11
7.917966
 21
0.58224
 31
0.0
210
0.0
220
0.0
230
1.0
  0
LINE
  5
3E8
100
AcDbEntity
  8
0
370
     5
390
0
 62
     7
 48
0.00005
100
AcDbLine
 10
7.917966
 20
0.58224
 30
0.0
 11
7.918703
 21
0.584081
 31
0.0
210
0.0
220
0.0
230
1.0
  0
LINE
  5
3E9
100
AcDbEntity
  8
0
370
     5
390
0
 62
     7
 48
0.000047
100
AcDbLine
 10
7.918703
 20
0.584081
 30
0.0
 11
7.919549
 21
0.585767
 31
0.0
210
0.0
220
0.0
230
1.0
  0
LINE
  5
3EA
100
AcDbEntity
  8
0
370
     5
390
0
 62
     7
 48
0.000045
100
AcDbLine
 10
7.919549
 20
0.585767
 30
0.0
 11
7.920506
 21
0.587294
 31
0.0
210
0.0
220
0.0
230
1.0
  0
LINE
  5
3EB
100
AcDbEntity
  8
0
370
     5
390
0
 62
     7
 48
0.000043
100
AcDbLine
 10
7.920506
 20
0.587294
 30
0.0
 11
7.921574
 21
0.588665
 31
0.0
210
0.0
220
0.0
230
1.0
  0
LINE
  5
3EC
100
AcDbEntity
  8
0
370
     5
390
0
 62
     7
 48
0.000042
100
AcDbLine
 10
7.921574
 20
0.588665
 30
0.0
 11
7.922751
 21
0.58988
 31
0.0
210
0.0
220
0.0
230
1.0
  0
LINE
  5
3ED
100
AcDbEntity
  8
0
370
     5
390
0
 62
     7
 48
0.000042
100
AcDbLine
 10
7.922751
 20
0.58988
 30
0.0
 11
7.924063
 21
0.590958
 31
0.0
210
0.0
220
0.0
230
1.0
  0
LINE
  5
3EE
100
AcDbEntity
  8
0
370
     5
390
0
 62
     7
 48
0.000044
100
AcDbLine
 10
7.924063
 20
0.590958
 30
0.0
 11
7.92553
 21
0.591923
 31
0.0
210
0.0
220
0.0
230
1.0
  0
LINE
  5
3EF
100
AcDbEntity
  8
0
370
     5
390
0
 62
     7
 48
0.000046
100
AcDbLine
 10
7.92553
 20
0.591923
 30
0.0
 11
7.927152
 21
0.592775
 31
0.0
210
0.0
220
0.0
230
1.0
  0
LINE
  5
3F0
100
AcDbEntity
  8
0
370
     5
390
0
 62
     7
 48
0.000048
100
AcDbLine
 10
7.927152
 20
0.592775
 30
0.0
 11
7.92893
 21
0.593513
 31
0.0
210
0.0
220
0.0
230
1.0
  0
LINE
  5
3F1
100
AcDbEntity
  8
0
370
     5
390
0
 62
     7
 48
0.000051
100
AcDbLine
 10
7.92893
 20
0.593513
 30
0.0
 11
7.930864
 21
0.594138
 31
0.0
210
0.0
220
0.0
230
1.0
  0
LINE
  5
3F2
100
AcDbEntity
  8
0
370
     5
390
0
 62
     7
 48
0.000054
100
AcDbLine
 10
7.930864
 20
0.594138
 30
0.0
 11
7.932953
 21
0.594648
 31
0.0
210
0.0
220
0.0
230
1.0
  0
LINE
  5
3F3
100
AcDbEntity
  8
0
370
     5
390
0
 62
     7
 48
0.000057
100
AcDbLine
 10
7.932953
 20
0.594648
 30
0.0
 11
7.9352
 21
0.595046
 31
0.0
210
0.0
220
0.0
230
1.0
  0
LINE
  5
3F4
100
AcDbEntity
  8
0
370
     5
390
0
 62
     7
 48
0.00006
100
AcDbLine
 10
7.9352
 20
0.595046
 30
0.0
 11
7.9376
 21
0.595331
 31
0.0
210
0.0
220
0.0
230
1.0
  0
LINE
  5
3F5
100
AcDbEntity
  8
0
370
     5
390
0
 62
     7
 48
0.000064
100
AcDbLine
 10
7.9376
 20
0.595331
 30
0.0
 11
7.940158
 21
0.5955
 31
0.0
210
0.0
220
0.0
230
1.0
  0
LINE
  5
3F6
100
AcDbEntity
  8
0
370
     5
390
0
 62
     7
 48
0.000068
100
AcDbLine
 10
7.940158
 20
0.5955
 30
0.0
 11
7.94287
 21
0.595557
 31
0.0
210
0.0
220
0.0
230
1.0
  0
LINE
  5
3F7
100
AcDbEntity
  8
0
370
     5
390
0
 62
     7
 48
0.00005
100
AcDbLine
 10
7.94287
 20
0.595557
 30
0.0
 11
7.944881
 21
0.595532
 31
0.0
210
0.0
220
0.0
230
1.0
  0
LINE
  5
3F8
100
AcDbEntity
  8
0
370
     5
390
0
 62
     7
 48
0.000051
100
AcDbLine
 10
7.944881
 20
0.595532
 30
0.0
 11
7.946936
 21
0.595454
 31
0.0
210
0.0
220
0.0
230
1.0
  0
LINE
  5
3F9
100
AcDbEntity
  8
0
370
     5
390
0
 62
     7
 48
0.000053
100
AcDbLine
 10
7.946936
 20
0.595454
 30
0.0
 11
7.949034
 21
0.595323
 31
0.0
210
0.0
220
0.0
230
1.0
  0
LINE
  5
3FA
100
AcDbEntity
  8
0
370
     5
390
0
 62
     7
 48
0.000054
100
AcDbLine
 10
7.949034
 20
0.595323
 30
0.0
 11
7.951177
 21
0.595142
 31
0.0
210
0.0
220
0.0
230
1.0
  0
LINE
  5
3FB
100
AcDbEntity
  8
0
370
     5
390
0
 62
     7
 48
0.000055
100
AcDbLine
 10
7.951177
 20
0.595142
 30
0.0
 11
7.953361
 21
0.594908
 31
0.0
210
0.0
220
0.0
230
1.0
  0
LINE
  5
3FC
100
AcDbEntity
  8
0
370
     5
390
0
 62
     7
 48
0.000136
100
AcDbLine
 10
7.953361
 20
0.594908
 30
0.0
 11
7.952171
 21
0.589608
 31
0.0
210
0.0
220
0.0
230
1.0
  0
LINE
  5
3FD
100
AcDbEntity
  8
0
370
     5
390
0
 62
     7
 48
0.000162
100
AcDbLine
 10
7.952171
 20
0.589608
 30
0.0
 11
7.945682
 21
0.589716
 31
0.0
210
0.0
220
0.0
230
1.0
  0
LINE
  5
3FE
100
AcDbEntity
  8
0
370
     5
390
0
 62
     7
 48
0.00006
100
AcDbLine
 10
7.945682
 20
0.589716
 30
0.0
 11
7.943286
 21
0.589667
 31
0.0
210
0.0
220
0.0
230
1.0
  0
LINE
  5
3FF
100
AcDbEntity
  8
0
370
     5
390
0
 62
     7
 48
0.000057
100
AcDbLine
 10
7.943286
 20
0.589667
 30
0.0
 11
7.941029
 21
0.589518
 31
0.0
210
0.0
220
0.0
230
1.0
  0
LINE
  5
400
100
AcDbEntity
  8
0
370
     5
390
0
 62
     7
 48
0.000053
100
AcDbLine
 10
7.941029
 20
0.589518
 30
0.0
 11
7.938912
 21
0.589269
 31
0.0
210
0.0
220
0.0
230
1.0
  0
LINE
  5
401
100
AcDbEntity
  8
0
370
     5
390
0
 62
     7
 48
0.00005
100
AcDbLine
 10
7.938912
 20
0.589269
 30
0.0
 11
7.936934
 21
0.588921
 31
0.0
210
0.0
220
0.0
230
1.0
  0
LINE
  5
402
100
AcDbEntity
  8
0
370
     5
390
0
 62
     7
 48
0.000047
100
AcDbLine
 10
7.936934
 20
0.588921
 30
0.0
 11
7.935095
 21
0.588473
 31
0.0
210
0.0
220
0.0
230
1.0
  0
LINE
  5
403
100
AcDbEntity
  8
0
370
     5
390
0
 62
     7
 48
0.000045
100
AcDbLine
 10
7.935095
 20
0.588473
 30
0.0
 11
7.933397
 21
0.587925
 31
0.0
210
0.0
220
0.0
230
1.0
  0
LINE
  5
404
100
AcDbEntity
  8
0
370
     5
390
0
 62
     7
 48
0.000042
100
AcDbLine
 10
7.933397
 20
0.587925
 30
0.0
 11
7.931839
 21
0.587279
 31
0.0
210
0.0
220
0.0
230
1.0
  0
LINE
  5
405
100
AcDbEntity
  8
0
370
     5
390
0
 62
     7
 48
0.00004
100
AcDbLine
 10
7.931839
 20
0.587279
 30
0.0
 11
7.930418
 21
0.586532
 31
0.0
210
0.0
220
0.0
230
1.0
  0
LINE
  5
406
100
AcDbEntity
  8
0
370
     5
390
0
 62
     7
 48
0.000038
100
AcDbLine
 10
7.930418
 20
0.586532
 30
0.0
 11
7.929138
 21
0.585687
 31
0.0
210
0.0
220
0.0
230
1.0
  0
LINE
  5
407
100
AcDbEntity
  8
0
370
     5
390
0
 62
     7
 48
0.000074
100
AcDbLine
 10
7.929138
 20
0.585687
 30
0.0
 11
7.926968
 21
0.58367
 31
0.0
210
0.0
220
0.0
230
1.0
  0
LINE
  5
408
100
AcDbEntity
  8
0
370
     5
390
0
 62
     7
 48
0.000039
100
AcDbLine
 10
7.926968
 20
0.58367
 30
0.0
 11
7.926023
 21
0.582444
 31
0.0
210
0.0
220
0.0
230
1.0
  0
LINE
  5
409
100
AcDbEntity
  8
0
370
     5
390
0
 62
     7
 48
0.000041
100
AcDbLine
 10
7.926023
 20
0.582444
 30
0.0
 11
7.92516
 21
0.581064
 31
0.0
210
0.0
220
0.0
230
1.0
  0
LINE
  5
40A
100
AcDbEntity
  8
0
370
     5
390
0
 62
     7
 48
0.000043
100
AcDbLine
 10
7.92516
 20
0.581064
 30
0.0
 11
7.924381
 21
0.579533
 31
0.0
210
0.0
220
0.0
230
1.0
  0
LINE
  5
40B
100
AcDbEntity
  8
0
370
     5
390
0
 62
     7
 48
0.000046
100
AcDbLine
 10
7.924381
 20
0.579533
 30
0.0
 11
7.923684
 21
0.577847
 31
0.0
210
0.0
220
0.0
230
1.0
  0
LINE
  5
40C
100
AcDbEntity
  8
0
370
     5
390
0
 62
     7
 48
0.000048
100
AcDbLine
 10
7.923684
 20
0.577847
 30
0.0
 11
7.923073
 21
0.576006
 31
0.0
210
0.0
220
0.0
230
1.0
  0
LINE
  5
40D
100
AcDbEntity
  8
0
370
     5
390
0
 62
     7
 48
0.000052
100
AcDbLine
 10
7.923073
 20
0.576006
 30
0.0
 11
7.922543
 21
0.574013
 31
0.0
210
0.0
220
0.0
230
1.0
  0
LINE
  5
40E
100
AcDbEntity
  8
0
370
     5
390
0
 62
     7
 48
0.000055
100
AcDbLine
 10
7.922543
 20
0.574013
 30
0.0
 11
7.922096
 21
0.571866
 31
0.0
210
0.0
220
0.0
230
1.0
  0
LINE
  5
40F
100
AcDbEntity
  8
0
370
     5
390
0
 62
     7
 48
0.000058
100
AcDbLine
 10
7.922096
 20
0.571866
 30
0.0
 11
7.921734
 21
0.569565
 31
0.0
210
0.0
220
0.0
230
1.0
  0
LINE
  5
410
100
AcDbEntity
  8
0
370
     5
390
0
 62
     7
 48
0.000062
100
AcDbLine
 10
7.921734
 20
0.569565
 30
0.0
 11
7.921454
 21
0.567111
 31
0.0
210
0.0
220
0.0
230
1.0
  0
LINE
  5
411
100
AcDbEntity
  8
0
370
     5
390
0
 62
     7
 48
0.00007
100
AcDbLine
 10
7.921454
 20
0.567111
 30
0.0
 11
7.924266
 21
0.567111
 31
0.0
210
0.0
220
0.0
230
1.0
  0
LINE
  5
412
100
AcDbEntity
  8
0
370
     5
390
0
 62
     7
 48
0.000054
100
AcDbLine
 10
7.924266
 20
0.567111
 30
0.0
 11
7.924478
 21
0.569252
 31
0.0
210
0.0
220
0.0
230
1.0
  0
LINE
  5
413
100
AcDbEntity
  8
0
370
     5
390
0
 62
     7
 48
0.000051
100
AcDbLine
 10
7.924478
 20
0.569252
 30
0.0
 11
7.924766
 21
0.571259
 31
0.0
210
0.0
220
0.0
230
1.0
  0
LINE
  5
414
100
AcDbEntity
  8
0
370
     5
390
0
 62
     7
 48
0.000048
100
AcDbLine
 10
7.924766
 20
0.571259
 30
0.0
 11
7.92513
 21
0.573132
 31
0.0
210
0.0
220
0.0
230
1.0
  0
LINE
  5
415
100
AcDbEntity
  8
0
370
     5
390
0
 62
     7
 48
0.000045
100
AcDbLine
 10
7.92513
 20
0.573132
 30
0.0
 11
7.925573
 21
0.574872
 31
0.0
210
0.0
220
0.0
230
1.0
  0
LINE
  5
416
100
AcDbEntity
  8
0
370
     5
390
0
 62
     7
 48
0.000042
100
AcDbLine
 10
7.925573
 20
0.574872
 30
0.0
 11
7.926092
 21
0.57648
 31
0.0
210
0.0
220
0.0
230
1.0
  0
LINE
  5
417
100
AcDbEntity
  8
0
370
     5
390
0
 62
     7
 48
0.000077
100
AcDbLine
 10
7.926092
 20
0.57648
 30
0.0
 11
7.92736
 21
0.579297
 31
0.0
210
0.0
220
0.0
230
1.0
  0
LINE
  5
418
100
AcDbEntity
  8
0
370
     5
390
0
 62
     7
 48
0.000069
100
AcDbLine
 10
7.92736
 20
0.579297
 30
0.0
 11
7.928935
 21
0.581582
 31
0.0
210
0.0
220
0.0
230
1.0
  0
LINE
  5
419
100
AcDbEntity
  8
0
370
     5
390
0
 62
     7
 48
0.000065
100
AcDbLine
 10
7.928935
 20
0.581582
 30
0.0
 11
7.930843
 21
0.583356
 31
0.0
210
0.0
220
0.0
230
1.0
  0
LINE
  5
41A
100
AcDbEntity
  8
0
370
     5
390
0
 62
     7
 48
0.000069
100
AcDbLine
 10
7.930843
 20
0.583356
 30
0.0
 11
7.93324
 21
0.584759
 31
0.0
210
0.0
220
0.0
230
1.0
  0
LINE
  5
41B
100
AcDbEntity
  8
0
370
     5
390
0
 62
     7
 48
0.000038
100
AcDbLine
 10
7.93324
 20
0.584759
 30
0.0
 11
7.93463
 21
0.585327
 31
0.0
210
0.0
220
0.0
230
1.0
  0
LINE
  5
41C
100
AcDbEntity
  8
0
370
     5
390
0
 62
     7
 48
0.00004
100
AcDbLine
 10
7.93463
 20
0.585327
 30
0.0
 11
7.936151
 21
0.585809
 31
0.0
210
0.0
220
0.0
230
1.0
  0
LINE
  5
41D
100
AcDbEntity
  8
0
370
     5
390
0
 62
     7
 48
0.000042
100
AcDbLine
 10
7.936151
 20
0.585809
 30
0.0
 11
7.937799
 21
0.586203
 31
0.0
210
0.0
220
0.0
230
1.0
  0
LINE
  5
41E
100
AcDbEntity
  8
0
370
     5
390
0
 62
     7
 48
0.000045
100
AcDbLine
 10
7.937799
 20
0.586203
 30
0.0
 11
7.939577
 21
0.586511
 31
0.0
210
0.0
220
0.0
230
1.0
  0
LINE
  5
41F
100
AcDbEntity
  8
0
370
     5
390
0
 62
     7
 48
0.000048
100
AcDbLine
 10
7.939577
 20
0.586511
 30
0.0
 11
7.941484
 21
0.58673
 31
0.0
210
0.0
220
0.0
230
1.0
  0
LINE
  5
420
100
AcDbEntity
  8
0
370
     5
390
0
 62
     7
 48
0.000051
100
AcDbLine
 10
7.941484
 20
0.58673
 30
0.0
 11
7.943519
 21
0.58686
 31
0.0
210
0.0
220
0.0
230
1.0
  0
LINE
  5
421
100
AcDbEntity
  8
0
370
     5
390
0
 62
     7
 48
0.000054
100
AcDbLine
 10
7.943519
 20
0.58686
 30
0.0
 11
7.945682
 21
0.586905
 31
0.0
210
0.0
220
0.0
230
1.0
  0
LINE
  5
422
100
AcDbEntity
  8
0
370
     5
390
0
 62
     7
 48
0.000192
100
AcDbLine
 10
7.945682
 20
0.586905
 30
0.0
 11
7.953361
 21
0.586796
 31
0.0
210
0.0
220
0.0
230
1.0
  0
LINE
  5
423
100
AcDbEntity
  8
0
370
     5
390
0
 62
     7
 48
0.00269
100
AcDbLine
 10
7.953361
 20
0.586796
 30
0.0
 11
7.953361
 21
0.479178
 31
0.0
210
0.0
220
0.0
230
1.0
  0
LINE
  5
424
100
AcDbEntity
  8
0
370
     5
390
0
 62
     7
 48
0.000493
100
AcDbLine
 10
7.953361
 20
0.479178
 30
0.0
 11
7.93822
 21
0.466523
 31
0.0
210
0.0
220
0.0
230
1.0
  0
LINE
  5
425
100
AcDbEntity
  8
0
370
     5
390
0
 62
     7
 48
0.001236
100
AcDbLine
 10
7.93822
 20
0.466523
 30
0.0
 11
7.987647
 21
0.466523
 31
0.0
210
0.0
220
0.0
230
1.0
  0
LINE
  5
426
100
AcDbEntity
  8
0
370
     5
390
0
 62
     7
 48
0.000434
100
AcDbLine
 10
7.987647
 20
0.466523
 30
0.0
 11
7.974885
 21
0.478313
 31
0.0
210
0.0
220
0.0
230
1.0
  0
LINE
  5
427
100
AcDbEntity
  8
0
370
     5
390
0
 62
     7
 48
0.002931
100
AcDbLine
 10
7.974885
 20
0.478313
 30
0.0
 11
7.976183
 21
0.595557
 31
0.0
210
0.0
220
0.0
230
1.0
  0
LINE
  5
428
100
AcDbEntity
  8
0
370
     5
390
0
 62
     7
 48
0.000049
100
AcDbLine
 10
7.976183
 20
0.595557
 30
0.0
 11
7.97813
 21
0.595713
 31
0.0
210
0.0
220
0.0
230
1.0
  0
LINE
  5
429
100
AcDbEntity
  8
0
370
     5
390
0
 62
     7
 48
0.000049
100
AcDbLine
 10
7.97813
 20
0.595713
 30
0.0
 11
7.980077
 21
0.595835
 31
0.0
210
0.0
220
0.0
230
1.0
  0
LINE
  5
42A
100
AcDbEntity
  8
0
370
     5
390
0
 62
     7
 48
0.000049
100
AcDbLine
 10
7.980077
 20
0.595835
 30
0.0
 11
7.982024
 21
0.59592
 31
0.0
210
0.0
220
0.0
230
1.0
  0
LINE
  5
42B
100
AcDbEntity
  8
0
370
     5
390
0
 62
     7
 48
0.000049
100
AcDbLine
 10
7.982024
 20
0.59592
 30
0.0
 11
7.983971
 21
0.595973
 31
0.0
210
0.0
220
0.0
230
1.0
  0
LINE
  5
42C
100
AcDbEntity
  8
0
370
     5
390
0
 62
     7
 48
0.000049
100
AcDbLine
 10
7.983971
 20
0.595973
 30
0.0
 11
7.985918
 21
0.595991
 31
0.0
210
0.0
220
0.0
230
1.0
  0
LINE
  5
42D
100
AcDbEntity
  8
0
370
     5
390
0
 62
     7
 48
0.000058
100
AcDbLine
 10
7.985918
 20
0.595991
 30
0.0
 11
7.988236
 21
0.595943
 31
0.0
210
0.0
220
0.0
230
1.0
  0
LINE
  5
42E
100
AcDbEntity
  8
0
370
     5
390
0
 62
     7
 48
0.000055
100
AcDbLine
 10
7.988236
 20
0.595943
 30
0.0
 11
7.990431
 21
0.595799
 31
0.0
210
0.0
220
0.0
230
1.0
  0
LINE
  5
42F
100
AcDbEntity
  8
0
370
     5
390
0
 62
     7
 48
0.000052
100
AcDbLine
 10
7.990431
 20
0.595799
 30
0.0
 11
7.992506
 21
0.595562
 31
0.0
210
0.0
220
0.0
230
1.0
  0
LINE
  5
430
100
AcDbEntity
  8
0
370
     5
390
0
 62
     7
 48
0.000049
100
AcDbLine
 10
7.992506
 20
0.595562
 30
0.0
 11
7.994457
 21
0.595229
 31
0.0
210
0.0
220
0.0
230
1.0
  0
LINE
  5
431
100
AcDbEntity
  8
0
370
     5
390
0
 62
     7
 48
0.000047
100
AcDbLine
 10
7.994457
 20
0.595229
 30
0.0
 11
7.996287
 21
0.5948
 31
0.0
210
0.0
220
0.0
230
1.0
  0
LINE
  5
432
100
AcDbEntity
  8
0
370
     5
390
0
 62
     7
 48
0.000045
100
AcDbLine
 10
7.996287
 20
0.5948
 30
0.0
 11
7.997995
 21
0.594276
 31
0.0
210
0.0
220
0.0
230
1.0
  0
LINE
  5
433
100
AcDbEntity
  8
0
370
     5
390
0
 62
     7
 48
0.000043
100
AcDbLine
 10
7.997995
 20
0.594276
 30
0.0
 11
7.99958
 21
0.593658
 31
0.0
210
0.0
220
0.0
230
1.0
  0
LINE
  5
434
100
AcDbEntity
  8
0
370
     5
390
0
 62
     7
 48
0.000041
100
AcDbLine
 10
7.99958
 20
0.593658
 30
0.0
 11
8.001043
 21
0.592944
 31
0.0
210
0.0
220
0.0
230
1.0
  0
LINE
  5
435
100
AcDbEntity
  8
0
370
     5
390
0
 62
     7
 48
0.000039
100
AcDbLine
 10
8.001043
 20
0.592944
 30
0.0
 11
8.002384
 21
0.592136
 31
0.0
210
0.0
220
0.0
230
1.0
  0
LINE
  5
436
100
AcDbEntity
  8
0
370
     5
390
0
 62
     7
 48
0.000038
100
AcDbLine
 10
8.002384
 20
0.592136
 30
0.0
 11
8.003601
 21
0.591231
 31
0.0
210
0.0
220
0.0
230
1.0
  0
LINE
  5
437
100
AcDbEntity
  8
0
370
     5
390
0
 62
     7
 48
0.000038
100
AcDbLine
 10
8.003601
 20
0.591231
 30
0.0
 11
8.004733
 21
0.590204
 31
0.0
210
0.0
220
0.0
230
1.0
  0
LINE
  5
438
100
AcDbEntity
  8
0
370
     5
390
0
 62
     7
 48
0.00004
100
AcDbLine
 10
8.004733
 20
0.590204
 30
0.0
 11
8.00581
 21
0.589025
 31
0.0
210
0.0
220
0.0
230
1.0
  0
LINE
  5
439
100
AcDbEntity
  8
0
370
     5
390
0
 62
     7
 48
0.000042
100
AcDbLine
 10
8.00581
 20
0.589025
 30
0.0
 11
8.006836
 21
0.587694
 31
0.0
210
0.0
220
0.0
230
1.0
  0
LINE
  5
43A
100
AcDbEntity
  8
0
370
     5
390
0
 62
     7
 48
0.000044
100
AcDbLine
 10
8.006836
 20
0.587694
 30
0.0
 11
8.007806
 21
0.586212
 31
0.0
210
0.0
220
0.0
230
1.0
  0
LINE
  5
43B
100
AcDbEntity
  8
0
370
     5
390
0
 62
     7
 48
0.000047
100
AcDbLine
 10
8.007806
 20
0.586212
 30
0.0
 11
8.008726
 21
0.584579
 31
0.0
210
0.0
220
0.0
230
1.0
  0
LINE
  5
43C
100
AcDbEntity
  8
0
370
     5
390
0
 62
     7
 48
0.00005
100
AcDbLine
 10
8.008726
 20
0.584579
 30
0.0
 11
8.009591
 21
0.582795
 31
0.0
210
0.0
220
0.0
230
1.0
  0
LINE
  5
43D
100
AcDbEntity
  8
0
370
     5
390
0
 62
     7
 48
0.000053
100
AcDbLine
 10
8.009591
 20
0.582795
 30
0.0
 11
8.010404
 21
0.580859
 31
0.0
210
0.0
220
0.0
230
1.0
  0
LINE
  5
43E
100
AcDbEntity
  8
0
370
     5
390
0
 62
     7
 48
0.000056
100
AcDbLine
 10
8.010404
 20
0.580859
 30
0.0
 11
8.011163
 21
0.578771
 31
0.0
210
0.0
220
0.0
230
1.0
  0
LINE
  5
43F
100
AcDbEntity
  8
0
370
     5
390
0
 62
     7
 48
0.000059
100
AcDbLine
 10
8.011163
 20
0.578771
 30
0.0
 11
8.011871
 21
0.576531
 31
0.0
210
0.0
220
0.0
230
1.0
  0
LINE
  5
440
100
AcDbEntity
  8
0
370
     5
390
0
 62
     7
 48
0.000062
100
AcDbLine
 10
8.011871
 20
0.576531
 30
0.0
 11
8.012525
 21
0.574142
 31
0.0
210
0.0
220
0.0
230
1.0
  0
LINE
  5
441
100
AcDbEntity
  8
0
370
     5
390
0
 62
     7
 48
0.000057
100
AcDbLine
 10
8.012525
 20
0.574142
 30
0.0
 11
8.014147
 21
0.572519
 31
0.0
210
0.0
220
0.0
230
1.0
  0
LINE
  5
442
100
AcDbEntity
  8
0
370
     5
390
0
 62
     7
 48
0.000054
100
AcDbLine
 10
8.014147
 20
0.572519
 30
0.0
 11
8.014802
 21
0.574562
 31
0.0
210
0.0
220
0.0
230
1.0
  0
LINE
  5
443
100
AcDbEntity
  8
0
370
     5
390
0
 62
     7
 48
0.000052
100
AcDbLine
 10
8.014802
 20
0.574562
 30
0.0
 11
8.015467
 21
0.576534
 31
0.0
210
0.0
220
0.0
230
1.0
  0
LINE
  5
444
100
AcDbEntity
  8
0
370
     5
390
0
 62
     7
 48
0.000051
100
AcDbLine
 10
8.015467
 20
0.576534
 30
0.0
 11
8.016143
 21
0.578438
 31
0.0
210
0.0
220
0.0
230
1.0
  0
LINE
  5
445
100
AcDbEntity
  8
0
370
     5
390
0
 62
     7
 48
0.000049
100
AcDbLine
 10
8.016143
 20
0.578438
 30
0.0
 11
8.01683
 21
0.580272
 31
0.0
210
0.0
220
0.0
230
1.0
  0
LINE
  5
446
100
AcDbEntity
  8
0
370
     5
390
0
 62
     7
 48
0.000047
100
AcDbLine
 10
8.01683
 20
0.580272
 30
0.0
 11
8.017528
 21
0.582038
 31
0.0
210
0.0
220
0.0
230
1.0
  0
LINE
  5
447
100
AcDbEntity
  8
0
370
     5
390
0
 62
     7
 48
0.000046
100
AcDbLine
 10
8.017528
 20
0.582038
 30
0.0
 11
8.018235
 21
0.583734
 31
0.0
210
0.0
220
0.0
230
1.0
  0
LINE
  5
448
100
AcDbEntity
  8
0
370
     5
390
0
 62
     7
 48
0.000044
100
AcDbLine
 10
8.018235
 20
0.583734
 30
0.0
 11
8.018954
 21
0.58536
 31
0.0
210
0.0
220
0.0
230
1.0
  0
LINE
  5
449
100
AcDbEntity
  8
0
370
     5
390
0
 62
     7
 48
0.000043
100
AcDbLine
 10
8.018954
 20
0.58536
 30
0.0
 11
8.019684
 21
0.586917
 31
0.0
210
0.0
220
0.0
230
1.0
  0
LINE
  5
44A
100
AcDbEntity
  8
0
370
     5
390
0
 62
     7
 48
0.000042
100
AcDbLine
 10
8.019684
 20
0.586917
 30
0.0
 11
8.020426
 21
0.588405
 31
0.0
210
0.0
220
0.0
230
1.0
  0
LINE
  5
44B
100
AcDbEntity
  8
0
370
     5
390
0
 62
     7
 48
0.00004
100
AcDbLine
 10
8.020426
 20
0.588405
 30
0.0
 11
8.021177
 21
0.589826
 31
0.0
210
0.0
220
0.0
230
1.0
  0
LINE
  5
44C
100
AcDbEntity
  8
0
370
     5
390
0
 62
     7
 48
0.0004
100
AcDbLine
 10
8.021177
 20
0.589826
 30
0.0
 11
8.029019
 21
0.60375
 31
0.0
210
0.0
220
0.0
230
1.0
  0
LINE
  5
44D
100
AcDbEntity
  8
0
370
     5
390
0
 62
     7
 48
0.000044
100
AcDbLine
 10
8.029019
 20
0.60375
 30
0.0
 11
8.029831
 21
0.605292
 31
0.0
210
0.0
220
0.0
230
1.0
  0
ENDBLK
  5
44E
100
AcDbEntity
  8
0
390
0
100
AcDbBlockEnd
  0
BLOCK
  5
44F
100
AcDbEntity
  8
0
370
     0
390
0
100
AcDbBlockBegin
  2
BLOCK5
 70
     0
 10
0.0
 20
0.0
 30
0.0
  3
BLOCK5
  1

  0
LINE
  5
450
100
AcDbEntity
  8
0
370
     5
390
0
 62
     7
 48
0.000505
100
AcDbLine
 10
8.03978
 20
0.605292
 30
0.0
 11
8.054382
 21
0.591339
 31
0.0
210
0.0
220
0.0
230
1.0
  0
LINE
  5
451
100
AcDbEntity
  8
0
370
     5
390
0
 62
     7
 48
0.001141
100
AcDbLine
 10
8.054382
 20
0.591339
 30
0.0
 11
8.054382
 21
0.545696
 31
0.0
210
0.0
220
0.0
230
1.0
  0
LINE
  5
452
100
AcDbEntity
  8
0
370
     5
390
0
 62
     7
 48
0.00008
100
AcDbLine
 10
8.054382
 20
0.545696
 30
0.0
 11
8.051189
 21
0.545309
 31
0.0
210
0.0
220
0.0
230
1.0
  0
LINE
  5
453
100
AcDbEntity
  8
0
370
     5
390
0
 62
     7
 48
0.000076
100
AcDbLine
 10
8.051189
 20
0.545309
 30
0.0
 11
8.048231
 21
0.544665
 31
0.0
210
0.0
220
0.0
230
1.0
  0
LINE
  5
454
100
AcDbEntity
  8
0
370
     5
390
0
 62
     7
 48
0.000072
100
AcDbLine
 10
8.048231
 20
0.544665
 30
0.0
 11
8.045504
 21
0.543768
 31
0.0
210
0.0
220
0.0
230
1.0
  0
LINE
  5
455
100
AcDbEntity
  8
0
370
     5
390
0
 62
     7
 48
0.000069
100
AcDbLine
 10
8.045504
 20
0.543768
 30
0.0
 11
8.043013
 21
0.542615
 31
0.0
210
0.0
220
0.0
230
1.0
  0
LINE
  5
456
100
AcDbEntity
  8
0
370
     5
390
0
 62
     7
 48
0.000067
100
AcDbLine
 10
8.043013
 20
0.542615
 30
0.0
 11
8.040755
 21
0.541208
 31
0.0
210
0.0
220
0.0
230
1.0
  0
LINE
  5
457
100
AcDbEntity
  8
0
370
     5
390
0
 62
     7
 48
0.000066
100
AcDbLine
 10
8.040755
 20
0.541208
 30
0.0
 11
8.03873
 21
0.539544
 31
0.0
210
0.0
220
0.0
230
1.0
  0
LINE
  5
458
100
AcDbEntity
  8
0
370
     5
390
0
 62
     7
 48
0.000066
100
AcDbLine
 10
8.03873
 20
0.539544
 30
0.0
 11
8.036938
 21
0.537626
 31
0.0
210
0.0
220
0.0
230
1.0
  0
LINE
  5
459
100
AcDbEntity
  8
0
370
     5
390
0
 62
     7
 48
0.000067
100
AcDbLine
 10
8.036938
 20
0.537626
 30
0.0
 11
8.03538
 21
0.535451
 31
0.0
210
0.0
220
0.0
230
1.0
  0
LINE
  5
45A
100
AcDbEntity
  8
0
370
     5
390
0
 62
     7
 48
0.000069
100
AcDbLine
 10
8.03538
 20
0.535451
 30
0.0
 11
8.034058
 21
0.533022
 31
0.0
210
0.0
220
0.0
230
1.0
  0
LINE
  5
45B
100
AcDbEntity
  8
0
370
     5
390
0
 62
     7
 48
0.000072
100
AcDbLine
 10
8.034058
 20
0.533022
 30
0.0
 11
8.032967
 21
0.530337
 31
0.0
210
0.0
220
0.0
230
1.0
  0
LINE
  5
45C
100
AcDbEntity
  8
0
370
     5
390
0
 62
     7
 48
0.000047
100
AcDbLine
 10
8.032967
 20
0.530337
 30
0.0
 11
8.033725
 21
0.528606
 31
0.0
210
0.0
220
0.0
230
1.0
  0
LINE
  5
45D
100
AcDbEntity
  8
0
370
     5
390
0
 62
     7
 48
0.000054
100
AcDbLine
 10
8.033725
 20
0.528606
 30
0.0
 11
8.035222
 21
0.530168
 31
0.0
210
0.0
220
0.0
230
1.0
  0
LINE
  5
45E
100
AcDbEntity
  8
0
370
     5
390
0
 62
     7
 48
0.000052
100
AcDbLine
 10
8.035222
 20
0.530168
 30
0.0
 11
8.036774
 21
0.531566
 31
0.0
210
0.0
220
0.0
230
1.0
  0
LINE
  5
45F
100
AcDbEntity
  8
0
370
     5
390
0
 62
     7
 48
0.000051
100
AcDbLine
 10
8.036774
 20
0.531566
 30
0.0
 11
8.038381
 21
0.532799
 31
0.0
210
0.0
220
0.0
230
1.0
  0
LINE
  5
460
100
AcDbEntity
  8
0
370
     5
390
0
 62
     7
 48
0.000049
100
AcDbLine
 10
8.038381
 20
0.532799
 30
0.0
 11
8.04004
 21
0.533868
 31
0.0
210
0.0
220
0.0
230
1.0
  0
LINE
  5
461
100
AcDbEntity
  8
0
370
     5
390
0
 62
     7
 48
0.000048
100
AcDbLine
 10
8.04004
 20
0.533868
 30
0.0
 11
8.041754
 21
0.534771
 31
0.0
210
0.0
220
0.0
230
1.0
  0
LINE
  5
462
100
AcDbEntity
  8
0
370
     5
390
0
 62
     7
 48
0.000048
100
AcDbLine
 10
8.041754
 20
0.534771
 30
0.0
 11
8.043522
 21
0.535512
 31
0.0
210
0.0
220
0.0
230
1.0
  0
LINE
  5
463
100
AcDbEntity
  8
0
370
     5
390
0
 62
     7
 48
0.000048
100
AcDbLine
 10
8.043522
 20
0.535512
 30
0.0
 11
8.045345
 21
0.536087
 31
0.0
210
0.0
220
0.0
230
1.0
  0
LINE
  5
464
100
AcDbEntity
  8
0
370
     5
390
0
 62
     7
 48
0.000048
100
AcDbLine
 10
8.045345
 20
0.536087
 30
0.0
 11
8.047222
 21
0.536498
 31
0.0
210
0.0
220
0.0
230
1.0
  0
LINE
  5
465
100
AcDbEntity
  8
0
370
     5
390
0
 62
     7
 48
0.000049
100
AcDbLine
 10
8.047222
 20
0.536498
 30
0.0
 11
8.049152
 21
0.536744
 31
0.0
210
0.0
220
0.0
230
1.0
  0
LINE
  5
466
100
AcDbEntity
  8
0
370
     5
390
0
 62
     7
 48
0.00005
100
AcDbLine
 10
8.049152
 20
0.536744
 30
0.0
 11
8.051138
 21
0.536826
 31
0.0
210
0.0
220
0.0
230
1.0
  0
LINE
  5
467
100
AcDbEntity
  8
0
370
     5
390
0
 62
     7
 48
0.000041
100
AcDbLine
 10
8.051138
 20
0.536826
 30
0.0
 11
8.052773
 21
0.536748
 31
0.0
210
0.0
220
0.0
230
1.0
  0
LINE
  5
468
100
AcDbEntity
  8
0
370
     5
390
0
 62
     7
 48
0.00004
100
AcDbLine
 10
8.052773
 20
0.536748
 30
0.0
 11
8.054382
 21
0.53661
 31
0.0
210
0.0
220
0.0
230
1.0
  0
LINE
  5
469
100
AcDbEntity
  8
0
370
     5
390
0
 62
     7
 48
0.000127
100
AcDbLine
 10
8.054382
 20
0.53661
 30
0.0
 11
8.054382
 21
0.531527
 31
0.0
210
0.0
220
0.0
230
1.0
  0
LINE
  5
46A
100
AcDbEntity
  8
0
370
     5
390
0
 62
     7
 48
0.000051
100
AcDbLine
 10
8.054382
 20
0.531527
 30
0.0
 11
8.052347
 21
0.531458
 31
0.0
210
0.0
220
0.0
230
1.0
  0
LINE
  5
46B
100
AcDbEntity
  8
0
370
     5
390
0
 62
     7
 48
0.000049
100
AcDbLine
 10
8.052347
 20
0.531458
 30
0.0
 11
8.050394
 21
0.531249
 31
0.0
210
0.0
220
0.0
230
1.0
  0
LINE
  5
46C
100
AcDbEntity
  8
0
370
     5
390
0
 62
     7
 48
0.000048
100
AcDbLine
 10
8.050394
 20
0.531249
 30
0.0
 11
8.048522
 21
0.530904
 31
0.0
210
0.0
220
0.0
230
1.0
  0
LINE
  5
46D
100
AcDbEntity
  8
0
370
     5
390
0
 62
     7
 48
0.000046
100
AcDbLine
 10
8.048522
 20
0.530904
 30
0.0
 11
8.046733
 21
0.53042
 31
0.0
210
0.0
220
0.0
230
1.0
  0
LINE
  5
46E
100
AcDbEntity
  8
0
370
     5
390
0
 62
     7
 48
0.000045
100
AcDbLine
 10
8.046733
 20
0.53042
 30
0.0
 11
8.045027
 21
0.529796
 31
0.0
210
0.0
220
0.0
230
1.0
  0
LINE
  5
46F
100
AcDbEntity
  8
0
370
     5
390
0
 62
     7
 48
0.000045
100
AcDbLine
 10
8.045027
 20
0.529796
 30
0.0
 11
8.043403
 21
0.529035
 31
0.0
210
0.0
220
0.0
230
1.0
  0
LINE
  5
470
100
AcDbEntity
  8
0
370
     5
390
0
 62
     7
 48
0.000045
100
AcDbLine
 10
8.043403
 20
0.529035
 30
0.0
 11
8.041859
 21
0.528135
 31
0.0
210
0.0
220
0.0
230
1.0
  0
LINE
  5
471
100
AcDbEntity
  8
0
370
     5
390
0
 62
     7
 48
0.000045
100
AcDbLine
 10
8.041859
 20
0.528135
 30
0.0
 11
8.0404
 21
0.527097
 31
0.0
210
0.0
220
0.0
230
1.0
  0
LINE
  5
472
100
AcDbEntity
  8
0
370
     5
390
0
 62
     7
 48
0.000045
100
AcDbLine
 10
8.0404
 20
0.527097
 30
0.0
 11
8.039021
 21
0.52592
 31
0.0
210
0.0
220
0.0
230
1.0
  0
LINE
  5
473
100
AcDbEntity
  8
0
370
     5
390
0
 62
     7
 48
0.000046
100
AcDbLine
 10
8.039021
 20
0.52592
 30
0.0
 11
8.037725
 21
0.524604
 31
0.0
210
0.0
220
0.0
230
1.0
  0
LINE
  5
474
100
AcDbEntity
  8
0
370
     5
390
0
 62
     7
 48
0.000077
100
AcDbLine
 10
8.037725
 20
0.524604
 30
0.0
 11
8.03978
 21
0.522333
 31
0.0
210
0.0
220
0.0
230
1.0
  0
LINE
  5
475
100
AcDbEntity
  8
0
370
     5
390
0
 62
     7
 48
0.000044
100
AcDbLine
 10
8.03978
 20
0.522333
 30
0.0
 11
8.041057
 21
0.523526
 31
0.0
210
0.0
220
0.0
230
1.0
  0
LINE
  5
476
100
AcDbEntity
  8
0
370
     5
390
0
 62
     7
 48
0.000042
100
AcDbLine
 10
8.041057
 20
0.523526
 30
0.0
 11
8.042372
 21
0.524592
 31
0.0
210
0.0
220
0.0
230
1.0
  0
LINE
  5
477
100
AcDbEntity
  8
0
370
     5
390
0
 62
     7
 48
0.000041
100
AcDbLine
 10
8.042372
 20
0.524592
 30
0.0
 11
8.04373
 21
0.525533
 31
0.0
210
0.0
220
0.0
230
1.0
  0
LINE
  5
478
100
AcDbEntity
  8
0
370
     5
390
0
 62
     7
 48
0.000041
100
AcDbLine
 10
8.04373
 20
0.525533
 30
0.0
 11
8.045129
 21
0.526349
 31
0.0
210
0.0
220
0.0
230
1.0
  0
LINE
  5
479
100
AcDbEntity
  8
0
370
     5
390
0
 62
     7
 48
0.00004
100
AcDbLine
 10
8.045129
 20
0.526349
 30
0.0
 11
8.046567
 21
0.527039
 31
0.0
210
0.0
220
0.0
230
1.0
  0
LINE
  5
47A
100
AcDbEntity
  8
0
370
     5
390
0
 62
     7
 48
0.00004
100
AcDbLine
 10
8.046567
 20
0.527039
 30
0.0
 11
8.048048
 21
0.527603
 31
0.0
210
0.0
220
0.0
230
1.0
  0
LINE
  5
47B
100
AcDbEntity
  8
0
370
     5
390
0
 62
     7
 48
0.00004
100
AcDbLine
 10
8.048048
 20
0.527603
 30
0.0
 11
8.049571
 21
0.528042
 31
0.0
210
0.0
220
0.0
230
1.0
  0
LINE
  5
47C
100
AcDbEntity
  8
0
370
     5
390
0
 62
     7
 48
0.00004
100
AcDbLine
 10
8.049571
 20
0.528042
 30
0.0
 11
8.051134
 21
0.528356
 31
0.0
210
0.0
220
0.0
230
1.0
  0
LINE
  5
47D
100
AcDbEntity
  8
0
370
     5
390
0
 62
     7
 48
0.00004
100
AcDbLine
 10
8.051134
 20
0.528356
 30
0.0
 11
8.052737
 21
0.528543
 31
0.0
210
0.0
220
0.0
230
1.0
  0
LINE
  5
47E
100
AcDbEntity
  8
0
370
     5
390
0
 62
     7
 48
0.000041
100
AcDbLine
 10
8.052737
 20
0.528543
 30
0.0
 11
8.054382
 21
0.528606
 31
0.0
210
0.0
220
0.0
230
1.0
  0
LINE
  5
47F
100
AcDbEntity
  8
0
370
     5
390
0
 62
     7
 48
0.001163
100
AcDbLine
 10
8.054382
 20
0.528606
 30
0.0
 11
8.054382
 21
0.482097
 31
0.0
210
0.0
220
0.0
230
1.0
  0
LINE
  5
480
100
AcDbEntity
  8
0
370
     5
390
0
 62
     7
 48
0.000564
100
AcDbLine
 10
8.054382
 20
0.482097
 30
0.0
 11
8.036753
 21
0.468038
 31
0.0
210
0.0
220
0.0
230
1.0
  0
LINE
  5
481
100
AcDbEntity
  8
0
370
     5
390
0
 62
     7
 48
0.001328
100
AcDbLine
 10
8.036753
 20
0.468038
 30
0.0
 11
8.089859
 21
0.468038
 31
0.0
210
0.0
220
0.0
230
1.0
  0
LINE
  5
482
100
AcDbEntity
  8
0
370
     5
390
0
 62
     7
 48
0.000493
100
AcDbLine
 10
8.089859
 20
0.468038
 30
0.0
 11
8.076014
 21
0.482097
 31
0.0
210
0.0
220
0.0
230
1.0
  0
LINE
  5
483
100
AcDbEntity
  8
0
370
     5
390
0
 62
     7
 48
0.001363
100
AcDbLine
 10
8.076014
 20
0.482097
 30
0.0
 11
8.076014
 21
0.53661
 31
0.0
210
0.0
220
0.0
230
1.0
  0
LINE
  5
484
100
AcDbEntity
  8
0
370
     5
390
0
 62
     7
 48
0.000619
100
AcDbLine
 10
8.076014
 20
0.53661
 30
0.0
 11
8.100782
 21
0.53661
 31
0.0
210
0.0
220
0.0
230
1.0
  0
LINE
  5
485
100
AcDbEntity
  8
0
370
     5
390
0
 62
     7
 48
0.000639
100
AcDbLine
 10
8.100782
 20
0.53661
 30
0.0
 11
8.118953
 21
0.518655
 31
0.0
210
0.0
220
0.0
230
1.0
  0
LINE
  5
486
100
AcDbEntity
  8
0
370
     5
390
0
 62
     7
 48
0.001133
100
AcDbLine
 10
8.118953
 20
0.518655
 30
0.0
 11
8.118953
 21
0.563975
 31
0.0
210
0.0
220
0.0
230
1.0
  0
LINE
  5
487
100
AcDbEntity
  8
0
370
     5
390
0
 62
     7
 48
0.000629
100
AcDbLine
 10
8.118953
 20
0.563975
 30
0.0
 11
8.101647
 21
0.545696
 31
0.0
210
0.0
220
0.0
230
1.0
  0
LINE
  5
488
100
AcDbEntity
  8
0
370
     5
390
0
 62
     7
 48
0.000408
100
AcDbLine
 10
8.101647
 20
0.545696
 30
0.0
 11
8.085316
 21
0.545696
 31
0.0
210
0.0
220
0.0
230
1.0
  0
LINE
  5
489
100
AcDbEntity
  8
0
370
     5
390
0
 62
     7
 48
0.001044
100
AcDbLine
 10
8.085316
 20
0.545696
 30
0.0
 11
8.085316
 21
0.587445
 31
0.0
210
0.0
220
0.0
230
1.0
  0
LINE
  5
48A
100
AcDbEntity
  8
0
370
     5
390
0
 62
     7
 48
0.000067
100
AcDbLine
 10
8.085316
 20
0.587445
 30
0.0
 11
8.087994
 21
0.58764
 31
0.0
210
0.0
220
0.0
230
1.0
  0
LINE
  5
48B
100
AcDbEntity
  8
0
370
     5
390
0
 62
     7
 48
0.000063
100
AcDbLine
 10
8.087994
 20
0.58764
 30
0.0
 11
8.090491
 21
0.587792
 31
0.0
210
0.0
220
0.0
230
1.0
  0
LINE
  5
48C
100
AcDbEntity
  8
0
370
     5
390
0
 62
     7
 48
0.000058
100
AcDbLine
 10
8.090491
 20
0.587792
 30
0.0
 11
8.092805
 21
0.5879
 31
0.0
210
0.0
220
0.0
230
1.0
  0
LINE
  5
48D
100
AcDbEntity
  8
0
370
     5
390
0
 62
     7
 48
0.000053
100
AcDbLine
 10
8.092805
 20
0.5879
 30
0.0
 11
8.094938
 21
0.587964
 31
0.0
210
0.0
220
0.0
230
1.0
  0
LINE
  5
48E
100
AcDbEntity
  8
0
370
     5
390
0
 62
     7
 48
0.000049
100
AcDbLine
 10
8.094938
 20
0.587964
 30
0.0
 11
8.09689
 21
0.587987
 31
0.0
210
0.0
220
0.0
230
1.0
  0
LINE
  5
48F
100
AcDbEntity
  8
0
370
     5
390
0
 62
     7
 48
0.000063
100
AcDbLine
 10
8.09689
 20
0.587987
 30
0.0
 11
8.099417
 21
0.587969
 31
0.0
210
0.0
220
0.0
230
1.0
  0
LINE
  5
490
100
AcDbEntity
  8
0
370
     5
390
0
 62
     7
 48
0.00006
100
AcDbLine
 10
8.099417
 20
0.587969
 30
0.0
 11
8.101811
 21
0.587915
 31
0.0
210
0.0
220
0.0
230
1.0
  0
LINE
  5
491
100
AcDbEntity
  8
0
370
     5
390
0
 62
     7
 48
0.000056
100
AcDbLine
 10
8.101811
 20
0.587915
 30
0.0
 11
8.104068
 21
0.587826
 31
0.0
210
0.0
220
0.0
230
1.0
  0
LINE
  5
492
100
AcDbEntity
  8
0
370
     5
390
0
 62
     7
 48
0.000053
100
AcDbLine
 10
8.104068
 20
0.587826
 30
0.0
 11
8.106191
 21
0.5877
 31
0.0
210
0.0
220
0.0
230
1.0
  0
LINE
  5
493
100
AcDbEntity
  8
0
370
     5
390
0
 62
     7
 48
0.00005
100
AcDbLine
 10
8.106191
 20
0.5877
 30
0.0
 11
8.108179
 21
0.58754
 31
0.0
210
0.0
220
0.0
230
1.0
  0
LINE
  5
494
100
AcDbEntity
  8
0
370
     5
390
0
 62
     7
 48
0.000047
100
AcDbLine
 10
8.108179
 20
0.58754
 30
0.0
 11
8.110031
 21
0.587343
 31
0.0
210
0.0
220
0.0
230
1.0
  0
LINE
  5
495
100
AcDbEntity
  8
0
370
     5
390
0
 62
     7
 48
0.000043
100
AcDbLine
 10
8.110031
 20
0.587343
 30
0.0
 11
8.111747
 21
0.587112
 31
0.0
210
0.0
220
0.0
230
1.0
  0
LINE
  5
496
100
AcDbEntity
  8
0
370
     5
390
0
 62
     7
 48
0.00004
100
AcDbLine
 10
8.111747
 20
0.587112
 30
0.0
 11
8.113329
 21
0.586844
 31
0.0
210
0.0
220
0.0
230
1.0
  0
LINE
  5
497
100
AcDbEntity
  8
0
370
     5
390
0
 62
     7
 48
0.000071
100
AcDbLine
 10
8.113329
 20
0.586844
 30
0.0
 11
8.116087
 21
0.586202
 31
0.0
210
0.0
220
0.0
230
1.0
  0
LINE
  5
498
100
AcDbEntity
  8
0
370
     5
390
0
 62
     7
 48
0.000065
100
AcDbLine
 10
8.116087
 20
0.586202
 30
0.0
 11
8.118538
 21
0.585356
 31
0.0
210
0.0
220
0.0
230
1.0
  0
LINE
  5
499
100
AcDbEntity
  8
0
370
     5
390
0
 62
     7
 48
0.000066
100
AcDbLine
 10
8.118538
 20
0.585356
 30
0.0
 11
8.120915
 21
0.584246
 31
0.0
210
0.0
220
0.0
230
1.0
  0
LINE
  5
49A
100
AcDbEntity
  8
0
370
     5
390
0
 62
     7
 48
0.000067
100
AcDbLine
 10
8.120915
 20
0.584246
 30
0.0
 11
8.123219
 21
0.582873
 31
0.0
210
0.0
220
0.0
230
1.0
  0
LINE
  5
49B
100
AcDbEntity
  8
0
370
     5
390
0
 62
     7
 48
0.000069
100
AcDbLine
 10
8.123219
 20
0.582873
 30
0.0
 11
8.125449
 21
0.581235
 31
0.0
210
0.0
220
0.0
230
1.0
  0
LINE
  5
49C
100
AcDbEntity
  8
0
370
     5
390
0
 62
     7
 48
0.000072
100
AcDbLine
 10
8.125449
 20
0.581235
 30
0.0
 11
8.127607
 21
0.579333
 31
0.0
210
0.0
220
0.0
230
1.0
  0
LINE
  5
49D
100
AcDbEntity
  8
0
370
     5
390
0
 62
     7
 48
0.000063
100
AcDbLine
 10
8.127607
 20
0.579333
 30
0.0
 11
8.126338
 21
0.581511
 31
0.0
210
0.0
220
0.0
230
1.0
  0
LINE
  5
49E
100
AcDbEntity
  8
0
370
     5
390
0
 62
     7
 48
0.000063
100
AcDbLine
 10
8.126338
 20
0.581511
 30
0.0
 11
8.124737
 21
0.583461
 31
0.0
210
0.0
220
0.0
230
1.0
  0
LINE
  5
49F
100
AcDbEntity
  8
0
370
     5
390
0
 62
     7
 48
0.000065
100
AcDbLine
 10
8.124737
 20
0.583461
 30
0.0
 11
8.122807
 21
0.58518
 31
0.0
210
0.0
220
0.0
230
1.0
  0
LINE
  5
4A0
100
AcDbEntity
  8
0
370
     5
390
0
 62
     7
 48
0.000068
100
AcDbLine
 10
8.122807
 20
0.58518
 30
0.0
 11
8.120546
 21
0.586671
 31
0.0
210
0.0
220
0.0
230
1.0
  0
LINE
  5
4A1
100
AcDbEntity
  8
0
370
     5
390
0
 62
     7
 48
0.000072
100
AcDbLine
 10
8.120546
 20
0.586671
 30
0.0
 11
8.117954
 21
0.587933
 31
0.0
210
0.0
220
0.0
230
1.0
  0
LINE
  5
4A2
100
AcDbEntity
  8
0
370
     5
390
0
 62
     7
 48
0.000078
100
AcDbLine
 10
8.117954
 20
0.587933
 30
0.0
 11
8.115029
 21
0.588965
 31
0.0
210
0.0
220
0.0
230
1.0
  0
LINE
  5
4A3
100
AcDbEntity
  8
0
370
     5
390
0
 62
     7
 48
0.000084
100
AcDbLine
 10
8.115029
 20
0.588965
 30
0.0
 11
8.111775
 21
0.589767
 31
0.0
210
0.0
220
0.0
230
1.0
  0
LINE
  5
4A4
100
AcDbEntity
  8
0
370
     5
390
0
 62
     7
 48
0.000091
100
AcDbLine
 10
8.111775
 20
0.589767
 30
0.0
 11
8.108189
 21
0.59034
 31
0.0
210
0.0
220
0.0
230
1.0
  0
LINE
  5
4A5
100
AcDbEntity
  8
0
370
     5
390
0
 62
     7
 48
0.000098
100
AcDbLine
 10
8.108189
 20
0.59034
 30
0.0
 11
8.104273
 21
0.590684
 31
0.0
210
0.0
220
0.0
230
1.0
  0
LINE
  5
4A6
100
AcDbEntity
  8
0
370
     5
390
0
 62
     7
 48
0.000106
100
AcDbLine
 10
8.104273
 20
0.590684
 30
0.0
 11
8.100026
 21
0.590798
 31
0.0
210
0.0
220
0.0
230
1.0
  0
LINE
  5
4A7
100
AcDbEntity
  8
0
370
     5
390
0
 62
     7
 48
0.000075
100
AcDbLine
 10
8.100026
 20
0.590798
 30
0.0
 11
8.097032
 21
0.590786
 31
0.0
210
0.0
220
0.0
230
1.0
  0
LINE
  5
4A8
100
AcDbEntity
  8
0
370
     5
390
0
 62
     7
 48
0.000073
100
AcDbLine
 10
8.097032
 20
0.590786
 30
0.0
 11
8.094107
 21
0.590747
 31
0.0
210
0.0
220
0.0
230
1.0
  0
LINE
  5
4A9
100
AcDbEntity
  8
0
370
     5
390
0
 62
     7
 48
0.000071
100
AcDbLine
 10
8.094107
 20
0.590747
 30
0.0
 11
8.091251
 21
0.590682
 31
0.0
210
0.0
220
0.0
230
1.0
  0
LINE
  5
4AA
100
AcDbEntity
  8
0
370
     5
390
0
 62
     7
 48
0.00007
100
AcDbLine
 10
8.091251
 20
0.590682
 30
0.0
 11
8.088465
 21
0.590591
 31
0.0
210
0.0
220
0.0
230
1.0
  0
LINE
  5
4AB
100
AcDbEntity
  8
0
370
     5
390
0
 62
     7
 48
0.000068
100
AcDbLine
 10
8.088465
 20
0.590591
 30
0.0
 11
8.085749
 21
0.590474
 31
0.0
210
0.0
220
0.0
230
1.0
  0
LINE
  5
4AC
100
AcDbEntity
  8
0
370
     5
390
0
 62
     7
 48
0.000078
100
AcDbLine
 10
8.085749
 20
0.590474
 30
0.0
 11
8.082612
 21
0.590366
 31
0.0
210
0.0
220
0.0
230
1.0
  0
LINE
  5
4AD
100
AcDbEntity
  8
0
370
     5
390
0
 62
     7
 48
0.001117
100
AcDbLine
 10
8.082612
 20
0.590366
 30
0.0
 11
8.082612
 21
0.545696
 31
0.0
210
0.0
220
0.0
230
1.0
  0
LINE
  5
4AE
100
AcDbEntity
  8
0
370
     5
390
0
 62
     7
 48
0.000165
100
AcDbLine
 10
8.082612
 20
0.545696
 30
0.0
 11
8.076014
 21
0.545696
 31
0.0
210
0.0
220
0.0
230
1.0
  0
LINE
  5
4AF
100
AcDbEntity
  8
0
370
     5
390
0
 62
     7
 48
0.001265
100
AcDbLine
 10
8.076014
 20
0.545696
 30
0.0
 11
8.076014
 21
0.596315
 31
0.0
210
0.0
220
0.0
230
1.0
  0
LINE
  5
4B0
100
AcDbEntity
  8
0
370
     5
390
0
 62
     7
 48
0.0001
100
AcDbLine
 10
8.076014
 20
0.596315
 30
0.0
 11
8.080016
 21
0.596207
 31
0.0
210
0.0
220
0.0
230
1.0
  0
LINE
  5
4B1
100
AcDbEntity
  8
0
370
     5
390
0
 62
     7
 48
0.000262
100
AcDbLine
 10
8.080016
 20
0.596207
 30
0.0
 11
8.090507
 21
0.596099
 31
0.0
210
0.0
220
0.0
230
1.0
  0
LINE
  5
4B2
100
AcDbEntity
  8
0
370
     5
390
0
 62
     7
 48
0.000154
100
AcDbLine
 10
8.090507
 20
0.596099
 30
0.0
 11
8.096672
 21
0.596207
 31
0.0
210
0.0
220
0.0
230
1.0
  0
LINE
  5
4B3
100
AcDbEntity
  8
0
370
     5
390
0
 62
     7
 48
0.00008
100
AcDbLine
 10
8.096672
 20
0.596207
 30
0.0
 11
8.099887
 21
0.596163
 31
0.0
210
0.0
220
0.0
230
1.0
  0
LINE
  5
4B4
100
AcDbEntity
  8
0
370
     5
390
0
 62
     7
 48
0.000076
100
AcDbLine
 10
8.099887
 20
0.596163
 30
0.0
 11
8.102909
 21
0.596033
 31
0.0
210
0.0
220
0.0
230
1.0
  0
LINE
  5
4B5
100
AcDbEntity
  8
0
370
     5
390
0
 62
     7
 48
0.000071
100
AcDbLine
 10
8.102909
 20
0.596033
 30
0.0
 11
8.10574
 21
0.595817
 31
0.0
210
0.0
220
0.0
230
1.0
  0
LINE
  5
4B6
100
AcDbEntity
  8
0
370
     5
390
0
 62
     7
 48
0.000066
100
AcDbLine
 10
8.10574
 20
0.595817
 30
0.0
 11
8.108379
 21
0.595514
 31
0.0
210
0.0
220
0.0
230
1.0
  0
LINE
  5
4B7
100
AcDbEntity
  8
0
370
     5
390
0
 62
     7
 48
0.000062
100
AcDbLine
 10
8.108379
 20
0.595514
 30
0.0
 11
8.110827
 21
0.595125
 31
0.0
210
0.0
220
0.0
230
1.0
  0
LINE
  5
4B8
100
AcDbEntity
  8
0
370
     5
390
0
 62
     7
 48
0.000058
100
AcDbLine
 10
8.110827
 20
0.595125
 30
0.0
 11
8.113085
 21
0.594648
 31
0.0
210
0.0
220
0.0
230
1.0
  0
LINE
  5
4B9
100
AcDbEntity
  8
0
370
     5
390
0
 62
     7
 48
0.000054
100
AcDbLine
 10
8.113085
 20
0.594648
 30
0.0
 11
8.11515
 21
0.594086
 31
0.0
210
0.0
220
0.0
230
1.0
  0
LINE
  5
4BA
100
AcDbEntity
  8
0
370
     5
390
0
 62
     7
 48
0.00005
100
AcDbLine
 10
8.11515
 20
0.594086
 30
0.0
 11
8.117024
 21
0.593438
 31
0.0
210
0.0
220
0.0
230
1.0
  0
LINE
  5
4BB
100
AcDbEntity
  8
0
370
     5
390
0
 62
     7
 48
0.000046
100
AcDbLine
 10
8.117024
 20
0.593438
 30
0.0
 11
8.118707
 21
0.592701
 31
0.0
210
0.0
220
0.0
230
1.0
  0
LINE
  5
4BC
100
AcDbEntity
  8
0
370
     5
390
0
 62
     7
 48
0.000043
100
AcDbLine
 10
8.118707
 20
0.592701
 30
0.0
 11
8.120198
 21
0.591881
 31
0.0
210
0.0
220
0.0
230
1.0
  0
LINE
  5
4BD
100
AcDbEntity
  8
0
370
     5
390
0
 62
     7
 48
0.000043
100
AcDbLine
 10
8.120198
 20
0.591881
 30
0.0
 11
8.121594
 21
0.59091
 31
0.0
210
0.0
220
0.0
230
1.0
  0
LINE
  5
4BE
100
AcDbEntity
  8
0
370
     5
390
0
 62
     7
 48
0.000046
100
AcDbLine
 10
8.121594
 20
0.59091
 30
0.0
 11
8.122994
 21
0.589734
 31
0.0
210
0.0
220
0.0
230
1.0
  0
LINE
  5
4BF
100
AcDbEntity
  8
0
370
     5
390
0
 62
     7
 48
0.000049
100
AcDbLine
 10
8.122994
 20
0.589734
 30
0.0
 11
8.124398
 21
0.58835
 31
0.0
210
0.0
220
0.0
230
1.0
  0
LINE
  5
4C0
100
AcDbEntity
  8
0
370
     5
390
0
 62
     7
 48
0.000053
100
AcDbLine
 10
8.124398
 20
0.58835
 30
0.0
 11
8.125804
 21
0.586758
 31
0.0
210
0.0
220
0.0
230
1.0
  0
LINE
  5
4C1
100
AcDbEntity
  8
0
370
     5
390
0
 62
     7
 48
0.000057
100
AcDbLine
 10
8.125804
 20
0.586758
 30
0.0
 11
8.127215
 21
0.584958
 31
0.0
210
0.0
220
0.0
230
1.0
  0
LINE
  5
4C2
100
AcDbEntity
  8
0
370
     5
390
0
 62
     7
 48
0.000061
100
AcDbLine
 10
8.127215
 20
0.584958
 30
0.0
 11
8.128628
 21
0.582951
 31
0.0
210
0.0
220
0.0
230
1.0
  0
LINE
  5
4C3
100
AcDbEntity
  8
0
370
     5
390
0
 62
     7
 48
0.000066
100
AcDbLine
 10
8.128628
 20
0.582951
 30
0.0
 11
8.130044
 21
0.580736
 31
0.0
210
0.0
220
0.0
230
1.0
  0
LINE
  5
4C4
100
AcDbEntity
  8
0
370
     5
390
0
 62
     7
 48
0.00007
100
AcDbLine
 10
8.130044
 20
0.580736
 30
0.0
 11
8.131463
 21
0.578313
 31
0.0
210
0.0
220
0.0
230
1.0
  0
LINE
  5
4C5
100
AcDbEntity
  8
0
370
     5
390
0
 62
     7
 48
0.000075
100
AcDbLine
 10
8.131463
 20
0.578313
 30
0.0
 11
8.132887
 21
0.575682
 31
0.0
210
0.0
220
0.0
230
1.0
  0
LINE
  5
4C6
100
AcDbEntity
  8
0
370
     5
390
0
 62
     7
 48
0.000079
100
AcDbLine
 10
8.132887
 20
0.575682
 30
0.0
 11
8.134311
 21
0.572844
 31
0.0
210
0.0
220
0.0
230
1.0
  0
LINE
  5
4C7
100
AcDbEntity
  8
0
370
     5
390
0
 62
     7
 48
0.000058
100
AcDbLine
 10
8.134311
 20
0.572844
 30
0.0
 11
8.135177
 21
0.575007
 31
0.0
210
0.0
220
0.0
230
1.0
  0
LINE
  5
4C8
100
AcDbEntity
  8
0
370
     5
390
0
 62
     7
 48
0.000059
100
AcDbLine
 10
8.135177
 20
0.575007
 30
0.0
 11
8.136049
 21
0.577196
 31
0.0
210
0.0
220
0.0
230
1.0
  0
LINE
  5
4C9
100
AcDbEntity
  8
0
370
     5
390
0
 62
     7
 48
0.000056
100
AcDbLine
 10
8.136049
 20
0.577196
 30
0.0
 11
8.136889
 21
0.57926
 31
0.0
210
0.0
220
0.0
230
1.0
  0
LINE
  5
4CA
100
AcDbEntity
  8
0
370
     5
390
0
 62
     7
 48
0.000053
100
AcDbLine
 10
8.136889
 20
0.57926
 30
0.0
 11
8.137697
 21
0.581201
 31
0.0
210
0.0
220
0.0
230
1.0
  0
LINE
  5
4CB
100
AcDbEntity
  8
0
370
     5
390
0
 62
     7
 48
0.000049
100
AcDbLine
 10
8.137697
 20
0.581201
 30
0.0
 11
8.138474
 21
0.583019
 31
0.0
210
0.0
220
0.0
230
1.0
  0
LINE
  5
4CC
100
AcDbEntity
  8
0
370
     5
390
0
 62
     7
 48
0.000046
100
AcDbLine
 10
8.138474
 20
0.583019
 30
0.0
 11
8.13922
 21
0.584714
 31
0.0
210
0.0
220
0.0
230
1.0
  0
LINE
  5
4CD
100
AcDbEntity
  8
0
370
     5
390
0
 62
     7
 48
0.000043
100
AcDbLine
 10
8.13922
 20
0.584714
 30
0.0
 11
8.139935
 21
0.586286
 31
0.0
210
0.0
220
0.0
230
1.0
  0
LINE
  5
4CE
100
AcDbEntity
  8
0
370
     5
390
0
 62
     7
 48
0.00004
100
AcDbLine
 10
8.139935
 20
0.586286
 30
0.0
 11
8.140617
 21
0.587735
 31
0.0
210
0.0
220
0.0
230
1.0
  0
LINE
  5
4CF
100
AcDbEntity
  8
0
370
     5
390
0
 62
     7
 48
0.000071
100
AcDbLine
 10
8.140617
 20
0.587735
 30
0.0
 11
8.14189
 21
0.590261
 31
0.0
210
0.0
220
0.0
230
1.0
  0
LINE
  5
4D0
100
AcDbEntity
  8
0
370
     5
390
0
 62
     7
 48
0.000061
100
AcDbLine
 10
8.14189
 20
0.590261
 30
0.0
 11
8.143089
 21
0.592394
 31
0.0
210
0.0
220
0.0
230
1.0
  0
LINE
  5
4D1
100
AcDbEntity
  8
0
370
     5
390
0
 62
     7
 48
0.000069
100
AcDbLine
 10
8.143089
 20
0.592394
 30
0.0
 11
8.144543
 21
0.594729
 31
0.0
210
0.0
220
0.0
230
1.0
  0
LINE
  5
4D2
100
AcDbEntity
  8
0
370
     5
390
0
 62
     7
 48
0.000038
100
AcDbLine
 10
8.144543
 20
0.594729
 30
0.0
 11
8.145386
 21
0.596012
 31
0.0
210
0.0
220
0.0
230
1.0
  0
LINE
  5
4D3
100
AcDbEntity
  8
0
370
     5
390
0
 62
     7
 48
0.000041
100
AcDbLine
 10
8.145386
 20
0.596012
 30
0.0
 11
8.146304
 21
0.597369
 31
0.0
210
0.0
220
0.0
230
1.0
  0
LINE
  5
4D4
100
AcDbEntity
  8
0
370
     5
390
0
 62
     7
 48
0.000044
100
AcDbLine
 10
8.146304
 20
0.597369
 30
0.0
 11
8.1473
 21
0.598802
 31
0.0
210
0.0
220
0.0
230
1.0
  0
LINE
  5
4D5
100
AcDbEntity
  8
0
370
     5
390
0
 62
     7
 48
0.000046
100
AcDbLine
 10
8.1473
 20
0.598802
 30
0.0
 11
8.148372
 21
0.600311
 31
0.0
210
0.0
220
0.0
230
1.0
  0
LINE
  5
4D6
100
AcDbEntity
  8
0
370
     5
390
0
 62
     7
 48
0.000049
100
AcDbLine
 10
8.148372
 20
0.600311
 30
0.0
 11
8.149522
 21
0.601895
 31
0.0
210
0.0
220
0.0
230
1.0
  0
LINE
  5
4D7
100
AcDbEntity
  8
0
370
     5
390
0
 62
     7
 48
0.000052
100
AcDbLine
 10
8.149522
 20
0.601895
 30
0.0
 11
8.150747
 21
0.603555
 31
0.0
210
0.0
220
0.0
230
1.0
  0
LINE
  5
4D8
100
AcDbEntity
  8
0
370
     5
390
0
 62
     7
 48
0.000054
100
AcDbLine
 10
8.150747
 20
0.603555
 30
0.0
 11
8.152051
 21
0.605292
 31
0.0
210
0.0
220
0.0
230
1.0
  0
LINE
  5
4D9
100
AcDbEntity
  8
0
370
     5
390
0
 62
     7
 48
0.002807
100
AcDbLine
 10
8.152051
 20
0.605292
 30
0.0
 11
8.03978
 21
0.605292
 31
0.0
210
0.0
220
0.0
230
1.0
  0
ENDBLK
  5
4DA
100
AcDbEntity
  8
0
390
0
100
AcDbBlockEnd
  0
BLOCK
  5
4DB
100
AcDbEntity
  8
0
370
     0
390
0
100
AcDbBlockBegin
  2
BLOCK6
 70
     0
 10
0.0
 20
0.0
 30
0.0
  3
BLOCK6
  1

  0
TEXT
  5
4DC
100
AcDbEntity
  8
0
370
    13
390
0
 62
     7
 48
0.03937
100
AcDbText
 10
-4.819691
 20
-3.414491
 30
0.0
 40
0.16601
  1
0.625-11
 72
     5
 11
-3.960853
 21
-3.414491
 31
0.0
100
AcDbText
  0
TEXT
  5
4DD
100
AcDbEntity
  8
0
370
    13
390
0
 62
     7
 48
0.03937
100
AcDbText
 10
-3.960853
 20
-3.414491
 30
0.0
 40
0.16601
  1
 X 
 72
     5
 11
-3.656421
 21
-3.414491
 31
0.0
100
AcDbText
  0
TEXT
  5
4DE
100
AcDbEntity
  8
0
370
    13
390
0
 62
     7
 48
0.03937
100
AcDbText
 10
-3.656421
 20
-3.414491
 30
0.0
 40
0.16601
  1
1.12in
 72
     5
 11
-3.039401
 21
-3.414491
 31
0.0
100
AcDbText
  0
POLYLINE
  5
4DF
100
AcDbEntity
  8
0
370
    13
390
0
 62
     7
 48
0.03937
100
AcDb2dPolyline
 66
     1
 10
0.0
 20
0.0
 30
0.0
 71
     3
  0
VERTEX
  5
4E0
100
AcDbEntity
  8
0
370
     0
390
0
100
AcDbVertex
100
AcDb2dVertex
 10
-2.271136
 20
-2.340514
 30
0.0
  0
VERTEX
  5
4E1
100
AcDbEntity
  8
0
370
     0
390
0
100
AcDbVertex
100
AcDb2dVertex
 10
-2.709743
 20
-3.329686
 30
0.0
  0
VERTEX
  5
4E2
100
AcDbEntity
  8
0
370
     0
390
0
100
AcDbVertex
100
AcDb2dVertex
 10
-2.906594
 20
-3.329686
 30
0.0
  0
SEQEND
  5
4E3
100
AcDbEntity
  8
0
370
     0
390
0
  0
SOLID
  5
4E4
100
AcDbEntity
  8
0
370
    13
390
0
 62
     7
 48
0.03937
100
AcDbTrace
 10
-2.356475
 20
-2.671675
 30
0.0
 11
-2.271136
 21
-2.340514
 31
0.0
 12
-2.459266
 22
-2.626097
 32
0.0
 13
-2.459266
 23
-2.626097
 33
0.0
  0
ENDBLK
  5
4E5
100
AcDbEntity
  8
0
390
0
100
AcDbBlockEnd
  0
BLOCK
  5
4E6
100
AcDbEntity
  8
0
370
     0
390
0
100
AcDbBlockBegin
  2
BLOCK7
 70
     0
 10
0.0
 20
0.0
 30
0.0
  3
BLOCK7
  1

  0
TEXT
  5
4E7
100
AcDbEntity
  8
0
370
    13
390
0
 62
     7
 48
0.03937
100
AcDbText
 10
-4.820809
 20
-3.124765
 30
0.0
 40
0.16601
  1
4
 72
     5
 11
-4.70086
 21
-3.124765
 31
0.0
100
AcDbText
  0
TEXT
  5
4E8
100
AcDbEntity
  8
0
370
    13
390
0
 62
     7
 48
0.03937
100
AcDbText
 10
-4.70086
 20
-3.124765
 30
0.0
 40
0.16601
  1
X
 72
     5
 11
-4.516377
 21
-3.124765
 31
0.0
100
AcDbText
  0
ENDBLK
  5
4E9
100
AcDbEntity
  8
0
390
0
100
AcDbBlockEnd
  0
BLOCK
  5
4EA
100
AcDbEntity
  8
0
370
     0
390
0
100
AcDbBlockBegin
  2
BLOCK8
 70
     0
 10
0.0
 20
0.0
 30
0.0
  3
BLOCK8
  1

  0
SOLID
  5
4EB
100
AcDbEntity
  8
0
370
    13
390
0
 62
     7
 48
0.03937
100
AcDbTrace
 10
3.223686
 20
2.513416
 30
0.0
 11
2.988788
 21
2.264872
 31
0.0
 12
3.223686
 22
2.513416
 32
0.0
 13
3.291597
 23
2.423798
 33
0.0
  0
TEXT
  5
4EC
100
AcDbEntity
  8
0
370
    13
390
0
 62
     7
 48
0.03937
100
AcDbText
 10
4.395228
 20
2.674505
 30
0.0
 40
0.16601
  1
7.5
 72
     5
 11
4.695101
 21
2.674505
 31
0.0
100
AcDbText
  0
TEXT
  5
4ED
100
AcDbEntity
  8
0
370
    13
390
0
 62
     7
 48
0.03937
100
AcDbText
 10
4.695101
 20
2.674505
 30
0.0
 40
0.16601
  1
"
 72
     5
 11
4.816842
 21
2.674505
 31
0.0
100
AcDbText
  0
TEXT
  5
4EE
100
AcDbEntity
  8
0
370
    13
390
0
 62
     7
 48
0.03937
100
AcDbText
 10
4.060552
 20
2.674505
 30
0.0
 40
0.16601
  1
%%c
 72
     5
 11
4.226562
 21
2.674505
 31
0.0
100
AcDbText
  0
LINE
  5
4EF
100
AcDbEntity
  8
0
370
    13
390
0
 62
     7
 48
0.007168
100
AcDbLine
 10
3.638886
 20
2.75751
 30
0.0
 11
3.925618
 21
2.75751
 31
0.0
210
0.0
220
0.0
230
1.0
  0
LINE
  5
4F0
100
AcDbEntity
  8
0
370
    13
390
0
 62
     7
 48
0.011959
100
AcDbLine
 10
3.257642
 20
2.468607
 30
0.0
 11
3.638886
 21
2.75751
 31
0.0
210
0.0
220
0.0
230
1.0
  0
POLYLINE
  5
4F1
100
AcDbEntity
  8
0
370
    13
390
0
 62
     7
 48
0.03937
100
AcDb2dPolyline
 66
     1
 10
0.0
 20
0.0
 30
0.0
 70
     1
 71
     3
  0
VERTEX
  5
4F2
100
AcDbEntity
  8
0
370
     0
390
0
100
AcDbVertex
100
AcDb2dVertex
 10
3.223686
 20
2.513416
 30
0.0
  0
VERTEX
  5
4F3
100
AcDbEntity
  8
0
370
     0
390
0
100
AcDbVertex
100
AcDb2dVertex
 10
2.988788
 20
2.264872
 30
0.0
  0
VERTEX
  5
4F4
100
AcDbEntity
  8
0
370
     0
390
0
100
AcDbVertex
100
AcDb2dVertex
 10
3.291597
 20
2.423798
 30
0.0
  0
SEQEND
  5
4F5
100
AcDbEntity
  8
0
370
     0
390
0
  0
ENDBLK
  5
4F6
100
AcDbEntity
  8
0
390
0
100
AcDbBlockEnd
  0
BLOCK
  5
4F7
100
AcDbEntity
  8
0
370
     0
390
0
100
AcDbBlockBegin
  2
BLOCK9
 70
     0
 10
0.0
 20
0.0
 30
0.0
  3
BLOCK9
  1

  0
SOLID
  5
4F8
100
AcDbEntity
  8
0
370
    13
390
0
 62
     7
 48
0.03937
100
AcDbTrace
 10
1.597001
 20
-2.930956
 30
0.0
 11
1.390802
 21
-2.658133
 31
0.0
 12
1.597001
 22
-2.930956
 32
0.0
 13
1.497372
 23
-2.983084
 33
0.0
  0
TEXT
  5
4F9
100
AcDbEntity
  8
0
370
    13
390
0
 62
     7
 48
0.03937
100
AcDbText
 10
2.804973
 20
-3.998399
 30
0.0
 40
0.16601
  1
6
 72
     5
 11
2.924923
 21
-3.998399
 31
0.0
100
AcDbText
  0
TEXT
  5
4FA
100
AcDbEntity
  8
0
370
    13
390
0
 62
     7
 48
0.03937
100
AcDbText
 10
2.924922
 20
-3.998399
 30
0.0
 40
0.16601
  1
"
 72
     5
 11
3.046663
 21
-3.998399
 31
0.0
100
AcDbText
  0
TEXT
  5
4FB
100
AcDbEntity
  8
0
370
    13
390
0
 62
     7
 48
0.03937
100
AcDbText
 10
2.470297
 20
-3.998399
 30
0.0
 40
0.16601
  1
%%c
 72
     5
 11
2.636307
 21
-3.998399
 31
0.0
100
AcDbText
  0
LINE
  5
4FC
100
AcDbEntity
  8
0
370
    13
390
0
 62
     7
 48
0.007168
100
AcDbLine
 10
2.048632
 20
-3.915394
 30
0.0
 11
2.335364
 21
-3.915394
 31
0.0
210
0.0
220
0.0
230
1.0
  0
ARC
  5
4FD
100
AcDbEntity
  8
0
370
    13
390
0
 62
     7
 48
0.03937
100
AcDbCircle
 10
0.0
 20
0.0
 30
0.0
 40
3.0
210
0.0
220
0.0
230
1.0
100
AcDbArc
 50
295.083246
 51
298.022379
  0
LINE
  5
4FE
100
AcDbEntity
  8
0
370
    13
390
0
 62
     7
 48
0.03937
100
AcDbLine
 10
1.547187
 20
-2.95702
 30
0.0
 11
2.048632
 21
-3.915394
 31
0.0
210
0.0
220
0.0
230
1.0
  0
POLYLINE
  5
4FF
100
AcDbEntity
  8
0
370
    13
390
0
 62
     7
 48
0.03937
100
AcDb2dPolyline
 66
     1
 10
0.0
 20
0.0
 30
0.0
 70
     1
 71
     3
  0
VERTEX
  5
500
100
AcDbEntity
  8
0
370
     0
390
0
100
AcDbVertex
100
AcDb2dVertex
 10
1.597001
 20
-2.930956
 30
0.0
  0
VERTEX
  5
501
100
AcDbEntity
  8
0
370
     0
390
0
100
AcDbVertex
100
AcDb2dVertex
 10
1.390802
 20
-2.658133
 30
0.0
  0
VERTEX
  5
502
100
AcDbEntity
  8
0
370
     0
390
0
100
AcDbVertex
100
AcDb2dVertex
 10
1.497372
 20
-2.983084
 30
0.0
  0
SEQEND
  5
503
100
AcDbEntity
  8
0
370
     0
390
0
  0
ENDBLK
  5
504
100
AcDbEntity
  8
0
390
0
100
AcDbBlockEnd
  0
BLOCK
  5
505
100
AcDbEntity
  8
0
370
     0
390
0
100
AcDbBlockBegin
  2
BLOCK10
 70
     0
 10
0.0
 20
0.0
 30
0.0
  3
BLOCK10
  1

  0
LINE
  5
506
100
AcDbEntity
  8
0
370
    13
390
0
  6
DASHDOT
 62
     7
 48
0.03937
100
AcDbLine
 10
2.769049
 20
2.769049
 30
0.0
 11
1.473591
 21
1.473591
 31
0.0
210
0.0
220
0.0
230
1.0
  0
ARC
  5
507
100
AcDbEntity
  8
0
370
    13
390
0
  6
DASHDOT
 62
     7
 48
0.03937
100
AcDbCircle
 10
0.0
 20
0.0
 30
0.0
 40
3.0
210
0.0
220
0.0
230
1.0
100
AcDbArc
 50
27.50517
 51
62.494831
  0
ENDBLK
  5
508
100
AcDbEntity
  8
0
390
0
100
AcDbBlockEnd
  0
BLOCK
  5
509
100
AcDbEntity
  8
0
370
     0
390
0
100
AcDbBlockBegin
  2
BLOCK11
 70
     0
 10
0.0
 20
0.0
 30
0.0
  3
BLOCK11
  1

  0
LINE
  5
50A
100
AcDbEntity
  8
0
370
    13
390
0
  6
DASHDOT
 62
     7
 48
0.03937
100
AcDbLine
 10
-2.837993
 20
2.837993
 30
0.0
 11
-1.404648
 21
1.404648
 31
0.0
210
0.0
220
0.0
230
1.0
  0
ARC
  5
50B
100
AcDbEntity
  8
0
370
    13
390
0
  6
DASHDOT
 62
     7
 48
0.03937
100
AcDbCircle
 10
0.0
 20
0.0
 30
0.0
 40
3.0
210
0.0
220
0.0
230
1.0
100
AcDbArc
 50
115.643026
 51
154.356975
  0
ENDBLK
  5
50C
100
AcDbEntity
  8
0
390
0
100
AcDbBlockEnd
  0
BLOCK
  5
50D
100
AcDbEntity
  8
0
370
     0
390
0
100
AcDbBlockBegin
  2
BLOCK12
 70
     0
 10
0.0
 20
0.0
 30
0.0
  3
BLOCK12
  1

  0
LINE
  5
50E
100
AcDbEntity
  8
0
370
    13
390
0
  6
DASHDOT
 62
     7
 48
0.03937
100
AcDbLine
 10
-2.788191
 20
-2.788191
 30
0.0
 11
-1.45445
 21
-1.45445
 31
0.0
210
0.0
220
0.0
230
1.0
  0
ARC
  5
50F
100
AcDbEntity
  8
0
370
    13
390
0
  6
DASHDOT
 62
     7
 48
0.03937
100
AcDbCircle
 10
0.0
 20
0.0
 30
0.0
 40
3.0
210
0.0
220
0.0
230
1.0
100
AcDbArc
 50
206.988176
 51
243.011823
  0
ENDBLK
  5
510
100
AcDbEntity
  8
0
390
0
100
AcDbBlockEnd
  0
BLOCK
  5
511
100
AcDbEntity
  8
0
370
     0
390
0
100
AcDbBlockBegin
  2
BLOCK13
 70
     0
 10
0.0
 20
0.0
 30
0.0
  3
BLOCK13
  1

  0
LINE
  5
512
100
AcDbEntity
  8
0
370
    13
390
0
  6
DASHDOT
 62
     7
 48
0.03937
100
AcDbLine
 10
2.7499
 20
-2.7499
 30
0.0
 11
1.492741
 21
-1.492741
 31
0.0
210
0.0
220
0.0
230
1.0
  0
ARC
  5
513
100
AcDbEntity
  8
0
370
    13
390
0
  6
DASHDOT
 62
     7
 48
0.03937
100
AcDbCircle
 10
0.0
 20
0.0
 30
0.0
 40
3.0
210
0.0
220
0.0
230
1.0
100
AcDbArc
 50
298.022379
 51
331.977629
  0
ENDBLK
  5
514
100
AcDbEntity
  8
0
390
0
100
AcDbBlockEnd
  0
BLOCK
  5
515
100
AcDbEntity
  8
0
370
     0
390
0
100
AcDbBlockBegin
  2
BLOCK14
 70
     0
 10
0.0
 20
0.0
 30
0.0
  3
BLOCK14
  1

  0
SOLID
  5
516
100
AcDbEntity
  8
0
370
    13
390
0
 62
     7
 48
0.03937
100
AcDbTrace
 10
5.541303
 20
-0.274828
 30
0.0
 11
5.485081
 21
0.0625
 31
0.0
 12
5.541303
 22
-0.274828
 32
0.0
 13
5.42886
 23
-0.274828
 33
0.0
  0
SOLID
  5
517
100
AcDbEntity
  8
0
370
    13
390
0
 62
     7
 48
0.03937
100
AcDbTrace
 10
5.42886
 20
-1.162672
 30
0.0
 11
5.485081
 21
-1.5
 31
0.0
 12
5.42886
 22
-1.162672
 32
0.0
 13
5.541303
 23
-1.162672
 33
0.0
  0
TEXT
  5
518
100
AcDbEntity
  8
0
370
    13
390
0
 62
     7
 48
0.03937
100
AcDbText
 10
5.214299
 20
-0.801755
 30
0.0
 40
0.16601
  1
1.56
 72
     5
 11
5.634123
 21
-0.801755
 31
0.0
100
AcDbText
  0
TEXT
  5
519
100
AcDbEntity
  8
0
370
    13
390
0
 62
     7
 48
0.03937
100
AcDbText
 10
5.634122
 20
-0.801755
 30
0.0
 40
0.16601
  1
"
 72
     5
 11
5.755863
 21
-0.801755
 31
0.0
100
AcDbText
  0
LINE
  5
51A
100
AcDbEntity
  8
0
370
    13
390
0
 62
     7
 48
0.03937
100
AcDbLine
 10
3.882808
 20
-1.5
 30
0.0
 11
5.617889
 21
-1.5
 31
0.0
210
0.0
220
0.0
230
1.0
  0
LINE
  5
51B
100
AcDbEntity
  8
0
370
    13
390
0
 62
     7
 48
0.03937
100
AcDbLine
 10
2.632808
 20
0.0625
 30
0.0
 11
5.617889
 21
0.0625
 31
0.0
210
0.0
220
0.0
230
1.0
  0
LINE
  5
51C
100
AcDbEntity
  8
0
370
    13
390
0
 62
     7
 48
0.00565
100
AcDbLine
 10
5.485081
 20
-1.162672
 30
0.0
 11
5.485081
 21
-0.936688
 31
0.0
210
0.0
220
0.0
230
1.0
  0
LINE
  5
51D
100
AcDbEntity
  8
0
370
    13
390
0
 62
     7
 48
0.00565
100
AcDbLine
 10
5.485081
 20
-0.500812
 30
0.0
 11
5.485081
 21
-0.274828
 31
0.0
210
0.0
220
0.0
230
1.0
  0
POLYLINE
  5
51E
100
AcDbEntity
  8
0
370
    13
390
0
 62
     7
 48
0.03937
100
AcDb2dPolyline
 66
     1
 10
0.0
 20
0.0
 30
0.0
 70
     1
 71
     3
  0
VERTEX
  5
51F
100
AcDbEntity
  8
0
370
     0
390
0
100
AcDbVertex
100
AcDb2dVertex
 10
5.541303
 20
-0.274828
 30
0.0
  0
VERTEX
  5
520
100
AcDbEntity
  8
0
370
     0
390
0
100
AcDbVertex
100
AcDb2dVertex
 10
5.485081
 20
0.0625
 30
0.0
  0
VERTEX
  5
521
100
AcDbEntity
  8
0
370
     0
390
0
100
AcDbVertex
100
AcDb2dVertex
 10
5.42886
 20
-0.274828
 30
0.0
  0
SEQEND
  5
522
100
AcDbEntity
  8
0
370
     0
390
0
  0
POLYLINE
  5
523
100
AcDbEntity
  8
0
370
    13
390
0
 62
     7
 48
0.03937
100
AcDb2dPolyline
 66
     1
 10
0.0
 20
0.0
 30
0.0
 70
     1
 71
     3
  0
VERTEX
  5
524
100
AcDbEntity
  8
0
370
     0
390
0
100
AcDbVertex
100
AcDb2dVertex
 10
5.42886
 20
-1.162672
 30
0.0
  0
VERTEX
  5
525
100
AcDbEntity
  8
0
370
     0
390
0
100
AcDbVertex
100
AcDb2dVertex
 10
5.485081
 20
-1.5
 30
0.0
  0
VERTEX
  5
526
100
AcDbEntity
  8
0
370
     0
390
0
100
AcDbVertex
100
AcDb2dVertex
 10
5.541303
 20
-1.162672
 30
0.0
  0
SEQEND
  5
527
100
AcDbEntity
  8
0
370
     0
390
0
  0
ENDBLK
  5
528
100
AcDbEntity
  8
0
390
0
100
AcDbBlockEnd
  0
BLOCK
  5
529
100
AcDbEntity
  8
0
370
     0
390
0
100
AcDbBlockBegin
  2
BLOCK15
 70
     0
 10
0.0
 20
0.0
 30
0.0
  3
BLOCK15
  1

  0
SOLID
  5
52A
100
AcDbEntity
  8
0
370
    13
390
0
 62
     7
 48
0.03937
100
AcDbTrace
 10
4.523611
 20
0.399828
 30
0.0
 11
4.579832
 21
0.0625
 31
0.0
 12
4.523611
 22
0.399828
 32
0.0
 13
4.636053
 23
0.399828
 33
0.0
  0
SOLID
  5
52B
100
AcDbEntity
  8
0
370
    13
390
0
 62
     7
 48
0.03937
100
AcDbTrace
 10
4.636053
 20
-0.337328
 30
0.0
 11
4.579832
 21
0.0
 31
0.0
 12
4.636053
 22
-0.337328
 32
0.0
 13
4.523611
 23
-0.337328
 33
0.0
  0
TEXT
  5
52C
100
AcDbEntity
  8
0
370
    13
390
0
 62
     7
 48
0.03937
100
AcDbText
 10
5.001498
 20
0.649691
 30
0.0
 40
0.16601
  1
0.06
 72
     5
 11
5.421321
 21
0.649691
 31
0.0
100
AcDbText
  0
TEXT
  5
52D
100
AcDbEntity
  8
0
370
    13
390
0
 62
     7
 48
0.03937
100
AcDbText
 10
5.42132
 20
0.649691
 30
0.0
 40
0.16601
  1
"
 72
     5
 11
5.543062
 21
0.649691
 31
0.0
100
AcDbText
  0
LINE
  5
52E
100
AcDbEntity
  8
0
370
    13
390
0
 62
     7
 48
0.007168
100
AcDbLine
 10
4.579832
 20
0.732696
 30
0.0
 11
4.866565
 21
0.732696
 31
0.0
210
0.0
220
0.0
230
1.0
  0
LINE
  5
52F
100
AcDbEntity
  8
0
370
    13
390
0
 62
     7
 48
0.03937
100
AcDbLine
 10
3.882808
 20
0.0
 30
0.0
 11
4.71264
 21
0.0
 31
0.0
210
0.0
220
0.0
230
1.0
  0
LINE
  5
530
100
AcDbEntity
  8
0
370
    13
390
0
 62
     7
 48
0.03937
100
AcDbLine
 10
2.632808
 20
0.0625
 30
0.0
 11
4.71264
 21
0.0625
 31
0.0
210
0.0
220
0.0
230
1.0
  0
LINE
  5
531
100
AcDbEntity
  8
0
370
    13
390
0
 62
     7
 48
0.004848
100
AcDbLine
 10
4.579832
 20
-0.531232
 30
0.0
 11
4.579832
 21
-0.337328
 31
0.0
210
0.0
220
0.0
230
1.0
  0
LINE
  5
532
100
AcDbEntity
  8
0
370
    13
390
0
 62
     7
 48
0.008322
100
AcDbLine
 10
4.579832
 20
0.399828
 30
0.0
 11
4.579832
 21
0.732696
 31
0.0
210
0.0
220
0.0
230
1.0
  0
POLYLINE
  5
533
100
AcDbEntity
  8
0
370
    13
390
0
 62
     7
 48
0.03937
100
AcDb2dPolyline
 66
     1
 10
0.0
 20
0.0
 30
0.0
 70
     1
 71
     3
  0
VERTEX
  5
534
100
AcDbEntity
  8
0
370
     0
390
0
100
AcDbVertex
100
AcDb2dVertex
 10
4.523611
 20
0.399828
 30
0.0
  0
VERTEX
  5
535
100
AcDbEntity
  8
0
370
     0
390
0
100
AcDbVertex
100
AcDb2dVertex
 10
4.579832
 20
0.0625
 30
0.0
  0
VERTEX
  5
536
100
AcDbEntity
  8
0
370
     0
390
0
100
AcDbVertex
100
AcDb2dVertex
 10
4.636053
 20
0.399828
 30
0.0
  0
SEQEND
  5
537
100
AcDbEntity
  8
0
370
     0
390
0
  0
POLYLINE
  5
538
100
AcDbEntity
  8
0
370
    13
390
0
 62
     7
 48
0.03937
100
AcDb2dPolyline
 66
     1
 10
0.0
 20
0.0
 30
0.0
 70
     1
 71
     3
  0
VERTEX
  5
539
100
AcDbEntity
  8
0
370
     0
390
0
100
AcDbVertex
100
AcDb2dVertex
 10
4.636053
 20
-0.337328
 30
0.0
  0
VERTEX
  5
53A
100
AcDbEntity
  8
0
370
     0
390
0
100
AcDbVertex
100
AcDb2dVertex
 10
4.579832
 20
0.0
 30
0.0
  0
VERTEX
  5
53B
100
AcDbEntity
  8
0
370
     0
390
0
100
AcDbVertex
100
AcDb2dVertex
 10
4.523611
 20
-0.337328
 30
0.0
  0
SEQEND
  5
53C
100
AcDbEntity
  8
0
370
     0
390
0
  0
ENDBLK
  5
53D
100
AcDbEntity
  8
0
390
0
100
AcDbBlockEnd
  0
BLOCK
  5
53E
100
AcDbEntity
  8
0
370
     0
390
0
100
AcDbBlockBegin
  2
BLOCK16
 70
     0
 10
0.0
 20
0.0
 30
0.0
  3
BLOCK16
  1

  0
SOLID
  5
53F
100
AcDbEntity
  8
0
370
    13
390
0
 62
     7
 48
0.03937
100
AcDbTrace
 10
2.162672
 20
0.582244
 30
0.0
 11
2.5
 21
0.638465
 31
0.0
 12
2.162672
 22
0.582244
 32
0.0
 13
2.162672
 23
0.694686
 33
0.0
  0
SOLID
  5
540
100
AcDbEntity
  8
0
370
    13
390
0
 62
     7
 48
0.03937
100
AcDbTrace
 10
-2.162672
 20
0.694686
 30
0.0
 11
-2.5
 21
0.638465
 31
0.0
 12
-2.162672
 22
0.694686
 32
0.0
 13
-2.162672
 23
0.582244
 33
0.0
  0
TEXT
  5
541
100
AcDbEntity
  8
0
370
    13
390
0
 62
     7
 48
0.03937
100
AcDbText
 10
0.046493
 20
0.55546
 30
0.0
 40
0.16601
  1
5
 72
     5
 11
0.166442
 21
0.55546
 31
0.0
100
AcDbText
  0
TEXT
  5
542
100
AcDbEntity
  8
0
370
    13
390
0
 62
     7
 48
0.03937
100
AcDbText
 10
0.166442
 20
0.55546
 30
0.0
 40
0.16601
  1
"
 72
     5
 11
0.288183
 21
0.55546
 31
0.0
100
AcDbText
  0
TEXT
  5
543
100
AcDbEntity
  8
0
370
    13
390
0
 62
     7
 48
0.03937
100
AcDbText
 10
-0.288183
 20
0.55546
 30
0.0
 40
0.16601
  1
%%c
 72
     5
 11
-0.122173
 21
0.55546
 31
0.0
100
AcDbText
  0
LINE
  5
544
100
AcDbEntity
  8
0
370
    13
390
0
 62
     7
 48
0.014399
100
AcDbLine
 10
-2.5
 20
0.195308
 30
0.0
 11
-2.5
 21
0.771273
 31
0.0
210
0.0
220
0.0
230
1.0
  0
LINE
  5
545
100
AcDbEntity
  8
0
370
    13
390
0
 62
     7
 48
0.014399
100
AcDbLine
 10
2.5
 20
0.195308
 30
0.0
 11
2.5
 21
0.771273
 31
0.0
210
0.0
220
0.0
230
1.0
  0
LINE
  5
546
100
AcDbEntity
  8
0
370
    13
390
0
 62
     7
 48
0.03937
100
AcDbLine
 10
-2.162672
 20
0.638465
 30
0.0
 11
-0.423116
 21
0.638465
 31
0.0
210
0.0
220
0.0
230
1.0
  0
LINE
  5
547
100
AcDbEntity
  8
0
370
    13
390
0
 62
     7
 48
0.03937
100
AcDbLine
 10
0.423116
 20
0.638465
 30
0.0
 11
2.162672
 21
0.638465
 31
0.0
210
0.0
220
0.0
230
1.0
  0
POLYLINE
  5
548
100
AcDbEntity
  8
0
370
    13
390
0
 62
     7
 48
0.03937
100
AcDb2dPolyline
 66
     1
 10
0.0
 20
0.0
 30
0.0
 70
     1
 71
     3
  0
VERTEX
  5
549
100
AcDbEntity
  8
0
370
     0
390
0
100
AcDbVertex
100
AcDb2dVertex
 10
2.162672
 20
0.582244
 30
0.0
  0
VERTEX
  5
54A
100
AcDbEntity
  8
0
370
     0
390
0
100
AcDbVertex
100
AcDb2dVertex
 10
2.5
 20
0.638465
 30
0.0
  0
VERTEX
  5
54B
100
AcDbEntity
  8
0
370
     0
390
0
100
AcDbVertex
100
AcDb2dVertex
 10
2.162672
 20
0.694686
 30
0.0
  0
SEQEND
  5
54C
100
AcDbEntity
  8
0
370
     0
390
0
  0
POLYLINE
  5
54D
100
AcDbEntity
  8
0
370
    13
390
0
 62
     7
 48
0.03937
100
AcDb2dPolyline
 66
     1
 10
0.0
 20
0.0
 30
0.0
 70
     1
 71
     3
  0
VERTEX
  5
54E
100
AcDbEntity
  8
0
370
     0
390
0
100
AcDbVertex
100
AcDb2dVertex
 10
-2.162672
 20
0.694686
 30
0.0
  0
VERTEX
  5
54F
100
AcDbEntity
  8
0
370
     0
390
0
100
AcDbVertex
100
AcDb2dVertex
 10
-2.5
 20
0.638465
 30
0.0
  0
VERTEX
  5
550
100
AcDbEntity
  8
0
370
     0
390
0
100
AcDbVertex
100
AcDb2dVertex
 10
-2.162672
 20
0.582244
 30
0.0
  0
SEQEND
  5
551
100
AcDbEntity
  8
0
370
     0
390
0
  0
ENDBLK
  5
552
100
AcDbEntity
  8
0
390
0
100
AcDbBlockEnd
  0
BLOCK
  5
553
100
AcDbEntity
  8
0
370
     0
390
0
100
AcDbBlockBegin
  2
BLOCK17
 70
     0
 10
0.0
 20
0.0
 30
0.0
  3
BLOCK17
  1

  0
SOLID
  5
554
100
AcDbEntity
  8
0
370
    13
390
0
 62
     7
 48
0.03937
100
AcDbTrace
 10
-1.162672
 20
-1.981463
 30
0.0
 11
-1.5
 21
-2.037684
 31
0.0
 12
-1.162672
 22
-1.981463
 32
0.0
 13
-1.162672
 23
-2.093905
 33
0.0
  0
SOLID
  5
555
100
AcDbEntity
  8
0
370
    13
390
0
 62
     7
 48
0.03937
100
AcDbTrace
 10
1.162672
 20
-2.093905
 30
0.0
 11
1.5
 21
-2.037684
 31
0.0
 12
1.162672
 22
-2.093905
 32
0.0
 13
1.162672
 23
-1.981463
 33
0.0
  0
TEXT
  5
556
100
AcDbEntity
  8
0
370
    13
390
0
 62
     7
 48
0.03937
100
AcDbText
 10
0.046493
 20
-2.120689
 30
0.0
 40
0.16601
  1
3
 72
     5
 11
0.166442
 21
-2.120689
 31
0.0
100
AcDbText
  0
TEXT
  5
557
100
AcDbEntity
  8
0
370
    13
390
0
 62
     7
 48
0.03937
100
AcDbText
 10
0.166442
 20
-2.120689
 30
0.0
 40
0.16601
  1
"
 72
     5
 11
0.288183
 21
-2.120689
 31
0.0
100
AcDbText
  0
TEXT
  5
558
100
AcDbEntity
  8
0
370
    13
390
0
 62
     7
 48
0.03937
100
AcDbText
 10
-0.288183
 20
-2.120689
 30
0.0
 40
0.16601
  1
%%c
 72
     5
 11
-0.122173
 21
-2.120689
 31
0.0
100
AcDbText
  0
LINE
  5
559
100
AcDbEntity
  8
0
370
    13
390
0
 62
     7
 48
0.013442
100
AcDbLine
 10
-1.5
 20
-1.632808
 30
0.0
 11
-1.5
 21
-2.170492
 31
0.0
210
0.0
220
0.0
230
1.0
  0
LINE
  5
55A
100
AcDbEntity
  8
0
370
    13
390
0
 62
     7
 48
0.013442
100
AcDbLine
 10
1.5
 20
-1.632808
 30
0.0
 11
1.5
 21
-2.170492
 31
0.0
210
0.0
220
0.0
230
1.0
  0
LINE
  5
55B
100
AcDbEntity
  8
0
370
    13
390
0
 62
     7
 48
0.018489
100
AcDbLine
 10
-1.162672
 20
-2.037684
 30
0.0
 11
-0.423116
 21
-2.037684
 31
0.0
210
0.0
220
0.0
230
1.0
  0
LINE
  5
55C
100
AcDbEntity
  8
0
370
    13
390
0
 62
     7
 48
0.018489
100
AcDbLine
 10
0.423116
 20
-2.037684
 30
0.0
 11
1.162672
 21
-2.037684
 31
0.0
210
0.0
220
0.0
230
1.0
  0
POLYLINE
  5
55D
100
AcDbEntity
  8
0
370
    13
390
0
 62
     7
 48
0.03937
100
AcDb2dPolyline
 66
     1
 10
0.0
 20
0.0
 30
0.0
 70
     1
 71
     3
  0
VERTEX
  5
55E
100
AcDbEntity
  8
0
370
     0
390
0
100
AcDbVertex
100
AcDb2dVertex
 10
-1.162672
 20
-1.981463
 30
0.0
  0
VERTEX
  5
55F
100
AcDbEntity
  8
0
370
     0
390
0
100
AcDbVertex
100
AcDb2dVertex
 10
-1.5
 20
-2.037684
 30
0.0
  0
VERTEX
  5
560
100
AcDbEntity
  8
0
370
     0
390
0
100
AcDbVertex
100
AcDb2dVertex
 10
-1.162672
 20
-2.093905
 30
0.0
  0
SEQEND
  5
561
100
AcDbEntity
  8
0
370
     0
390
0
  0
POLYLINE
  5
562
100
AcDbEntity
  8
0
370
    13
390
0
 62
     7
 48
0.03937
100
AcDb2dPolyline
 66
     1
 10
0.0
 20
0.0
 30
0.0
 70
     1
 71
     3
  0
VERTEX
  5
563
100
AcDbEntity
  8
0
370
     0
390
0
100
AcDbVertex
100
AcDb2dVertex
 10
1.162672
 20
-2.093905
 30
0.0
  0
VERTEX
  5
564
100
AcDbEntity
  8
0
370
     0
390
0
100
AcDbVertex
100
AcDb2dVertex
 10
1.5
 20
-2.037684
 30
0.0
  0
VERTEX
  5
565
100
AcDbEntity
  8
0
370
     0
390
0
100
AcDbVertex
100
AcDb2dVertex
 10
1.162672
 20
-1.981463
 30
0.0
  0
SEQEND
  5
566
100
AcDbEntity
  8
0
370
     0
390
0
  0
ENDBLK
  5
567
100
AcDbEntity
  8
0
390
0
100
AcDbBlockEnd
  0
BLOCK
  5
568
100
AcDbEntity
  8
0
370
     0
390
0
100
AcDbBlockBegin
  2
BLOCK18
 70
     0
 10
0.0
 20
0.0
 30
0.0
  3
BLOCK18
  1

  0
LINE
  5
569
100
AcDbEntity
  8
0
370
     5
390
0
 62
     7
 48
0.03937
100
AcDbLine
 10
-1.5
 20
-1.5
 30
0.0
 11
-1.5
 21
0.0625
 31
0.0
210
0.0
220
0.0
230
1.0
  0
LINE
  5
56A
100
AcDbEntity
  8
0
370
     5
390
0
 62
     7
 48
0.03937
100
AcDbLine
 10
-1.5
 20
0.0625
 30
0.0
 11
-2.5
 21
0.0625
 31
0.0
210
0.0
220
0.0
230
1.0
  0
LINE
  5
56B
100
AcDbEntity
  8
0
370
     5
390
0
 62
     7
 48
0.001562
100
AcDbLine
 10
-2.5
 20
0.0625
 30
0.0
 11
-2.5
 21
0.0
 31
0.0
210
0.0
220
0.0
230
1.0
  0
LINE
  5
56C
100
AcDbEntity
  8
0
370
     5
390
0
 62
     7
 48
0.03937
100
AcDbLine
 10
-2.5
 20
0.0
 30
0.0
 11
-3.75
 21
0.0
 31
0.0
210
0.0
220
0.0
230
1.0
  0
LINE
  5
56D
100
AcDbEntity
  8
0
370
     5
390
0
 62
     7
 48
0.03937
100
AcDbLine
 10
-3.75
 20
0.0
 30
0.0
 11
-3.75
 21
-1.5
 31
0.0
210
0.0
220
0.0
230
1.0
  0
LINE
  5
56E
100
AcDbEntity
  8
0
370
     5
390
0
 62
     7
 48
0.03937
100
AcDbLine
 10
-3.75
 20
-1.5
 30
0.0
 11
-1.5
 21
-1.5
 31
0.0
210
0.0
220
0.0
230
1.0
  0
ENDBLK
  5
56F
100
AcDbEntity
  8
0
390
0
100
AcDbBlockEnd
  0
BLOCK
  5
570
100
AcDbEntity
  8
0
370
     0
390
0
100
AcDbBlockBegin
  2
BLOCK19
 70
     0
 10
0.0
 20
0.0
 30
0.0
  3
BLOCK19
  1

  0
LINE
  5
571
100
AcDbEntity
  8
0
370
     5
390
0
 62
     7
 48
0.03937
100
AcDbLine
 10
1.5
 20
-1.5
 30
0.0
 11
3.75
 21
-1.5
 31
0.0
210
0.0
220
0.0
230
1.0
  0
LINE
  5
572
100
AcDbEntity
  8
0
370
     5
390
0
 62
     7
 48
0.03937
100
AcDbLine
 10
3.75
 20
-1.5
 30
0.0
 11
3.75
 21
0.0
 31
0.0
210
0.0
220
0.0
230
1.0
  0
LINE
  5
573
100
AcDbEntity
  8
0
370
     5
390
0
 62
     7
 48
0.03937
100
AcDbLine
 10
3.75
 20
0.0
 30
0.0
 11
2.5
 21
0.0
 31
0.0
210
0.0
220
0.0
230
1.0
  0
LINE
  5
574
100
AcDbEntity
  8
0
370
     5
390
0
 62
     7
 48
0.001562
100
AcDbLine
 10
2.5
 20
0.0
 30
0.0
 11
2.5
 21
0.0625
 31
0.0
210
0.0
220
0.0
230
1.0
  0
LINE
  5
575
100
AcDbEntity
  8
0
370
     5
390
0
 62
     7
 48
0.03937
100
AcDbLine
 10
2.5
 20
0.0625
 30
0.0
 11
1.5
 21
0.0625
 31
0.0
210
0.0
220
0.0
230
1.0
  0
LINE
  5
576
100
AcDbEntity
  8
0
370
     5
390
0
 62
     7
 48
0.03937
100
AcDbLine
 10
1.5
 20
0.0625
 30
0.0
 11
1.5
 21
-1.5
 31
0.0
210
0.0
220
0.0
230
1.0
  0
ENDBLK
  5
577
100
AcDbEntity
  8
0
390
0
100
AcDbBlockEnd
  0
ENDSEC
  0
SECTION
  2
ENTITIES
  0
VIEWPORT
  5
3B3
100
AcDbEntity
 67
     1
  8
0
370
     0
390
0
 62
     0
 48
0.0
100
AcDbViewport
 10
0.0
 20
0.0
 30
0.0
 40
1000.0
 41
1000.0
 68
     1
 69
     1
 12
0.0
 22
0.0
 13
0.0
 23
0.0
 14
1.0
 24
1.0
 15
1.0
 25
1.0
 16
0.0
 26
0.0
 36
1.0
 17
0.0
 27
0.0
 37
0.0
 42
50.0
 43
0.0
 44
0.0
 45
1000.0
 50
0.0
 51
0.0
 72
   100
 90
        0
340
0
  1

281
     0
 71
     0
 74
     1
110
0.0
120
0.0
130
0.0
111
1.0
121
0.0
131
0.0
112
0.0
122
1.0
132
0.0
345
0
346
0
 79
     0
146
0.0
  0
TEXT
  5
27
100
AcDbEntity
  8
0
370
    13
390
0
 62
     7
 48
0.03937
100
AcDbText
 10
8.263597
 20
0.855562
 30
0.0
 40
0.098425
  1
150-FB-RF-STUDOUT-FLANGE
 72
     5
 11
10.422916
 21
0.855562
 31
0.0
100
AcDbText
  0
TEXT
  5
28
100
AcDbEntity
  8
0
370
    13
390
0
 62
     7
 48
0.03937
100
AcDbText
 10
7.774762
 20
1.08216
 30
0.0
 40
0.06
  1
SIZE:
 72
     5
 11
8.064134
 21
1.08216
 31
0.0
100
AcDbText
  0
TEXT
  5
29
100
AcDbEntity
  8
0
370
    13
390
0
 62
     7
 48
0.03937
100
AcDbText
 10
7.774762
 20
0.894218
 30
0.0
 40
0.06
  1
TYPE:
 72
     5
 11
8.064134
 21
0.894218
 31
0.0
100
AcDbText
  0
POINT
  5
2A
100
AcDbEntity
  8
0
370
     5
390
0
 62
     7
 48
0.03937
100
AcDbPoint
 10
0.0
 20
0.0
 30
0.0
210
0.0
220
0.0
230
1.0
  0
POINT
  5
2B
100
AcDbEntity
  8
0
370
     5
390
0
 62
     7
 48
0.03937
100
AcDbPoint
 10
8.029755
 20
0.53125
 30
0.0
210
0.0
220
0.0
230
1.0
  0
LINE
  5
2C
100
AcDbEntity
  8
1
370
    35
390
0
 62
     7
 48
0.000032
100
AcDbLine
 10
9.035676
 20
0.778761
 30
0.0
 11
9.036922
 21
0.778449
 31
0.0
210
0.0
220
0.0
230
1.0
  0
LINE
  5
2D
100
AcDbEntity
  8
1
370
    35
390
0
 62
     7
 48
0.03937
100
AcDbLine
 10
0.25
 20
0.25
 30
0.0
 11
0.25
 21
8.25
 31
0.0
210
0.0
220
0.0
230
1.0
  0
LINE
  5
2E
100
AcDbEntity
  8
1
370
    35
390
0
 62
     7
 48
0.03937
100
AcDbLine
 10
7.75
 20
1.1875
 30
0.0
 11
10.75
 21
1.1875
 31
0.0
210
0.0
220
0.0
230
1.0
  0
LINE
  5
2F
100
AcDbEntity
  8
1
370
    35
390
0
 62
     7
 48
0.03937
100
AcDbLine
 10
7.75
 20
1.0
 30
0.0
 11
10.75
 21
1.0
 31
0.0
210
0.0
220
0.0
230
1.0
  0
LINE
  5
30
100
AcDbEntity
  8
1
370
    35
390
0
 62
     7
 48
0.03937
100
AcDbLine
 10
0.25
 20
8.25
 30
0.0
 11
10.75
 21
8.25
 31
0.0
210
0.0
220
0.0
230
1.0
  0
LINE
  5
31
100
AcDbEntity
  8
1
370
    35
390
0
 62
     7
 48
0.03937
100
AcDbLine
 10
7.75
 20
0.8125
 30
0.0
 11
10.75
 21
0.8125
 31
0.0
210
0.0
220
0.0
230
1.0
  0
LINE
  5
32
100
AcDbEntity
  8
1
370
    35
390
0
 62
     7
 48
0.03937
100
AcDbLine
 10
0.25
 20
0.25
 30
0.0
 11
10.75
 21
0.25
 31
0.0
210
0.0
220
0.0
230
1.0
  0
LINE
  5
33
100
AcDbEntity
  8
1
370
    35
390
0
 62
     7
 48
0.03937
100
AcDbLine
 10
10.75
 20
8.25
 30
0.0
 11
10.75
 21
0.25
 31
0.0
210
0.0
220
0.0
230
1.0
  0
LINE
  5
34
100
AcDbEntity
  8
1
370
    35
390
0
 62
     7
 48
0.03937
100
AcDbLine
 10
7.75
 20
1.1875
 30
0.0
 11
7.75
 21
0.25
 31
0.0
210
0.0
220
0.0
230
1.0
  0
CIRCLE
  5
35
100
AcDbEntity
  8
0
370
    70
390
0
 62
     7
 48
0.03937
100
AcDbCircle
 10
8.029755
 20
0.53125
 30
0.0
 40
0.2475
210
0.0
220
0.0
230
1.0
  0
CIRCLE
  5
36
100
AcDbEntity
  8
0
370
    70
390
0
 62
     7
 48
0.03937
100
AcDbCircle
 10
8.029755
 20
0.53125
 30
0.0
 40
0.195
210
0.0
220
0.0
230
1.0
  0
CIRCLE
  5
37
100
AcDbEntity
  8
0
370
    35
390
0
 62
     7
 48
0.03937
100
AcDbCircle
 10
8.029755
 20
0.7525
 30
0.0
 40
0.015
210
0.0
220
0.0
230
1.0
  0
CIRCLE
  5
38
100
AcDbEntity
  8
0
370
    35
390
0
 62
     7
 48
0.03937
100
AcDbCircle
 10
8.251005
 20
0.53125
 30
0.0
 40
0.015
210
0.0
220
0.0
230
1.0
  0
CIRCLE
  5
39
100
AcDbEntity
  8
0
370
    35
390
0
 62
     7
 48
0.03937
100
AcDbCircle
 10
8.186202
 20
0.687697
 30
0.0
 40
0.015
210
0.0
220
0.0
230
1.0
  0
CIRCLE
  5
3A
100
AcDbEntity
  8
0
370
    35
390
0
 62
     7
 48
0.03937
100
AcDbCircle
 10
8.029755
 20
0.31
 30
0.0
 40
0.015
210
0.0
220
0.0
230
1.0
  0
CIRCLE
  5
3B
100
AcDbEntity
  8
0
370
    35
390
0
 62
     7
 48
0.03937
100
AcDbCircle
 10
8.186202
 20
0.374803
 30
0.0
 40
0.015
210
0.0
220
0.0
230
1.0
  0
CIRCLE
  5
3C
100
AcDbEntity
  8
0
370
    35
390
0
 62
     7
 48
0.03937
100
AcDbCircle
 10
7.808505
 20
0.53125
 30
0.0
 40
0.015
210
0.0
220
0.0
230
1.0
  0
CIRCLE
  5
3D
100
AcDbEntity
  8
0
370
    35
390
0
 62
     7
 48
0.03937
100
AcDbCircle
 10
7.873308
 20
0.687697
 30
0.0
 40
0.015
210
0.0
220
0.0
230
1.0
  0
CIRCLE
  5
3E
100
AcDbEntity
  8
0
370
    35
390
0
 62
     7
 48
0.03937
100
AcDbCircle
 10
7.873308
 20
0.374803
 30
0.0
 40
0.015
210
0.0
220
0.0
230
1.0
  0
POLYLINE
  5
3F
100
AcDbEntity
  8
0
370
    13
390
0
 62
     7
 48
0.03937
100
AcDb2dPolyline
 66
     1
 10
0.0
 20
0.0
 30
0.0
 70
     1
 71
   118
  0
VERTEX
  5
40
100
AcDbEntity
  8
0
370
     0
390
0
100
AcDbVertex
100
AcDb2dVertex
 10
8.029831
 20
0.605292
 30
0.0
  0
VERTEX
  5
41
100
AcDbEntity
  8
0
370
     0
390
0
100
AcDbVertex
100
AcDb2dVertex
 10
8.029019
 20
0.60375
 30
0.0
  0
VERTEX
  5
42
100
AcDbEntity
  8
0
370
     0
390
0
100
AcDbVertex
100
AcDb2dVertex
 10
8.021177
 20
0.589826
 30
0.0
  0
VERTEX
  5
43
100
AcDbEntity
  8
0
370
     0
390
0
100
AcDbVertex
100
AcDb2dVertex
 10
8.020426
 20
0.588405
 30
0.0
  0
VERTEX
  5
44
100
AcDbEntity
  8
0
370
     0
390
0
100
AcDbVertex
100
AcDb2dVertex
 10
8.019684
 20
0.586917
 30
0.0
  0
VERTEX
  5
45
100
AcDbEntity
  8
0
370
     0
390
0
100
AcDbVertex
100
AcDb2dVertex
 10
8.018954
 20
0.58536
 30
0.0
  0
VERTEX
  5
46
100
AcDbEntity
  8
0
370
     0
390
0
100
AcDbVertex
100
AcDb2dVertex
 10
8.018235
 20
0.583734
 30
0.0
  0
VERTEX
  5
47
100
AcDbEntity
  8
0
370
     0
390
0
100
AcDbVertex
100
AcDb2dVertex
 10
8.017528
 20
0.582038
 30
0.0
  0
VERTEX
  5
48
100
AcDbEntity
  8
0
370
     0
390
0
100
AcDbVertex
100
AcDb2dVertex
 10
8.01683
 20
0.580272
 30
0.0
  0
VERTEX
  5
49
100
AcDbEntity
  8
0
370
     0
390
0
100
AcDbVertex
100
AcDb2dVertex
 10
8.016143
 20
0.578438
 30
0.0
  0
VERTEX
  5
4A
100
AcDbEntity
  8
0
370
     0
390
0
100
AcDbVertex
100
AcDb2dVertex
 10
8.015467
 20
0.576534
 30
0.0
  0
VERTEX
  5
4B
100
AcDbEntity
  8
0
370
     0
390
0
100
AcDbVertex
100
AcDb2dVertex
 10
8.014802
 20
0.574562
 30
0.0
  0
VERTEX
  5
4C
100
AcDbEntity
  8
0
370
     0
390
0
100
AcDbVertex
100
AcDb2dVertex
 10
8.014147
 20
0.572519
 30
0.0
  0
VERTEX
  5
4D
100
AcDbEntity
  8
0
370
     0
390
0
100
AcDbVertex
100
AcDb2dVertex
 10
8.012525
 20
0.574142
 30
0.0
  0
VERTEX
  5
4E
100
AcDbEntity
  8
0
370
     0
390
0
100
AcDbVertex
100
AcDb2dVertex
 10
8.011871
 20
0.576531
 30
0.0
  0
VERTEX
  5
4F
100
AcDbEntity
  8
0
370
     0
390
0
100
AcDbVertex
100
AcDb2dVertex
 10
8.011163
 20
0.578771
 30
0.0
  0
VERTEX
  5
50
100
AcDbEntity
  8
0
370
     0
390
0
100
AcDbVertex
100
AcDb2dVertex
 10
8.010404
 20
0.580859
 30
0.0
  0
VERTEX
  5
51
100
AcDbEntity
  8
0
370
     0
390
0
100
AcDbVertex
100
AcDb2dVertex
 10
8.009591
 20
0.582795
 30
0.0
  0
VERTEX
  5
52
100
AcDbEntity
  8
0
370
     0
390
0
100
AcDbVertex
100
AcDb2dVertex
 10
8.008726
 20
0.584579
 30
0.0
  0
VERTEX
  5
53
100
AcDbEntity
  8
0
370
     0
390
0
100
AcDbVertex
100
AcDb2dVertex
 10
8.007806
 20
0.586212
 30
0.0
  0
VERTEX
  5
54
100
AcDbEntity
  8
0
370
     0
390
0
100
AcDbVertex
100
AcDb2dVertex
 10
8.006836
 20
0.587694
 30
0.0
  0
VERTEX
  5
55
100
AcDbEntity
  8
0
370
     0
390
0
100
AcDbVertex
100
AcDb2dVertex
 10
8.00581
 20
0.589025
 30
0.0
  0
VERTEX
  5
56
100
AcDbEntity
  8
0
370
     0
390
0
100
AcDbVertex
100
AcDb2dVertex
 10
8.004733
 20
0.590204
 30
0.0
  0
VERTEX
  5
57
100
AcDbEntity
  8
0
370
     0
390
0
100
AcDbVertex
100
AcDb2dVertex
 10
8.003601
 20
0.591231
 30
0.0
  0
VERTEX
  5
58
100
AcDbEntity
  8
0
370
     0
390
0
100
AcDbVertex
100
AcDb2dVertex
 10
8.002384
 20
0.592136
 30
0.0
  0
VERTEX
  5
59
100
AcDbEntity
  8
0
370
     0
390
0
100
AcDbVertex
100
AcDb2dVertex
 10
8.001043
 20
0.592944
 30
0.0
  0
VERTEX
  5
5A
100
AcDbEntity
  8
0
370
     0
390
0
100
AcDbVertex
100
AcDb2dVertex
 10
7.99958
 20
0.593658
 30
0.0
  0
VERTEX
  5
5B
100
AcDbEntity
  8
0
370
     0
390
0
100
AcDbVertex
100
AcDb2dVertex
 10
7.997995
 20
0.594276
 30
0.0
  0
VERTEX
  5
5C
100
AcDbEntity
  8
0
370
     0
390
0
100
AcDbVertex
100
AcDb2dVertex
 10
7.996287
 20
0.5948
 30
0.0
  0
VERTEX
  5
5D
100
AcDbEntity
  8
0
370
     0
390
0
100
AcDbVertex
100
AcDb2dVertex
 10
7.994457
 20
0.595229
 30
0.0
  0
VERTEX
  5
5E
100
AcDbEntity
  8
0
370
     0
390
0
100
AcDbVertex
100
AcDb2dVertex
 10
7.992506
 20
0.595562
 30
0.0
  0
VERTEX
  5
5F
100
AcDbEntity
  8
0
370
     0
390
0
100
AcDbVertex
100
AcDb2dVertex
 10
7.990431
 20
0.595799
 30
0.0
  0
VERTEX
  5
60
100
AcDbEntity
  8
0
370
     0
390
0
100
AcDbVertex
100
AcDb2dVertex
 10
7.988236
 20
0.595943
 30
0.0
  0
VERTEX
  5
61
100
AcDbEntity
  8
0
370
     0
390
0
100
AcDbVertex
100
AcDb2dVertex
 10
7.985918
 20
0.595991
 30
0.0
  0
VERTEX
  5
62
100
AcDbEntity
  8
0
370
     0
390
0
100
AcDbVertex
100
AcDb2dVertex
 10
7.983971
 20
0.595973
 30
0.0
  0
VERTEX
  5
63
100
AcDbEntity
  8
0
370
     0
390
0
100
AcDbVertex
100
AcDb2dVertex
 10
7.982024
 20
0.59592
 30
0.0
  0
VERTEX
  5
64
100
AcDbEntity
  8
0
370
     0
390
0
100
AcDbVertex
100
AcDb2dVertex
 10
7.980077
 20
0.595835
 30
0.0
  0
VERTEX
  5
65
100
AcDbEntity
  8
0
370
     0
390
0
100
AcDbVertex
100
AcDb2dVertex
 10
7.97813
 20
0.595713
 30
0.0
  0
VERTEX
  5
66
100
AcDbEntity
  8
0
370
     0
390
0
100
AcDbVertex
100
AcDb2dVertex
 10
7.976183
 20
0.595557
 30
0.0
  0
VERTEX
  5
67
100
AcDbEntity
  8
0
370
     0
390
0
100
AcDbVertex
100
AcDb2dVertex
 10
7.974885
 20
0.478313
 30
0.0
  0
VERTEX
  5
68
100
AcDbEntity
  8
0
370
     0
390
0
100
AcDbVertex
100
AcDb2dVertex
 10
7.987647
 20
0.466523
 30
0.0
  0
VERTEX
  5
69
100
AcDbEntity
  8
0
370
     0
390
0
100
AcDbVertex
100
AcDb2dVertex
 10
7.93822
 20
0.466523
 30
0.0
  0
VERTEX
  5
6A
100
AcDbEntity
  8
0
370
     0
390
0
100
AcDbVertex
100
AcDb2dVertex
 10
7.953361
 20
0.479178
 30
0.0
  0
VERTEX
  5
6B
100
AcDbEntity
  8
0
370
     0
390
0
100
AcDbVertex
100
AcDb2dVertex
 10
7.953361
 20
0.586796
 30
0.0
  0
VERTEX
  5
6C
100
AcDbEntity
  8
0
370
     0
390
0
100
AcDbVertex
100
AcDb2dVertex
 10
7.945682
 20
0.586905
 30
0.0
  0
VERTEX
  5
6D
100
AcDbEntity
  8
0
370
     0
390
0
100
AcDbVertex
100
AcDb2dVertex
 10
7.943519
 20
0.58686
 30
0.0
  0
VERTEX
  5
6E
100
AcDbEntity
  8
0
370
     0
390
0
100
AcDbVertex
100
AcDb2dVertex
 10
7.941484
 20
0.58673
 30
0.0
  0
VERTEX
  5
6F
100
AcDbEntity
  8
0
370
     0
390
0
100
AcDbVertex
100
AcDb2dVertex
 10
7.939577
 20
0.586511
 30
0.0
  0
VERTEX
  5
70
100
AcDbEntity
  8
0
370
     0
390
0
100
AcDbVertex
100
AcDb2dVertex
 10
7.937799
 20
0.586203
 30
0.0
  0
VERTEX
  5
71
100
AcDbEntity
  8
0
370
     0
390
0
100
AcDbVertex
100
AcDb2dVertex
 10
7.936151
 20
0.585809
 30
0.0
  0
VERTEX
  5
72
100
AcDbEntity
  8
0
370
     0
390
0
100
AcDbVertex
100
AcDb2dVertex
 10
7.93463
 20
0.585327
 30
0.0
  0
VERTEX
  5
73
100
AcDbEntity
  8
0
370
     0
390
0
100
AcDbVertex
100
AcDb2dVertex
 10
7.93324
 20
0.584759
 30
0.0
  0
VERTEX
  5
74
100
AcDbEntity
  8
0
370
     0
390
0
100
AcDbVertex
100
AcDb2dVertex
 10
7.930843
 20
0.583356
 30
0.0
  0
VERTEX
  5
75
100
AcDbEntity
  8
0
370
     0
390
0
100
AcDbVertex
100
AcDb2dVertex
 10
7.928935
 20
0.581582
 30
0.0
  0
VERTEX
  5
76
100
AcDbEntity
  8
0
370
     0
390
0
100
AcDbVertex
100
AcDb2dVertex
 10
7.92736
 20
0.579297
 30
0.0
  0
VERTEX
  5
77
100
AcDbEntity
  8
0
370
     0
390
0
100
AcDbVertex
100
AcDb2dVertex
 10
7.926092
 20
0.57648
 30
0.0
  0
VERTEX
  5
78
100
AcDbEntity
  8
0
370
     0
390
0
100
AcDbVertex
100
AcDb2dVertex
 10
7.925573
 20
0.574872
 30
0.0
  0
VERTEX
  5
79
100
AcDbEntity
  8
0
370
     0
390
0
100
AcDbVertex
100
AcDb2dVertex
 10
7.92513
 20
0.573132
 30
0.0
  0
VERTEX
  5
7A
100
AcDbEntity
  8
0
370
     0
390
0
100
AcDbVertex
100
AcDb2dVertex
 10
7.924766
 20
0.571259
 30
0.0
  0
VERTEX
  5
7B
100
AcDbEntity
  8
0
370
     0
390
0
100
AcDbVertex
100
AcDb2dVertex
 10
7.924478
 20
0.569252
 30
0.0
  0
VERTEX
  5
7C
100
AcDbEntity
  8
0
370
     0
390
0
100
AcDbVertex
100
AcDb2dVertex
 10
7.924266
 20
0.567111
 30
0.0
  0
VERTEX
  5
7D
100
AcDbEntity
  8
0
370
     0
390
0
100
AcDbVertex
100
AcDb2dVertex
 10
7.921454
 20
0.567111
 30
0.0
  0
VERTEX
  5
7E
100
AcDbEntity
  8
0
370
     0
390
0
100
AcDbVertex
100
AcDb2dVertex
 10
7.921734
 20
0.569565
 30
0.0
  0
VERTEX
  5
7F
100
AcDbEntity
  8
0
370
     0
390
0
100
AcDbVertex
100
AcDb2dVertex
 10
7.922096
 20
0.571866
 30
0.0
  0
VERTEX
  5
80
100
AcDbEntity
  8
0
370
     0
390
0
100
AcDbVertex
100
AcDb2dVertex
 10
7.922543
 20
0.574013
 30
0.0
  0
VERTEX
  5
81
100
AcDbEntity
  8
0
370
     0
390
0
100
AcDbVertex
100
AcDb2dVertex
 10
7.923073
 20
0.576006
 30
0.0
  0
VERTEX
  5
82
100
AcDbEntity
  8
0
370
     0
390
0
100
AcDbVertex
100
AcDb2dVertex
 10
7.923684
 20
0.577847
 30
0.0
  0
VERTEX
  5
83
100
AcDbEntity
  8
0
370
     0
390
0
100
AcDbVertex
100
AcDb2dVertex
 10
7.924381
 20
0.579533
 30
0.0
  0
VERTEX
  5
84
100
AcDbEntity
  8
0
370
     0
390
0
100
AcDbVertex
100
AcDb2dVertex
 10
7.92516
 20
0.581064
 30
0.0
  0
VERTEX
  5
85
100
AcDbEntity
  8
0
370
     0
390
0
100
AcDbVertex
100
AcDb2dVertex
 10
7.926023
 20
0.582444
 30
0.0
  0
VERTEX
  5
86
100
AcDbEntity
  8
0
370
     0
390
0
100
AcDbVertex
100
AcDb2dVertex
 10
7.926968
 20
0.58367
 30
0.0
  0
VERTEX
  5
87
100
AcDbEntity
  8
0
370
     0
390
0
100
AcDbVertex
100
AcDb2dVertex
 10
7.929138
 20
0.585687
 30
0.0
  0
VERTEX
  5
88
100
AcDbEntity
  8
0
370
     0
390
0
100
AcDbVertex
100
AcDb2dVertex
 10
7.930418
 20
0.586532
 30
0.0
  0
VERTEX
  5
89
100
AcDbEntity
  8
0
370
     0
390
0
100
AcDbVertex
100
AcDb2dVertex
 10
7.931839
 20
0.587279
 30
0.0
  0
VERTEX
  5
8A
100
AcDbEntity
  8
0
370
     0
390
0
100
AcDbVertex
100
AcDb2dVertex
 10
7.933397
 20
0.587925
 30
0.0
  0
VERTEX
  5
8B
100
AcDbEntity
  8
0
370
     0
390
0
100
AcDbVertex
100
AcDb2dVertex
 10
7.935095
 20
0.588473
 30
0.0
  0
VERTEX
  5
8C
100
AcDbEntity
  8
0
370
     0
390
0
100
AcDbVertex
100
AcDb2dVertex
 10
7.936934
 20
0.588921
 30
0.0
  0
VERTEX
  5
8D
100
AcDbEntity
  8
0
370
     0
390
0
100
AcDbVertex
100
AcDb2dVertex
 10
7.938912
 20
0.589269
 30
0.0
  0
VERTEX
  5
8E
100
AcDbEntity
  8
0
370
     0
390
0
100
AcDbVertex
100
AcDb2dVertex
 10
7.941029
 20
0.589518
 30
0.0
  0
VERTEX
  5
8F
100
AcDbEntity
  8
0
370
     0
390
0
100
AcDbVertex
100
AcDb2dVertex
 10
7.943286
 20
0.589667
 30
0.0
  0
VERTEX
  5
90
100
AcDbEntity
  8
0
370
     0
390
0
100
AcDbVertex
100
AcDb2dVertex
 10
7.945682
 20
0.589716
 30
0.0
  0
VERTEX
  5
91
100
AcDbEntity
  8
0
370
     0
390
0
100
AcDbVertex
100
AcDb2dVertex
 10
7.952171
 20
0.589608
 30
0.0
  0
VERTEX
  5
92
100
AcDbEntity
  8
0
370
     0
390
0
100
AcDbVertex
100
AcDb2dVertex
 10
7.953361
 20
0.594908
 30
0.0
  0
VERTEX
  5
93
100
AcDbEntity
  8
0
370
     0
390
0
100
AcDbVertex
100
AcDb2dVertex
 10
7.951177
 20
0.595142
 30
0.0
  0
VERTEX
  5
94
100
AcDbEntity
  8
0
370
     0
390
0
100
AcDbVertex
100
AcDb2dVertex
 10
7.949034
 20
0.595323
 30
0.0
  0
VERTEX
  5
95
100
AcDbEntity
  8
0
370
     0
390
0
100
AcDbVertex
100
AcDb2dVertex
 10
7.946936
 20
0.595454
 30
0.0
  0
VERTEX
  5
96
100
AcDbEntity
  8
0
370
     0
390
0
100
AcDbVertex
100
AcDb2dVertex
 10
7.944881
 20
0.595532
 30
0.0
  0
VERTEX
  5
97
100
AcDbEntity
  8
0
370
     0
390
0
100
AcDbVertex
100
AcDb2dVertex
 10
7.94287
 20
0.595557
 30
0.0
  0
VERTEX
  5
98
100
AcDbEntity
  8
0
370
     0
390
0
100
AcDbVertex
100
AcDb2dVertex
 10
7.940158
 20
0.5955
 30
0.0
  0
VERTEX
  5
99
100
AcDbEntity
  8
0
370
     0
390
0
100
AcDbVertex
100
AcDb2dVertex
 10
7.9376
 20
0.595331
 30
0.0
  0
VERTEX
  5
9A
100
AcDbEntity
  8
0
370
     0
390
0
100
AcDbVertex
100
AcDb2dVertex
 10
7.9352
 20
0.595046
 30
0.0
  0
VERTEX
  5
9B
100
AcDbEntity
  8
0
370
     0
390
0
100
AcDbVertex
100
AcDb2dVertex
 10
7.932953
 20
0.594648
 30
0.0
  0
VERTEX
  5
9C
100
AcDbEntity
  8
0
370
     0
390
0
100
AcDbVertex
100
AcDb2dVertex
 10
7.930864
 20
0.594138
 30
0.0
  0
VERTEX
  5
9D
100
AcDbEntity
  8
0
370
     0
390
0
100
AcDbVertex
100
AcDb2dVertex
 10
7.92893
 20
0.593513
 30
0.0
  0
VERTEX
  5
9E
100
AcDbEntity
  8
0
370
     0
390
0
100
AcDbVertex
100
AcDb2dVertex
 10
7.927152
 20
0.592775
 30
0.0
  0
VERTEX
  5
9F
100
AcDbEntity
  8
0
370
     0
390
0
100
AcDbVertex
100
AcDb2dVertex
 10
7.92553
 20
0.591923
 30
0.0
  0
VERTEX
  5
A0
100
AcDbEntity
  8
0
370
     0
390
0
100
AcDbVertex
100
AcDb2dVertex
 10
7.924063
 20
0.590958
 30
0.0
  0
VERTEX
  5
A1
100
AcDbEntity
  8
0
370
     0
390
0
100
AcDbVertex
100
AcDb2dVertex
 10
7.922751
 20
0.58988
 30
0.0
  0
VERTEX
  5
A2
100
AcDbEntity
  8
0
370
     0
390
0
100
AcDbVertex
100
AcDb2dVertex
 10
7.921574
 20
0.588665
 30
0.0
  0
VERTEX
  5
A3
100
AcDbEntity
  8
0
370
     0
390
0
100
AcDbVertex
100
AcDb2dVertex
 10
7.920506
 20
0.587294
 30
0.0
  0
VERTEX
  5
A4
100
AcDbEntity
  8
0
370
     0
390
0
100
AcDbVertex
100
AcDb2dVertex
 10
7.919549
 20
0.585767
 30
0.0
  0
VERTEX
  5
A5
100
AcDbEntity
  8
0
370
     0
390
0
100
AcDbVertex
100
AcDb2dVertex
 10
7.918703
 20
0.584081
 30
0.0
  0
VERTEX
  5
A6
100
AcDbEntity
  8
0
370
     0
390
0
100
AcDbVertex
100
AcDb2dVertex
 10
7.917966
 20
0.58224
 30
0.0
  0
VERTEX
  5
A7
100
AcDbEntity
  8
0
370
     0
390
0
100
AcDbVertex
100
AcDb2dVertex
 10
7.917339
 20
0.580242
 30
0.0
  0
VERTEX
  5
A8
100
AcDbEntity
  8
0
370
     0
390
0
100
AcDbVertex
100
AcDb2dVertex
 10
7.916824
 20
0.578087
 30
0.0
  0
VERTEX
  5
A9
100
AcDbEntity
  8
0
370
     0
390
0
100
AcDbVertex
100
AcDb2dVertex
 10
7.916418
 20
0.575775
 30
0.0
  0
VERTEX
  5
AA
100
AcDbEntity
  8
0
370
     0
390
0
100
AcDbVertex
100
AcDb2dVertex
 10
7.916123
 20
0.573306
 30
0.0
  0
VERTEX
  5
AB
100
AcDbEntity
  8
0
370
     0
390
0
100
AcDbVertex
100
AcDb2dVertex
 10
7.915938
 20
0.570681
 30
0.0
  0
VERTEX
  5
AC
100
AcDbEntity
  8
0
370
     0
390
0
100
AcDbVertex
100
AcDb2dVertex
 10
7.913659
 20
0.573722
 30
0.0
  0
VERTEX
  5
AD
100
AcDbEntity
  8
0
370
     0
390
0
100
AcDbVertex
100
AcDb2dVertex
 10
7.912577
 20
0.576833
 30
0.0
  0
VERTEX
  5
AE
100
AcDbEntity
  8
0
370
     0
390
0
100
AcDbVertex
100
AcDb2dVertex
 10
7.911392
 20
0.580013
 30
0.0
  0
VERTEX
  5
AF
100
AcDbEntity
  8
0
370
     0
390
0
100
AcDbVertex
100
AcDb2dVertex
 10
7.910106
 20
0.583262
 30
0.0
  0
VERTEX
  5
B0
100
AcDbEntity
  8
0
370
     0
390
0
100
AcDbVertex
100
AcDb2dVertex
 10
7.908719
 20
0.58658
 30
0.0
  0
VERTEX
  5
B1
100
AcDbEntity
  8
0
370
     0
390
0
100
AcDbVertex
100
AcDb2dVertex
 10
7.907229
 20
0.589967
 30
0.0
  0
VERTEX
  5
B2
100
AcDbEntity
  8
0
370
     0
390
0
100
AcDbVertex
100
AcDb2dVertex
 10
7.905638
 20
0.593424
 30
0.0
  0
VERTEX
  5
B3
100
AcDbEntity
  8
0
370
     0
390
0
100
AcDbVertex
100
AcDb2dVertex
 10
7.903945
 20
0.596951
 30
0.0
  0
VERTEX
  5
B4
100
AcDbEntity
  8
0
370
     0
390
0
100
AcDbVertex
100
AcDb2dVertex
 10
7.902151
 20
0.600546
 30
0.0
  0
VERTEX
  5
B5
100
AcDbEntity
  8
0
370
     0
390
0
100
AcDbVertex
100
AcDb2dVertex
 10
7.900255
 20
0.604209
 30
0.0
  0
SEQEND
  5
B6
100
AcDbEntity
  8
0
370
     0
390
0
  0
POLYLINE
  5
B7
100
AcDbEntity
  8
0
370
    13
390
0
 62
     7
 48
0.03937
100
AcDb2dPolyline
 66
     1
 10
0.0
 20
0.0
 30
0.0
 70
     1
 71
    22
  0
VERTEX
  5
B8
100
AcDbEntity
  8
0
370
     0
390
0
100
AcDbVertex
100
AcDb2dVertex
 10
8.036644
 20
0.598478
 30
0.0
  0
VERTEX
  5
B9
100
AcDbEntity
  8
0
370
     0
390
0
100
AcDbVertex
100
AcDb2dVertex
 10
8.035144
 20
0.596448
 30
0.0
  0
VERTEX
  5
BA
100
AcDbEntity
  8
0
370
     0
390
0
100
AcDbVertex
100
AcDb2dVertex
 10
8.033629
 20
0.594168
 30
0.0
  0
VERTEX
  5
BB
100
AcDbEntity
  8
0
370
     0
390
0
100
AcDbVertex
100
AcDb2dVertex
 10
8.032099
 20
0.591638
 30
0.0
  0
VERTEX
  5
BC
100
AcDbEntity
  8
0
370
     0
390
0
100
AcDbVertex
100
AcDb2dVertex
 10
8.030552
 20
0.588855
 30
0.0
  0
VERTEX
  5
BD
100
AcDbEntity
  8
0
370
     0
390
0
100
AcDbVertex
100
AcDb2dVertex
 10
8.028992
 20
0.585822
 30
0.0
  0
VERTEX
  5
BE
100
AcDbEntity
  8
0
370
     0
390
0
100
AcDbVertex
100
AcDb2dVertex
 10
8.027416
 20
0.582539
 30
0.0
  0
VERTEX
  5
BF
100
AcDbEntity
  8
0
370
     0
390
0
100
AcDbVertex
100
AcDb2dVertex
 10
8.025824
 20
0.579005
 30
0.0
  0
VERTEX
  5
C0
100
AcDbEntity
  8
0
370
     0
390
0
100
AcDbVertex
100
AcDb2dVertex
 10
8.024219
 20
0.575219
 30
0.0
  0
VERTEX
  5
C1
100
AcDbEntity
  8
0
370
     0
390
0
100
AcDbVertex
100
AcDb2dVertex
 10
8.022597
 20
0.571182
 30
0.0
  0
VERTEX
  5
C2
100
AcDbEntity
  8
0
370
     0
390
0
100
AcDbVertex
100
AcDb2dVertex
 10
8.020961
 20
0.566895
 30
0.0
  0
VERTEX
  5
C3
100
AcDbEntity
  8
0
370
     0
390
0
100
AcDbVertex
100
AcDb2dVertex
 10
8.018149
 20
0.567869
 30
0.0
  0
VERTEX
  5
C4
100
AcDbEntity
  8
0
370
     0
390
0
100
AcDbVertex
100
AcDb2dVertex
 10
8.020069
 20
0.573183
 30
0.0
  0
VERTEX
  5
C5
100
AcDbEntity
  8
0
370
     0
390
0
100
AcDbVertex
100
AcDb2dVertex
 10
8.021652
 20
0.577253
 30
0.0
  0
VERTEX
  5
C6
100
AcDbEntity
  8
0
370
     0
390
0
100
AcDbVertex
100
AcDb2dVertex
 10
8.023227
 20
0.581049
 30
0.0
  0
VERTEX
  5
C7
100
AcDbEntity
  8
0
370
     0
390
0
100
AcDbVertex
100
AcDb2dVertex
 10
8.024791
 20
0.584573
 30
0.0
  0
VERTEX
  5
C8
100
AcDbEntity
  8
0
370
     0
390
0
100
AcDbVertex
100
AcDb2dVertex
 10
8.026342
 20
0.587825
 30
0.0
  0
VERTEX
  5
C9
100
AcDbEntity
  8
0
370
     0
390
0
100
AcDbVertex
100
AcDb2dVertex
 10
8.027884
 20
0.590802
 30
0.0
  0
VERTEX
  5
CA
100
AcDbEntity
  8
0
370
     0
390
0
100
AcDbVertex
100
AcDb2dVertex
 10
8.029413
 20
0.593508
 30
0.0
  0
VERTEX
  5
CB
100
AcDbEntity
  8
0
370
     0
390
0
100
AcDbVertex
100
AcDb2dVertex
 10
8.030933
 20
0.595943
 30
0.0
  0
VERTEX
  5
CC
100
AcDbEntity
  8
0
370
     0
390
0
100
AcDbVertex
100
AcDb2dVertex
 10
8.032442
 20
0.598104
 30
0.0
  0
VERTEX
  5
CD
100
AcDbEntity
  8
0
370
     0
390
0
100
AcDbVertex
100
AcDb2dVertex
 10
8.03394
 20
0.599991
 30
0.0
  0
SEQEND
  5
CE
100
AcDbEntity
  8
0
370
     0
390
0
  0
POLYLINE
  5
CF
100
AcDbEntity
  8
0
370
    13
390
0
 62
     7
 48
0.03937
100
AcDb2dPolyline
 66
     1
 10
0.0
 20
0.0
 30
0.0
 70
     1
 71
    34
  0
VERTEX
  5
D0
100
AcDbEntity
  8
0
370
     0
390
0
100
AcDbVertex
100
AcDb2dVertex
 10
8.007766
 20
0.581604
 30
0.0
  0
VERTEX
  5
D1
100
AcDbEntity
  8
0
370
     0
390
0
100
AcDbVertex
100
AcDb2dVertex
 10
8.006072
 20
0.582632
 30
0.0
  0
VERTEX
  5
D2
100
AcDbEntity
  8
0
370
     0
390
0
100
AcDbVertex
100
AcDb2dVertex
 10
8.004322
 20
0.583551
 30
0.0
  0
VERTEX
  5
D3
100
AcDbEntity
  8
0
370
     0
390
0
100
AcDbVertex
100
AcDb2dVertex
 10
8.002516
 20
0.584363
 30
0.0
  0
VERTEX
  5
D4
100
AcDbEntity
  8
0
370
     0
390
0
100
AcDbVertex
100
AcDb2dVertex
 10
8.000652
 20
0.585066
 30
0.0
  0
VERTEX
  5
D5
100
AcDbEntity
  8
0
370
     0
390
0
100
AcDbVertex
100
AcDb2dVertex
 10
7.998734
 20
0.58566
 30
0.0
  0
VERTEX
  5
D6
100
AcDbEntity
  8
0
370
     0
390
0
100
AcDbVertex
100
AcDb2dVertex
 10
7.996758
 20
0.586148
 30
0.0
  0
VERTEX
  5
D7
100
AcDbEntity
  8
0
370
     0
390
0
100
AcDbVertex
100
AcDb2dVertex
 10
7.994728
 20
0.586526
 30
0.0
  0
VERTEX
  5
D8
100
AcDbEntity
  8
0
370
     0
390
0
100
AcDbVertex
100
AcDb2dVertex
 10
7.992641
 20
0.586796
 30
0.0
  0
VERTEX
  5
D9
100
AcDbEntity
  8
0
370
     0
390
0
100
AcDbVertex
100
AcDb2dVertex
 10
7.990496
 20
0.586959
 30
0.0
  0
VERTEX
  5
DA
100
AcDbEntity
  8
0
370
     0
390
0
100
AcDbVertex
100
AcDb2dVertex
 10
7.988297
 20
0.587013
 30
0.0
  0
VERTEX
  5
DB
100
AcDbEntity
  8
0
370
     0
390
0
100
AcDbVertex
100
AcDb2dVertex
 10
7.986785
 20
0.586983
 30
0.0
  0
VERTEX
  5
DC
100
AcDbEntity
  8
0
370
     0
390
0
100
AcDbVertex
100
AcDb2dVertex
 10
7.985234
 20
0.586896
 30
0.0
  0
VERTEX
  5
DD
100
AcDbEntity
  8
0
370
     0
390
0
100
AcDbVertex
100
AcDb2dVertex
 10
7.983644
 20
0.586751
 30
0.0
  0
VERTEX
  5
DE
100
AcDbEntity
  8
0
370
     0
390
0
100
AcDbVertex
100
AcDb2dVertex
 10
7.983538
 20
0.477987
 30
0.0
  0
VERTEX
  5
DF
100
AcDbEntity
  8
0
370
     0
390
0
100
AcDbVertex
100
AcDb2dVertex
 10
8.000735
 20
0.457653
 30
0.0
  0
VERTEX
  5
E0
100
AcDbEntity
  8
0
370
     0
390
0
100
AcDbVertex
100
AcDb2dVertex
 10
7.945466
 20
0.457653
 30
0.0
  0
VERTEX
  5
E1
100
AcDbEntity
  8
0
370
     0
390
0
100
AcDbVertex
100
AcDb2dVertex
 10
7.942978
 20
0.460574
 30
0.0
  0
VERTEX
  5
E2
100
AcDbEntity
  8
0
370
     0
390
0
100
AcDbVertex
100
AcDb2dVertex
 10
7.994786
 20
0.460574
 30
0.0
  0
VERTEX
  5
E3
100
AcDbEntity
  8
0
370
     0
390
0
100
AcDbVertex
100
AcDb2dVertex
 10
7.980293
 20
0.477123
 30
0.0
  0
VERTEX
  5
E4
100
AcDbEntity
  8
0
370
     0
390
0
100
AcDbVertex
100
AcDb2dVertex
 10
7.980293
 20
0.589826
 30
0.0
  0
VERTEX
  5
E5
100
AcDbEntity
  8
0
370
     0
390
0
100
AcDbVertex
100
AcDb2dVertex
 10
7.986134
 20
0.589934
 30
0.0
  0
VERTEX
  5
E6
100
AcDbEntity
  8
0
370
     0
390
0
100
AcDbVertex
100
AcDb2dVertex
 10
7.988171
 20
0.589916
 30
0.0
  0
VERTEX
  5
E7
100
AcDbEntity
  8
0
370
     0
390
0
100
AcDbVertex
100
AcDb2dVertex
 10
7.990086
 20
0.589866
 30
0.0
  0
VERTEX
  5
E8
100
AcDbEntity
  8
0
370
     0
390
0
100
AcDbVertex
100
AcDb2dVertex
 10
7.991879
 20
0.589782
 30
0.0
  0
VERTEX
  5
E9
100
AcDbEntity
  8
0
370
     0
390
0
100
AcDbVertex
100
AcDb2dVertex
 10
7.993549
 20
0.589665
 30
0.0
  0
VERTEX
  5
EA
100
AcDbEntity
  8
0
370
     0
390
0
100
AcDbVertex
100
AcDb2dVertex
 10
7.995098
 20
0.589514
 30
0.0
  0
VERTEX
  5
EB
100
AcDbEntity
  8
0
370
     0
390
0
100
AcDbVertex
100
AcDb2dVertex
 10
7.997828
 20
0.589112
 30
0.0
  0
VERTEX
  5
EC
100
AcDbEntity
  8
0
370
     0
390
0
100
AcDbVertex
100
AcDb2dVertex
 10
8.000069
 20
0.588575
 30
0.0
  0
VERTEX
  5
ED
100
AcDbEntity
  8
0
370
     0
390
0
100
AcDbVertex
100
AcDb2dVertex
 10
8.001862
 20
0.587888
 30
0.0
  0
VERTEX
  5
EE
100
AcDbEntity
  8
0
370
     0
390
0
100
AcDbVertex
100
AcDb2dVertex
 10
8.003455
 20
0.586953
 30
0.0
  0
VERTEX
  5
EF
100
AcDbEntity
  8
0
370
     0
390
0
100
AcDbVertex
100
AcDb2dVertex
 10
8.004886
 20
0.585755
 30
0.0
  0
VERTEX
  5
F0
100
AcDbEntity
  8
0
370
     0
390
0
100
AcDbVertex
100
AcDb2dVertex
 10
8.006157
 20
0.584294
 30
0.0
  0
VERTEX
  5
F1
100
AcDbEntity
  8
0
370
     0
390
0
100
AcDbVertex
100
AcDb2dVertex
 10
8.007269
 20
0.582567
 30
0.0
  0
SEQEND
  5
F2
100
AcDbEntity
  8
0
370
     0
390
0
  0
POLYLINE
  5
F3
100
AcDbEntity
  8
0
370
    13
390
0
 62
     7
 48
0.03937
100
AcDb2dPolyline
 66
     1
 10
0.0
 20
0.0
 30
0.0
 70
     1
 71
   138
  0
VERTEX
  5
F4
100
AcDbEntity
  8
0
370
     0
390
0
100
AcDbVertex
100
AcDb2dVertex
 10
8.03978
 20
0.605292
 30
0.0
  0
VERTEX
  5
F5
100
AcDbEntity
  8
0
370
     0
390
0
100
AcDbVertex
100
AcDb2dVertex
 10
8.152051
 20
0.605292
 30
0.0
  0
VERTEX
  5
F6
100
AcDbEntity
  8
0
370
     0
390
0
100
AcDbVertex
100
AcDb2dVertex
 10
8.150747
 20
0.603555
 30
0.0
  0
VERTEX
  5
F7
100
AcDbEntity
  8
0
370
     0
390
0
100
AcDbVertex
100
AcDb2dVertex
 10
8.149522
 20
0.601895
 30
0.0
  0
VERTEX
  5
F8
100
AcDbEntity
  8
0
370
     0
390
0
100
AcDbVertex
100
AcDb2dVertex
 10
8.148372
 20
0.600311
 30
0.0
  0
VERTEX
  5
F9
100
AcDbEntity
  8
0
370
     0
390
0
100
AcDbVertex
100
AcDb2dVertex
 10
8.1473
 20
0.598802
 30
0.0
  0
VERTEX
  5
FA
100
AcDbEntity
  8
0
370
     0
390
0
100
AcDbVertex
100
AcDb2dVertex
 10
8.146304
 20
0.597369
 30
0.0
  0
VERTEX
  5
FB
100
AcDbEntity
  8
0
370
     0
390
0
100
AcDbVertex
100
AcDb2dVertex
 10
8.145386
 20
0.596012
 30
0.0
  0
VERTEX
  5
FC
100
AcDbEntity
  8
0
370
     0
390
0
100
AcDbVertex
100
AcDb2dVertex
 10
8.144543
 20
0.594729
 30
0.0
  0
VERTEX
  5
FD
100
AcDbEntity
  8
0
370
     0
390
0
100
AcDbVertex
100
AcDb2dVertex
 10
8.143089
 20
0.592394
 30
0.0
  0
VERTEX
  5
FE
100
AcDbEntity
  8
0
370
     0
390
0
100
AcDbVertex
100
AcDb2dVertex
 10
8.14189
 20
0.590261
 30
0.0
  0
VERTEX
  5
FF
100
AcDbEntity
  8
0
370
     0
390
0
100
AcDbVertex
100
AcDb2dVertex
 10
8.140617
 20
0.587735
 30
0.0
  0
VERTEX
  5
100
100
AcDbEntity
  8
0
370
     0
390
0
100
AcDbVertex
100
AcDb2dVertex
 10
8.139935
 20
0.586286
 30
0.0
  0
VERTEX
  5
101
100
AcDbEntity
  8
0
370
     0
390
0
100
AcDbVertex
100
AcDb2dVertex
 10
8.13922
 20
0.584714
 30
0.0
  0
VERTEX
  5
102
100
AcDbEntity
  8
0
370
     0
390
0
100
AcDbVertex
100
AcDb2dVertex
 10
8.138474
 20
0.583019
 30
0.0
  0
VERTEX
  5
103
100
AcDbEntity
  8
0
370
     0
390
0
100
AcDbVertex
100
AcDb2dVertex
 10
8.137697
 20
0.581201
 30
0.0
  0
VERTEX
  5
104
100
AcDbEntity
  8
0
370
     0
390
0
100
AcDbVertex
100
AcDb2dVertex
 10
8.136889
 20
0.57926
 30
0.0
  0
VERTEX
  5
105
100
AcDbEntity
  8
0
370
     0
390
0
100
AcDbVertex
100
AcDb2dVertex
 10
8.136049
 20
0.577196
 30
0.0
  0
VERTEX
  5
106
100
AcDbEntity
  8
0
370
     0
390
0
100
AcDbVertex
100
AcDb2dVertex
 10
8.135177
 20
0.575007
 30
0.0
  0
VERTEX
  5
107
100
AcDbEntity
  8
0
370
     0
390
0
100
AcDbVertex
100
AcDb2dVertex
 10
8.134311
 20
0.572844
 30
0.0
  0
VERTEX
  5
108
100
AcDbEntity
  8
0
370
     0
390
0
100
AcDbVertex
100
AcDb2dVertex
 10
8.132887
 20
0.575682
 30
0.0
  0
VERTEX
  5
109
100
AcDbEntity
  8
0
370
     0
390
0
100
AcDbVertex
100
AcDb2dVertex
 10
8.131463
 20
0.578313
 30
0.0
  0
VERTEX
  5
10A
100
AcDbEntity
  8
0
370
     0
390
0
100
AcDbVertex
100
AcDb2dVertex
 10
8.130044
 20
0.580736
 30
0.0
  0
VERTEX
  5
10B
100
AcDbEntity
  8
0
370
     0
390
0
100
AcDbVertex
100
AcDb2dVertex
 10
8.128628
 20
0.582951
 30
0.0
  0
VERTEX
  5
10C
100
AcDbEntity
  8
0
370
     0
390
0
100
AcDbVertex
100
AcDb2dVertex
 10
8.127215
 20
0.584958
 30
0.0
  0
VERTEX
  5
10D
100
AcDbEntity
  8
0
370
     0
390
0
100
AcDbVertex
100
AcDb2dVertex
 10
8.125804
 20
0.586758
 30
0.0
  0
VERTEX
  5
10E
100
AcDbEntity
  8
0
370
     0
390
0
100
AcDbVertex
100
AcDb2dVertex
 10
8.124398
 20
0.58835
 30
0.0
  0
VERTEX
  5
10F
100
AcDbEntity
  8
0
370
     0
390
0
100
AcDbVertex
100
AcDb2dVertex
 10
8.122994
 20
0.589734
 30
0.0
  0
VERTEX
  5
110
100
AcDbEntity
  8
0
370
     0
390
0
100
AcDbVertex
100
AcDb2dVertex
 10
8.121594
 20
0.59091
 30
0.0
  0
VERTEX
  5
111
100
AcDbEntity
  8
0
370
     0
390
0
100
AcDbVertex
100
AcDb2dVertex
 10
8.120198
 20
0.591881
 30
0.0
  0
VERTEX
  5
112
100
AcDbEntity
  8
0
370
     0
390
0
100
AcDbVertex
100
AcDb2dVertex
 10
8.118707
 20
0.592701
 30
0.0
  0
VERTEX
  5
113
100
AcDbEntity
  8
0
370
     0
390
0
100
AcDbVertex
100
AcDb2dVertex
 10
8.117024
 20
0.593438
 30
0.0
  0
VERTEX
  5
114
100
AcDbEntity
  8
0
370
     0
390
0
100
AcDbVertex
100
AcDb2dVertex
 10
8.11515
 20
0.594086
 30
0.0
  0
VERTEX
  5
115
100
AcDbEntity
  8
0
370
     0
390
0
100
AcDbVertex
100
AcDb2dVertex
 10
8.113085
 20
0.594648
 30
0.0
  0
VERTEX
  5
116
100
AcDbEntity
  8
0
370
     0
390
0
100
AcDbVertex
100
AcDb2dVertex
 10
8.110827
 20
0.595125
 30
0.0
  0
VERTEX
  5
117
100
AcDbEntity
  8
0
370
     0
390
0
100
AcDbVertex
100
AcDb2dVertex
 10
8.108379
 20
0.595514
 30
0.0
  0
VERTEX
  5
118
100
AcDbEntity
  8
0
370
     0
390
0
100
AcDbVertex
100
AcDb2dVertex
 10
8.10574
 20
0.595817
 30
0.0
  0
VERTEX
  5
119
100
AcDbEntity
  8
0
370
     0
390
0
100
AcDbVertex
100
AcDb2dVertex
 10
8.102909
 20
0.596033
 30
0.0
  0
VERTEX
  5
11A
100
AcDbEntity
  8
0
370
     0
390
0
100
AcDbVertex
100
AcDb2dVertex
 10
8.099887
 20
0.596163
 30
0.0
  0
VERTEX
  5
11B
100
AcDbEntity
  8
0
370
     0
390
0
100
AcDbVertex
100
AcDb2dVertex
 10
8.096672
 20
0.596207
 30
0.0
  0
VERTEX
  5
11C
100
AcDbEntity
  8
0
370
     0
390
0
100
AcDbVertex
100
AcDb2dVertex
 10
8.090507
 20
0.596099
 30
0.0
  0
VERTEX
  5
11D
100
AcDbEntity
  8
0
370
     0
390
0
100
AcDbVertex
100
AcDb2dVertex
 10
8.080016
 20
0.596207
 30
0.0
  0
VERTEX
  5
11E
100
AcDbEntity
  8
0
370
     0
390
0
100
AcDbVertex
100
AcDb2dVertex
 10
8.076014
 20
0.596315
 30
0.0
  0
VERTEX
  5
11F
100
AcDbEntity
  8
0
370
     0
390
0
100
AcDbVertex
100
AcDb2dVertex
 10
8.076014
 20
0.545696
 30
0.0
  0
VERTEX
  5
120
100
AcDbEntity
  8
0
370
     0
390
0
100
AcDbVertex
100
AcDb2dVertex
 10
8.082612
 20
0.545696
 30
0.0
  0
VERTEX
  5
121
100
AcDbEntity
  8
0
370
     0
390
0
100
AcDbVertex
100
AcDb2dVertex
 10
8.082612
 20
0.590366
 30
0.0
  0
VERTEX
  5
122
100
AcDbEntity
  8
0
370
     0
390
0
100
AcDbVertex
100
AcDb2dVertex
 10
8.085749
 20
0.590474
 30
0.0
  0
VERTEX
  5
123
100
AcDbEntity
  8
0
370
     0
390
0
100
AcDbVertex
100
AcDb2dVertex
 10
8.088465
 20
0.590591
 30
0.0
  0
VERTEX
  5
124
100
AcDbEntity
  8
0
370
     0
390
0
100
AcDbVertex
100
AcDb2dVertex
 10
8.091251
 20
0.590682
 30
0.0
  0
VERTEX
  5
125
100
AcDbEntity
  8
0
370
     0
390
0
100
AcDbVertex
100
AcDb2dVertex
 10
8.094107
 20
0.590747
 30
0.0
  0
VERTEX
  5
126
100
AcDbEntity
  8
0
370
     0
390
0
100
AcDbVertex
100
AcDb2dVertex
 10
8.097032
 20
0.590786
 30
0.0
  0
VERTEX
  5
127
100
AcDbEntity
  8
0
370
     0
390
0
100
AcDbVertex
100
AcDb2dVertex
 10
8.100026
 20
0.590798
 30
0.0
  0
VERTEX
  5
128
100
AcDbEntity
  8
0
370
     0
390
0
100
AcDbVertex
100
AcDb2dVertex
 10
8.104273
 20
0.590684
 30
0.0
  0
VERTEX
  5
129
100
AcDbEntity
  8
0
370
     0
390
0
100
AcDbVertex
100
AcDb2dVertex
 10
8.108189
 20
0.59034
 30
0.0
  0
VERTEX
  5
12A
100
AcDbEntity
  8
0
370
     0
390
0
100
AcDbVertex
100
AcDb2dVertex
 10
8.111775
 20
0.589767
 30
0.0
  0
VERTEX
  5
12B
100
AcDbEntity
  8
0
370
     0
390
0
100
AcDbVertex
100
AcDb2dVertex
 10
8.115029
 20
0.588965
 30
0.0
  0
VERTEX
  5
12C
100
AcDbEntity
  8
0
370
     0
390
0
100
AcDbVertex
100
AcDb2dVertex
 10
8.117954
 20
0.587933
 30
0.0
  0
VERTEX
  5
12D
100
AcDbEntity
  8
0
370
     0
390
0
100
AcDbVertex
100
AcDb2dVertex
 10
8.120546
 20
0.586671
 30
0.0
  0
VERTEX
  5
12E
100
AcDbEntity
  8
0
370
     0
390
0
100
AcDbVertex
100
AcDb2dVertex
 10
8.122807
 20
0.58518
 30
0.0
  0
VERTEX
  5
12F
100
AcDbEntity
  8
0
370
     0
390
0
100
AcDbVertex
100
AcDb2dVertex
 10
8.124737
 20
0.583461
 30
0.0
  0
VERTEX
  5
130
100
AcDbEntity
  8
0
370
     0
390
0
100
AcDbVertex
100
AcDb2dVertex
 10
8.126338
 20
0.581511
 30
0.0
  0
VERTEX
  5
131
100
AcDbEntity
  8
0
370
     0
390
0
100
AcDbVertex
100
AcDb2dVertex
 10
8.127607
 20
0.579333
 30
0.0
  0
VERTEX
  5
132
100
AcDbEntity
  8
0
370
     0
390
0
100
AcDbVertex
100
AcDb2dVertex
 10
8.125449
 20
0.581235
 30
0.0
  0
VERTEX
  5
133
100
AcDbEntity
  8
0
370
     0
390
0
100
AcDbVertex
100
AcDb2dVertex
 10
8.123219
 20
0.582873
 30
0.0
  0
VERTEX
  5
134
100
AcDbEntity
  8
0
370
     0
390
0
100
AcDbVertex
100
AcDb2dVertex
 10
8.120915
 20
0.584246
 30
0.0
  0
VERTEX
  5
135
100
AcDbEntity
  8
0
370
     0
390
0
100
AcDbVertex
100
AcDb2dVertex
 10
8.118538
 20
0.585356
 30
0.0
  0
VERTEX
  5
136
100
AcDbEntity
  8
0
370
     0
390
0
100
AcDbVertex
100
AcDb2dVertex
 10
8.116087
 20
0.586202
 30
0.0
  0
VERTEX
  5
137
100
AcDbEntity
  8
0
370
     0
390
0
100
AcDbVertex
100
AcDb2dVertex
 10
8.113329
 20
0.586844
 30
0.0
  0
VERTEX
  5
138
100
AcDbEntity
  8
0
370
     0
390
0
100
AcDbVertex
100
AcDb2dVertex
 10
8.111747
 20
0.587112
 30
0.0
  0
VERTEX
  5
139
100
AcDbEntity
  8
0
370
     0
390
0
100
AcDbVertex
100
AcDb2dVertex
 10
8.110031
 20
0.587343
 30
0.0
  0
VERTEX
  5
13A
100
AcDbEntity
  8
0
370
     0
390
0
100
AcDbVertex
100
AcDb2dVertex
 10
8.108179
 20
0.58754
 30
0.0
  0
VERTEX
  5
13B
100
AcDbEntity
  8
0
370
     0
390
0
100
AcDbVertex
100
AcDb2dVertex
 10
8.106191
 20
0.5877
 30
0.0
  0
VERTEX
  5
13C
100
AcDbEntity
  8
0
370
     0
390
0
100
AcDbVertex
100
AcDb2dVertex
 10
8.104068
 20
0.587826
 30
0.0
  0
VERTEX
  5
13D
100
AcDbEntity
  8
0
370
     0
390
0
100
AcDbVertex
100
AcDb2dVertex
 10
8.101811
 20
0.587915
 30
0.0
  0
VERTEX
  5
13E
100
AcDbEntity
  8
0
370
     0
390
0
100
AcDbVertex
100
AcDb2dVertex
 10
8.099417
 20
0.587969
 30
0.0
  0
VERTEX
  5
13F
100
AcDbEntity
  8
0
370
     0
390
0
100
AcDbVertex
100
AcDb2dVertex
 10
8.09689
 20
0.587987
 30
0.0
  0
VERTEX
  5
140
100
AcDbEntity
  8
0
370
     0
390
0
100
AcDbVertex
100
AcDb2dVertex
 10
8.094938
 20
0.587964
 30
0.0
  0
VERTEX
  5
141
100
AcDbEntity
  8
0
370
     0
390
0
100
AcDbVertex
100
AcDb2dVertex
 10
8.092805
 20
0.5879
 30
0.0
  0
VERTEX
  5
142
100
AcDbEntity
  8
0
370
     0
390
0
100
AcDbVertex
100
AcDb2dVertex
 10
8.090491
 20
0.587792
 30
0.0
  0
VERTEX
  5
143
100
AcDbEntity
  8
0
370
     0
390
0
100
AcDbVertex
100
AcDb2dVertex
 10
8.087994
 20
0.58764
 30
0.0
  0
VERTEX
  5
144
100
AcDbEntity
  8
0
370
     0
390
0
100
AcDbVertex
100
AcDb2dVertex
 10
8.085316
 20
0.587445
 30
0.0
  0
VERTEX
  5
145
100
AcDbEntity
  8
0
370
     0
390
0
100
AcDbVertex
100
AcDb2dVertex
 10
8.085316
 20
0.545696
 30
0.0
  0
VERTEX
  5
146
100
AcDbEntity
  8
0
370
     0
390
0
100
AcDbVertex
100
AcDb2dVertex
 10
8.101647
 20
0.545696
 30
0.0
  0
VERTEX
  5
147
100
AcDbEntity
  8
0
370
     0
390
0
100
AcDbVertex
100
AcDb2dVertex
 10
8.118953
 20
0.563975
 30
0.0
  0
VERTEX
  5
148
100
AcDbEntity
  8
0
370
     0
390
0
100
AcDbVertex
100
AcDb2dVertex
 10
8.118953
 20
0.518655
 30
0.0
  0
VERTEX
  5
149
100
AcDbEntity
  8
0
370
     0
390
0
100
AcDbVertex
100
AcDb2dVertex
 10
8.100782
 20
0.53661
 30
0.0
  0
VERTEX
  5
14A
100
AcDbEntity
  8
0
370
     0
390
0
100
AcDbVertex
100
AcDb2dVertex
 10
8.076014
 20
0.53661
 30
0.0
  0
VERTEX
  5
14B
100
AcDbEntity
  8
0
370
     0
390
0
100
AcDbVertex
100
AcDb2dVertex
 10
8.076014
 20
0.482097
 30
0.0
  0
VERTEX
  5
14C
100
AcDbEntity
  8
0
370
     0
390
0
100
AcDbVertex
100
AcDb2dVertex
 10
8.089859
 20
0.468038
 30
0.0
  0
VERTEX
  5
14D
100
AcDbEntity
  8
0
370
     0
390
0
100
AcDbVertex
100
AcDb2dVertex
 10
8.036753
 20
0.468038
 30
0.0
  0
VERTEX
  5
14E
100
AcDbEntity
  8
0
370
     0
390
0
100
AcDbVertex
100
AcDb2dVertex
 10
8.054382
 20
0.482097
 30
0.0
  0
VERTEX
  5
14F
100
AcDbEntity
  8
0
370
     0
390
0
100
AcDbVertex
100
AcDb2dVertex
 10
8.054382
 20
0.528606
 30
0.0
  0
VERTEX
  5
150
100
AcDbEntity
  8
0
370
     0
390
0
100
AcDbVertex
100
AcDb2dVertex
 10
8.052737
 20
0.528543
 30
0.0
  0
VERTEX
  5
151
100
AcDbEntity
  8
0
370
     0
390
0
100
AcDbVertex
100
AcDb2dVertex
 10
8.051134
 20
0.528356
 30
0.0
  0
VERTEX
  5
152
100
AcDbEntity
  8
0
370
     0
390
0
100
AcDbVertex
100
AcDb2dVertex
 10
8.049571
 20
0.528042
 30
0.0
  0
VERTEX
  5
153
100
AcDbEntity
  8
0
370
     0
390
0
100
AcDbVertex
100
AcDb2dVertex
 10
8.048048
 20
0.527603
 30
0.0
  0
VERTEX
  5
154
100
AcDbEntity
  8
0
370
     0
390
0
100
AcDbVertex
100
AcDb2dVertex
 10
8.046567
 20
0.527039
 30
0.0
  0
VERTEX
  5
155
100
AcDbEntity
  8
0
370
     0
390
0
100
AcDbVertex
100
AcDb2dVertex
 10
8.045129
 20
0.526349
 30
0.0
  0
VERTEX
  5
156
100
AcDbEntity
  8
0
370
     0
390
0
100
AcDbVertex
100
AcDb2dVertex
 10
8.04373
 20
0.525533
 30
0.0
  0
VERTEX
  5
157
100
AcDbEntity
  8
0
370
     0
390
0
100
AcDbVertex
100
AcDb2dVertex
 10
8.042372
 20
0.524592
 30
0.0
  0
VERTEX
  5
158
100
AcDbEntity
  8
0
370
     0
390
0
100
AcDbVertex
100
AcDb2dVertex
 10
8.041057
 20
0.523526
 30
0.0
  0
VERTEX
  5
159
100
AcDbEntity
  8
0
370
     0
390
0
100
AcDbVertex
100
AcDb2dVertex
 10
8.03978
 20
0.522333
 30
0.0
  0
VERTEX
  5
15A
100
AcDbEntity
  8
0
370
     0
390
0
100
AcDbVertex
100
AcDb2dVertex
 10
8.037725
 20
0.524604
 30
0.0
  0
VERTEX
  5
15B
100
AcDbEntity
  8
0
370
     0
390
0
100
AcDbVertex
100
AcDb2dVertex
 10
8.039021
 20
0.52592
 30
0.0
  0
VERTEX
  5
15C
100
AcDbEntity
  8
0
370
     0
390
0
100
AcDbVertex
100
AcDb2dVertex
 10
8.0404
 20
0.527097
 30
0.0
  0
VERTEX
  5
15D
100
AcDbEntity
  8
0
370
     0
390
0
100
AcDbVertex
100
AcDb2dVertex
 10
8.041859
 20
0.528135
 30
0.0
  0
VERTEX
  5
15E
100
AcDbEntity
  8
0
370
     0
390
0
100
AcDbVertex
100
AcDb2dVertex
 10
8.043403
 20
0.529035
 30
0.0
  0
VERTEX
  5
15F
100
AcDbEntity
  8
0
370
     0
390
0
100
AcDbVertex
100
AcDb2dVertex
 10
8.045027
 20
0.529796
 30
0.0
  0
VERTEX
  5
160
100
AcDbEntity
  8
0
370
     0
390
0
100
AcDbVertex
100
AcDb2dVertex
 10
8.046733
 20
0.53042
 30
0.0
  0
VERTEX
  5
161
100
AcDbEntity
  8
0
370
     0
390
0
100
AcDbVertex
100
AcDb2dVertex
 10
8.048522
 20
0.530904
 30
0.0
  0
VERTEX
  5
162
100
AcDbEntity
  8
0
370
     0
390
0
100
AcDbVertex
100
AcDb2dVertex
 10
8.050394
 20
0.531249
 30
0.0
  0
VERTEX
  5
163
100
AcDbEntity
  8
0
370
     0
390
0
100
AcDbVertex
100
AcDb2dVertex
 10
8.052347
 20
0.531458
 30
0.0
  0
VERTEX
  5
164
100
AcDbEntity
  8
0
370
     0
390
0
100
AcDbVertex
100
AcDb2dVertex
 10
8.054382
 20
0.531527
 30
0.0
  0
VERTEX
  5
165
100
AcDbEntity
  8
0
370
     0
390
0
100
AcDbVertex
100
AcDb2dVertex
 10
8.054382
 20
0.53661
 30
0.0
  0
VERTEX
  5
166
100
AcDbEntity
  8
0
370
     0
390
0
100
AcDbVertex
100
AcDb2dVertex
 10
8.052773
 20
0.536748
 30
0.0
  0
VERTEX
  5
167
100
AcDbEntity
  8
0
370
     0
390
0
100
AcDbVertex
100
AcDb2dVertex
 10
8.051138
 20
0.536826
 30
0.0
  0
VERTEX
  5
168
100
AcDbEntity
  8
0
370
     0
390
0
100
AcDbVertex
100
AcDb2dVertex
 10
8.049152
 20
0.536744
 30
0.0
  0
VERTEX
  5
169
100
AcDbEntity
  8
0
370
     0
390
0
100
AcDbVertex
100
AcDb2dVertex
 10
8.047222
 20
0.536498
 30
0.0
  0
VERTEX
  5
16A
100
AcDbEntity
  8
0
370
     0
390
0
100
AcDbVertex
100
AcDb2dVertex
 10
8.045345
 20
0.536087
 30
0.0
  0
VERTEX
  5
16B
100
AcDbEntity
  8
0
370
     0
390
0
100
AcDbVertex
100
AcDb2dVertex
 10
8.043522
 20
0.535512
 30
0.0
  0
VERTEX
  5
16C
100
AcDbEntity
  8
0
370
     0
390
0
100
AcDbVertex
100
AcDb2dVertex
 10
8.041754
 20
0.534771
 30
0.0
  0
VERTEX
  5
16D
100
AcDbEntity
  8
0
370
     0
390
0
100
AcDbVertex
100
AcDb2dVertex
 10
8.04004
 20
0.533868
 30
0.0
  0
VERTEX
  5
16E
100
AcDbEntity
  8
0
370
     0
390
0
100
AcDbVertex
100
AcDb2dVertex
 10
8.038381
 20
0.532799
 30
0.0
  0
VERTEX
  5
16F
100
AcDbEntity
  8
0
370
     0
390
0
100
AcDbVertex
100
AcDb2dVertex
 10
8.036774
 20
0.531566
 30
0.0
  0
VERTEX
  5
170
100
AcDbEntity
  8
0
370
     0
390
0
100
AcDbVertex
100
AcDb2dVertex
 10
8.035222
 20
0.530168
 30
0.0
  0
VERTEX
  5
171
100
AcDbEntity
  8
0
370
     0
390
0
100
AcDbVertex
100
AcDb2dVertex
 10
8.033725
 20
0.528606
 30
0.0
  0
VERTEX
  5
172
100
AcDbEntity
  8
0
370
     0
390
0
100
AcDbVertex
100
AcDb2dVertex
 10
8.032967
 20
0.530337
 30
0.0
  0
VERTEX
  5
173
100
AcDbEntity
  8
0
370
     0
390
0
100
AcDbVertex
100
AcDb2dVertex
 10
8.034058
 20
0.533022
 30
0.0
  0
VERTEX
  5
174
100
AcDbEntity
  8
0
370
     0
390
0
100
AcDbVertex
100
AcDb2dVertex
 10
8.03538
 20
0.535451
 30
0.0
  0
VERTEX
  5
175
100
AcDbEntity
  8
0
370
     0
390
0
100
AcDbVertex
100
AcDb2dVertex
 10
8.036938
 20
0.537626
 30
0.0
  0
VERTEX
  5
176
100
AcDbEntity
  8
0
370
     0
390
0
100
AcDbVertex
100
AcDb2dVertex
 10
8.03873
 20
0.539544
 30
0.0
  0
VERTEX
  5
177
100
AcDbEntity
  8
0
370
     0
390
0
100
AcDbVertex
100
AcDb2dVertex
 10
8.040755
 20
0.541208
 30
0.0
  0
VERTEX
  5
178
100
AcDbEntity
  8
0
370
     0
390
0
100
AcDbVertex
100
AcDb2dVertex
 10
8.043013
 20
0.542615
 30
0.0
  0
VERTEX
  5
179
100
AcDbEntity
  8
0
370
     0
390
0
100
AcDbVertex
100
AcDb2dVertex
 10
8.045504
 20
0.543768
 30
0.0
  0
VERTEX
  5
17A
100
AcDbEntity
  8
0
370
     0
390
0
100
AcDbVertex
100
AcDb2dVertex
 10
8.048231
 20
0.544665
 30
0.0
  0
VERTEX
  5
17B
100
AcDbEntity
  8
0
370
     0
390
0
100
AcDbVertex
100
AcDb2dVertex
 10
8.051189
 20
0.545309
 30
0.0
  0
VERTEX
  5
17C
100
AcDbEntity
  8
0
370
     0
390
0
100
AcDbVertex
100
AcDb2dVertex
 10
8.054382
 20
0.545696
 30
0.0
  0
VERTEX
  5
17D
100
AcDbEntity
  8
0
370
     0
390
0
100
AcDbVertex
100
AcDb2dVertex
 10
8.054382
 20
0.591339
 30
0.0
  0
SEQEND
  5
17E
100
AcDbEntity
  8
0
370
     0
390
0
  0
POLYLINE
  5
17F
100
AcDbEntity
  8
0
370
    13
390
0
 62
     7
 48
0.03937
100
AcDb2dPolyline
 66
     1
 10
0.0
 20
0.0
 30
0.0
 70
     1
 71
    22
  0
VERTEX
  5
180
100
AcDbEntity
  8
0
370
     0
390
0
100
AcDbVertex
100
AcDb2dVertex
 10
8.160271
 20
0.598694
 30
0.0
  0
VERTEX
  5
181
100
AcDbEntity
  8
0
370
     0
390
0
100
AcDbVertex
100
AcDb2dVertex
 10
8.157292
 20
0.595112
 30
0.0
  0
VERTEX
  5
182
100
AcDbEntity
  8
0
370
     0
390
0
100
AcDbVertex
100
AcDb2dVertex
 10
8.154542
 20
0.59159
 30
0.0
  0
VERTEX
  5
183
100
AcDbEntity
  8
0
370
     0
390
0
100
AcDbVertex
100
AcDb2dVertex
 10
8.152022
 20
0.588129
 30
0.0
  0
VERTEX
  5
184
100
AcDbEntity
  8
0
370
     0
390
0
100
AcDbVertex
100
AcDb2dVertex
 10
8.149732
 20
0.584729
 30
0.0
  0
VERTEX
  5
185
100
AcDbEntity
  8
0
370
     0
390
0
100
AcDbVertex
100
AcDb2dVertex
 10
8.147671
 20
0.581388
 30
0.0
  0
VERTEX
  5
186
100
AcDbEntity
  8
0
370
     0
390
0
100
AcDbVertex
100
AcDb2dVertex
 10
8.145838
 20
0.578109
 30
0.0
  0
VERTEX
  5
187
100
AcDbEntity
  8
0
370
     0
390
0
100
AcDbVertex
100
AcDb2dVertex
 10
8.144234
 20
0.57489
 30
0.0
  0
VERTEX
  5
188
100
AcDbEntity
  8
0
370
     0
390
0
100
AcDbVertex
100
AcDb2dVertex
 10
8.142862
 20
0.571733
 30
0.0
  0
VERTEX
  5
189
100
AcDbEntity
  8
0
370
     0
390
0
100
AcDbVertex
100
AcDb2dVertex
 10
8.141717
 20
0.568634
 30
0.0
  0
VERTEX
  5
18A
100
AcDbEntity
  8
0
370
     0
390
0
100
AcDbVertex
100
AcDb2dVertex
 10
8.140802
 20
0.565596
 30
0.0
  0
VERTEX
  5
18B
100
AcDbEntity
  8
0
370
     0
390
0
100
AcDbVertex
100
AcDb2dVertex
 10
8.138531
 20
0.567111
 30
0.0
  0
VERTEX
  5
18C
100
AcDbEntity
  8
0
370
     0
390
0
100
AcDbVertex
100
AcDb2dVertex
 10
8.139469
 20
0.570503
 30
0.0
  0
VERTEX
  5
18D
100
AcDbEntity
  8
0
370
     0
390
0
100
AcDbVertex
100
AcDb2dVertex
 10
8.140637
 20
0.573882
 30
0.0
  0
VERTEX
  5
18E
100
AcDbEntity
  8
0
370
     0
390
0
100
AcDbVertex
100
AcDb2dVertex
 10
8.142038
 20
0.577251
 30
0.0
  0
VERTEX
  5
18F
100
AcDbEntity
  8
0
370
     0
390
0
100
AcDbVertex
100
AcDb2dVertex
 10
8.14367
 20
0.58061
 30
0.0
  0
VERTEX
  5
190
100
AcDbEntity
  8
0
370
     0
390
0
100
AcDbVertex
100
AcDb2dVertex
 10
8.145533
 20
0.583958
 30
0.0
  0
VERTEX
  5
191
100
AcDbEntity
  8
0
370
     0
390
0
100
AcDbVertex
100
AcDb2dVertex
 10
8.147629
 20
0.587294
 30
0.0
  0
VERTEX
  5
192
100
AcDbEntity
  8
0
370
     0
390
0
100
AcDbVertex
100
AcDb2dVertex
 10
8.149955
 20
0.590619
 30
0.0
  0
VERTEX
  5
193
100
AcDbEntity
  8
0
370
     0
390
0
100
AcDbVertex
100
AcDb2dVertex
 10
8.152513
 20
0.593936
 30
0.0
  0
VERTEX
  5
194
100
AcDbEntity
  8
0
370
     0
390
0
100
AcDbVertex
100
AcDb2dVertex
 10
8.155303
 20
0.597239
 30
0.0
  0
VERTEX
  5
195
100
AcDbEntity
  8
0
370
     0
390
0
100
AcDbVertex
100
AcDb2dVertex
 10
8.158324
 20
0.600533
 30
0.0
  0
SEQEND
  5
196
100
AcDbEntity
  8
0
370
     0
390
0
  0
POLYLINE
  5
197
100
AcDbEntity
  8
0
370
    13
390
0
 62
     7
 48
0.03937
100
AcDb2dPolyline
 66
     1
 10
0.0
 20
0.0
 30
0.0
 70
     1
 71
     4
  0
VERTEX
  5
198
100
AcDbEntity
  8
0
370
     0
390
0
100
AcDbVertex
100
AcDb2dVertex
 10
8.126849
 20
0.560189
 30
0.0
  0
VERTEX
  5
199
100
AcDbEntity
  8
0
370
     0
390
0
100
AcDbVertex
100
AcDb2dVertex
 10
8.126849
 20
0.513464
 30
0.0
  0
VERTEX
  5
19A
100
AcDbEntity
  8
0
370
     0
390
0
100
AcDbVertex
100
AcDb2dVertex
 10
8.124036
 20
0.515087
 30
0.0
  0
VERTEX
  5
19B
100
AcDbEntity
  8
0
370
     0
390
0
100
AcDbVertex
100
AcDb2dVertex
 10
8.124036
 20
0.561812
 30
0.0
  0
SEQEND
  5
19C
100
AcDbEntity
  8
0
370
     0
390
0
  0
POLYLINE
  5
19D
100
AcDbEntity
  8
0
370
    13
390
0
 62
     7
 48
0.03937
100
AcDb2dPolyline
 66
     1
 10
0.0
 20
0.0
 30
0.0
 70
     1
 71
    10
  0
VERTEX
  5
19E
100
AcDbEntity
  8
0
370
     0
390
0
100
AcDbVertex
100
AcDb2dVertex
 10
8.107488
 20
0.527525
 30
0.0
  0
VERTEX
  5
19F
100
AcDbEntity
  8
0
370
     0
390
0
100
AcDbVertex
100
AcDb2dVertex
 10
8.085316
 20
0.527525
 30
0.0
  0
VERTEX
  5
1A0
100
AcDbEntity
  8
0
370
     0
390
0
100
AcDbVertex
100
AcDb2dVertex
 10
8.085316
 20
0.481233
 30
0.0
  0
VERTEX
  5
1A1
100
AcDbEntity
  8
0
370
     0
390
0
100
AcDbVertex
100
AcDb2dVertex
 10
8.104352
 20
0.457653
 30
0.0
  0
VERTEX
  5
1A2
100
AcDbEntity
  8
0
370
     0
390
0
100
AcDbVertex
100
AcDb2dVertex
 10
8.041727
 20
0.457653
 30
0.0
  0
VERTEX
  5
1A3
100
AcDbEntity
  8
0
370
     0
390
0
100
AcDbVertex
100
AcDb2dVertex
 10
8.039024
 20
0.460574
 30
0.0
  0
VERTEX
  5
1A4
100
AcDbEntity
  8
0
370
     0
390
0
100
AcDbVertex
100
AcDb2dVertex
 10
8.098295
 20
0.460574
 30
0.0
  0
VERTEX
  5
1A5
100
AcDbEntity
  8
0
370
     0
390
0
100
AcDbVertex
100
AcDb2dVertex
 10
8.082612
 20
0.479934
 30
0.0
  0
VERTEX
  5
1A6
100
AcDbEntity
  8
0
370
     0
390
0
100
AcDbVertex
100
AcDb2dVertex
 10
8.082612
 20
0.530445
 30
0.0
  0
VERTEX
  5
1A7
100
AcDbEntity
  8
0
370
     0
390
0
100
AcDbVertex
100
AcDb2dVertex
 10
8.104352
 20
0.530445
 30
0.0
  0
SEQEND
  5
1A8
100
AcDbEntity
  8
0
370
     0
390
0
  0
POLYLINE
  5
1A9
100
AcDbEntity
  8
0
370
    35
390
0
 62
     7
 48
0.03937
100
AcDb2dPolyline
 66
     1
 10
0.0
 20
0.0
 30
0.0
 71
     2
  0
VERTEX
  5
1AA
100
AcDbEntity
  8
0
370
     0
390
0
100
AcDbVertex
100
AcDb2dVertex
 10
2.118932
 20
4.328508
 30
0.0
 42
0.241109
  0
VERTEX
  5
1AB
100
AcDbEntity
  8
0
370
     0
390
0
100
AcDbVertex
100
AcDb2dVertex
 10
2.183269
 20
4.456747
 30
0.0
  0
SEQEND
  5
1AC
100
AcDbEntity
  8
0
370
     0
390
0
  0
POLYLINE
  5
1AD
100
AcDbEntity
  8
0
370
    35
390
0
 62
     7
 48
0.03937
100
AcDb2dPolyline
 66
     1
 10
0.0
 20
0.0
 30
0.0
 71
     2
  0
VERTEX
  5
1AE
100
AcDbEntity
  8
0
370
     0
390
0
100
AcDbVertex
100
AcDb2dVertex
 10
2.183269
 20
4.456747
 30
0.0
 42
1.747571
  0
VERTEX
  5
1AF
100
AcDbEntity
  8
0
370
     0
390
0
100
AcDbVertex
100
AcDb2dVertex
 10
1.950395
 20
4.317317
 30
0.0
  0
SEQEND
  5
1B0
100
AcDbEntity
  8
0
370
     0
390
0
  0
SPLINE
  5
1B1
100
AcDbEntity
  8
0
370
    35
390
0
 62
     7
 48
0.03937
100
AcDbSpline
210
0.0
220
0.0
230
1.0
 70
     8
 71
     5
 72
    15
 73
     9
 74
     0
 42
0.0
 43
0.0
 40
0.0
 40
0.0
 40
0.0
 40
0.0
 40
0.0
 40
0.0
 40
7.3175014555305182
 40
7.3175014555305182
 40
7.3175014555305182
 40
12.143252094580451
 40
12.143252094580451
 40
12.143252094580451
 40
12.143252094580451
 40
12.143252094580451
 40
12.143252094580451
 10
2.1873737909294322
 20
4.4543608259185303
 30
0.0
 10
2.1867585153747173
 20
4.436310089890326
 30
0.0
 10
2.183620873697353
 20
4.4183948630434875
 30
0.0
 10
2.1779873302984334
 20
4.4010205470679837
 30
0.0
 10
2.1646760802314313
 20
4.3739509250077235
 30
0.0
 10
2.145843547500593
 20
4.3510615363305387
 30
0.0
 10
2.1375559606902841
 20
4.3426947799851314
 30
0.0
 10
2.1285430967432877
 20
4.3351493494247526
 30
0.0
 10
2.1189315561566606
 20
4.3285081429491949
 30
0.0
  0
POLYLINE
  5
1B2
100
AcDbEntity
  8
0
370
    35
390
0
 62
     7
 48
0.03937
100
AcDb2dPolyline
 66
     1
 10
0.0
 20
0.0
 30
0.0
 71
     2
  0
VERTEX
  5
1B3
100
AcDbEntity
  8
0
370
     0
390
0
100
AcDbVertex
100
AcDb2dVertex
 10
1.950395
 20
4.317317
 30
0.0
 42
0.290969
  0
VERTEX
  5
1B4
100
AcDbEntity
  8
0
370
     0
390
0
100
AcDbVertex
100
AcDb2dVertex
 10
2.118932
 20
4.328508
 30
0.0
  0
SEQEND
  5
1B5
100
AcDbEntity
  8
0
370
     0
390
0
  0
POLYLINE
  5
1B6
100
AcDbEntity
  8
0
370
    35
390
0
 62
     7
 48
0.03937
100
AcDb2dPolyline
 66
     1
 10
0.0
 20
0.0
 30
0.0
 71
     2
  0
VERTEX
  5
1B7
100
AcDbEntity
  8
0
370
     0
390
0
100
AcDbVertex
100
AcDb2dVertex
 10
2.101103
 20
4.317187
 30
0.0
 42
0.066646
  0
VERTEX
  5
1B8
100
AcDbEntity
  8
0
370
     0
390
0
100
AcDbVertex
100
AcDb2dVertex
 10
2.141247
 20
4.310506
 30
0.0
  0
SEQEND
  5
1B9
100
AcDbEntity
  8
0
370
     0
390
0
  0
SPLINE
  5
1BA
100
AcDbEntity
  8
0
370
    35
390
0
 62
     7
 48
0.03937
100
AcDbSpline
210
0.0
220
0.0
230
1.0
 70
     8
 71
     5
 72
    15
 73
     9
 74
     0
 42
0.0
 43
0.0
 40
0.0
 40
0.0
 40
0.0
 40
0.0
 40
0.0
 40
0.0
 40
8.5320045985000963
 40
8.5320045985000963
 40
8.5320045985000963
 40
14.173808513034412
 40
14.173808513034412
 40
14.173808513034412
 40
14.173808513034412
 40
14.173808513034412
 40
14.173808513034412
 10
2.1055734081213822
 20
4.6013690113179457
 30
0.0
 10
2.1241498040354596
 20
4.5905718065073255
 30
0.0
 10
2.1409218567264836
 20
4.576807278940243
 30
0.0
 10
2.1552556698630929
 20
4.5604720082722583
 30
0.0
 10
2.1741917121926675
 20
4.5300616520906312
 30
0.0
 10
2.1842847035481281
 20
4.4961357995922686
 30
0.0
 10
2.1868231426308875
 20
4.4822756569871052
 30
0.0
 10
2.1878481692432805
 20
4.4682779687861451
 30
0.0
 10
2.1873737909294317
 20
4.4543608259185312
 30
0.0
  0
SPLINE
  5
1BB
100
AcDbEntity
  8
0
370
    35
390
0
 62
     7
 48
0.03937
100
AcDbSpline
210
0.0
220
0.0
230
1.0
 70
     8
 71
     5
 72
    39
 73
    33
 74
     0
 42
0.0
 43
0.0
 40
0.0
 40
0.0
 40
0.0
 40
0.0
 40
0.0
 40
0.0
 40
7.2030154848280112
 40
7.2030154848280112
 40
7.2030154848280112
 40
9.6042730685299809
 40
9.6042730685299809
 40
9.6042730685299809
 40
14.409116840545428
 40
14.409116840545428
 40
14.409116840545428
 40
15.60755685465047
 40
15.60755685465047
 40
15.60755685465047
 40
16.805996868755514
 40
16.805996868755514
 40
16.805996868755514
 40
19.219867781753877
 40
19.219867781753877
 40
19.219867781753877
 40
23.322765306559369
 40
23.322765306559369
 40
23.322765306559369
 40
24.981445795059379
 40
24.981445795059379
 40
24.981445795059379
 40
26.599365482916838
 40
26.599365482916838
 40
26.599365482916838
 40
27.693105101357418
 40
27.693105101357418
 40
27.693105101357418
 40
27.693105101357418
 40
27.693105101357418
 40
27.693105101357418
 10
1.8504848296175165
 20
4.4559164858099791
 30
0.0
 10
1.8510072041591292
 20
4.474746237002341
 30
0.0
 10
1.8540572410042655
 20
4.4934623195449825
 30
0.0
 10
1.8596145608178412
 20
4.5116882508690299
 30
0.0
 10
1.8702584669338154
 20
4.534655758844031
 30
0.0
 10
1.8845589249075854
 20
4.5550139589828325
 30
0.0
 10
1.888359942637613
 20
4.5599388842615536
 30
0.0
 10
1.9003989607471488
 20
4.5741681188637013
 30
0.0
 10
1.9143344167225507
 20
4.5867315437743787
 30
0.0
 10
1.9243821522849842
 20
4.594252668751464
 30
0.0
 10
1.9377157040653215
 20
4.6024344176549183
 30
0.0
 10
1.9517340325159647
 20
4.6089917994754028
 30
0.0
 10
1.9545589322317432
 20
4.610235956854428
 30
0.0
 10
1.960251413402206
 20
4.6125909001310035
 30
0.0
 10
1.9660287643444039
 20
4.6146806762828474
 30
0.0
 10
1.9689371958528823
 20
4.6156591073892015
 30
0.0
 10
1.9777641180896448
 20
4.6184084099193718
 30
0.0
 10
1.9867406053748291
 20
4.620547296770888
 30
0.0
 10
1.9927447463063193
 20
4.6216871311663805
 30
0.0
 10
2.0088171382042668
 20
4.6240084900971965
 30
0.0
 10
2.0245982958139304
 20
4.6243866870356181
 30
0.0
 10
2.034495152252612
 20
4.6239179145175688
 30
0.0
 10
2.0484283564759962
 20
4.622235044966347
 30
0.0
 10
2.0624122935163536
 20
4.6189992997556333
 30
0.0
 10
2.0664409756758655
 20
4.6179352820018664
 30
0.0
 10
2.0743649622237439
 20
4.6155729489156432
 30
0.0
 10
2.0821533015370863
 20
4.6127154556201759
 30
0.0
 10
2.0859545416424736
 20
4.6111862183108441
 30
0.0
 10
2.0922261479882214
 20
4.6084375581202703
 30
0.0
 10
2.0983406973463086
 20
4.6053747786142871
 30
0.0
 10
2.1007810451436302
 20
4.6040884909966353
 30
0.0
 10
2.1031920521405567
 20
4.602753132778906
 30
0.0
 10
2.1055734081213817
 20
4.6013690113179457
 30
0.0
  0
CIRCLE
  5
1BC
100
AcDbEntity
  8
0
370
    35
390
0
 62
     7
 48
0.03937
100
AcDbCircle
 10
2.025862
 20
4.455459
 30
0.0
 40
0.192985
210
0.0
220
0.0
230
1.0
  0
SPLINE
  5
1BD
100
AcDbEntity
  8
0
370
    35
390
0
 62
     7
 48
0.03937
100
AcDbSpline
210
0.0
220
0.0
230
1.0
 70
     8
 71
     5
 72
    18
 73
    12
 74
     0
 42
0.0
 43
0.0
 40
0.0
 40
0.0
 40
0.0
 40
0.0
 40
0.0
 40
0.0
 40
8.049408908857167
 40
8.049408908857167
 40
8.049408908857167
 40
9.6469910837518409
 40
9.6469910837518409
 40
9.6469910837518409
 40
15.951498998472974
 40
15.951498998472974
 40
15.951498998472974
 40
15.951498998472974
 40
15.951498998472974
 40
15.951498998472974
 10
2.1412468170562011
 20
4.310496810017554
 30
0.0
 10
2.1238495551169287
 20
4.297312629010043
 30
0.0
 10
2.1045494332522225
 20
4.2867209020124166
 30
0.0
 10
2.0838114690891612
 20
4.2790616759600439
 30
0.0
 10
2.057997416067356
 20
4.2737396055207677
 30
0.0
 10
2.0320802077486317
 20
4.273025511217142
 30
0.0
 10
2.0277815372930825
 20
4.2730335301043505
 30
0.0
 10
2.0065892827646556
 20
4.2736976858046773
 30
0.0
 10
1.9857775414090451
 20
4.2774160573579865
 30
0.0
 10
1.9695688335620216
 20
4.2822682062388342
 30
0.0
 10
1.9540368734896225
 20
4.2889957367372933
 30
0.0
 10
1.9395132641057962
 20
4.2973979566316149
 30
0.0
  0
SPLINE
  5
1BE
100
AcDbEntity
  8
0
370
    35
390
0
 62
     7
 48
0.03937
100
AcDbSpline
210
0.0
220
0.0
230
1.0
 70
     8
 71
     5
 72
    15
 73
     9
 74
     0
 42
0.0
 43
0.0
 40
0.0
 40
0.0
 40
0.0
 40
0.0
 40
0.0
 40
0.0
 40
7.2607384602712273
 40
7.2607384602712273
 40
7.2607384602712273
 40
14.474322233093003
 40
14.474322233093003
 40
14.474322233093003
 40
14.474322233093003
 40
14.474322233093003
 40
14.474322233093003
 10
1.9395132641057962
 20
4.2973979566316149
 30
0.0
 10
1.9227867993822174
 20
4.3070745756419448
 30
0.0
 10
1.9073977896829575
 20
4.3189724085099108
 30
0.0
 10
1.8937647184834814
 20
4.3328335532863127
 30
0.0
 10
1.87067327172098
 20
4.3636641974180241
 30
0.0
 10
1.8565452877638609
 20
4.3994472891471945
 30
0.0
 10
1.8519736335328538
 20
4.4180877396536085
 30
0.0
 10
1.8499616886452006
 20
4.4370591075444992
 30
0.0
 10
1.8504848296175158
 20
4.4559164858099791
 30
0.0
  0
CIRCLE
  5
1BF
100
AcDbEntity
  8
0
370
    35
390
0
 62
     7
 48
0.03937
100
AcDbCircle
 10
3.283566
 20
5.713163
 30
0.0
 40
2.223327
210
0.0
220
0.0
230
1.0
  0
CIRCLE
  5
1C0
100
AcDbEntity
  8
0
370
    35
390
0
 62
     7
 48
0.03937
100
AcDbCircle
 10
4.54127
 20
4.455459
 30
0.0
 40
0.192985
210
0.0
220
0.0
230
1.0
  0
CIRCLE
  5
1C1
100
AcDbEntity
  8
0
370
    35
390
0
 62
     7
 48
0.03937
100
AcDbCircle
 10
4.54127
 20
6.970866
 30
0.0
 40
0.192985
210
0.0
220
0.0
230
1.0
  0
CIRCLE
  5
1C2
100
AcDbEntity
  8
0
370
    35
390
0
 62
     7
 48
0.03937
100
AcDbCircle
 10
2.025862
 20
6.970866
 30
0.0
 40
0.192985
210
0.0
220
0.0
230
1.0
  0
CIRCLE
  5
1C3
100
AcDbEntity
  8
0
370
    35
390
0
 62
     7
 48
0.03937
100
AcDbCircle
 10
3.283566
 20
5.713163
 30
0.0
 40
1.482218
210
0.0
220
0.0
230
1.0
  0
POLYLINE
  5
1C4
100
AcDbEntity
  8
0
370
    35
390
0
 62
     7
 48
0.03937
100
AcDb2dPolyline
 66
     1
 10
0.0
 20
0.0
 30
0.0
 71
     2
  0
VERTEX
  5
1C5
100
AcDbEntity
  8
0
370
     0
390
0
100
AcDbVertex
100
AcDb2dVertex
 10
4.679533
 20
4.530702
 30
0.0
 42
0.033569
  0
VERTEX
  5
1C6
100
AcDbEntity
  8
0
370
     0
390
0
100
AcDbVertex
100
AcDb2dVertex
 10
4.66822
 20
4.548528
 30
0.0
  0
SEQEND
  5
1C7
100
AcDbEntity
  8
0
370
     0
390
0
  0
SPLINE
  5
1C8
100
AcDbEntity
  8
0
370
    35
390
0
 62
     7
 48
0.03937
100
AcDbSpline
210
0.0
220
0.0
230
1.0
 70
     8
 71
     5
 72
    15
 73
     9
 74
     0
 42
0.0
 43
0.0
 40
0.0
 40
0.0
 40
0.0
 40
0.0
 40
0.0
 40
0.0
 40
7.3175014533301868
 40
7.3175014533301868
 40
7.3175014533301868
 40
12.143252102332925
 40
12.143252102332925
 40
12.143252102332925
 40
12.143252102332925
 40
12.143252102332925
 40
12.143252102332925
 10
4.5423677257508528
 20
4.6169703990087569
 30
0.0
 10
4.5604184617736294
 20
4.6163551234542268
 30
0.0
 10
4.5783336886151904
 20
4.6132174817784195
 30
0.0
 10
4.5957080045467604
 20
4.6075839383846322
 30
0.0
 10
4.6227776265507678
 20
4.5942726883805962
 30
0.0
 10
4.6456670152822435
 20
4.5754401556384181
 30
0.0
 10
4.6540337716530971
 20
4.5671525688067858
 30
0.0
 10
4.6615792022309339
 20
4.5581397048424357
 30
0.0
 10
4.6682204087201873
 20
4.5485281642359858
 30
0.0
  0
SPLINE
  5
1C9
100
AcDbEntity
  8
0
370
    35
390
0
 62
     7
 48
0.03937
100
AcDbSpline
210
0.0
220
0.0
230
1.0
 70
     8
 71
     5
 72
    15
 73
     9
 74
     0
 42
0.0
 43
0.0
 40
0.0
 40
0.0
 40
0.0
 40
0.0
 40
0.0
 40
0.0
 40
8.5320045985956483
 40
8.5320045985956483
 40
8.5320045985956483
 40
14.173808513263644
 40
14.173808513263644
 40
14.173808513263644
 40
14.173808513263644
 40
14.173808513263644
 40
14.173808513263644
 10
4.3953595403514374
 20
4.5351700162007065
 30
0.0
 10
4.4061567451621793
 20
4.5537464121149922
 30
0.0
 10
4.4199212727294013
 20
4.5705184648059953
 30
0.0
 10
4.4362565433968522
 20
4.5848522779421605
 30
0.0
 10
4.4666668995787173
 20
4.6037883202721028
 30
0.0
 10
4.5005927520778224
 20
4.6138813116276447
 30
0.0
 10
4.5144528946816145
 20
4.6164197507099933
 30
0.0
 10
4.5284505828829085
 20
4.6174447773226159
 30
0.0
 10
4.5423677257508519
 20
4.6169703990087561
 30
0.0
  0
SPLINE
  5
1CA
100
AcDbEntity
  8
0
370
    35
390
0
 62
     7
 48
0.03937
100
AcDbSpline
210
0.0
220
0.0
230
1.0
 70
     8
 71
     5
 72
    18
 73
    12
 74
     0
 42
0.0
 43
0.0
 40
0.0
 40
0.0
 40
0.0
 40
0.0
 40
0.0
 40
0.0
 40
8.0494088877454875
 40
8.0494088877454875
 40
8.0494088877454875
 40
9.6469910458388686
 40
9.6469910458388686
 40
9.6469910458388686
 40
15.951498950295782
 40
15.951498950295782
 40
15.951498950295782
 40
15.951498950295782
 40
15.951498950295782
 40
15.951498950295782
 10
4.6862317416518318
 20
4.5708434251355223
 30
0.0
 10
4.6994159226247634
 20
4.5534461632418788
 30
0.0
 10
4.7100076496014092
 20
4.5341460414326562
 30
0.0
 10
4.7176668756957669
 20
4.5134080772652121
 30
0.0
 10
4.7229889461288996
 20
4.487594024213581
 30
0.0
 10
4.7237030404488074
 20
4.4616768160043954
 30
0.0
 10
4.72369502156661
 20
4.4573781455966159
 30
0.0
 10
4.7230308658987283
 20
4.4361858911066303
 30
0.0
 10
4.7193124943590341
 20
4.415374149537489
 30
0.0
 10
4.7144603454086944
 20
4.3991654415907711
 30
0.0
 10
4.707732814918411
 20
4.3836334815453011
 30
0.0
 10
4.6993305950377682
 20
4.3691098721851205
 30
0.0
  0
POLYLINE
  5
1CB
100
AcDbEntity
  8
0
370
    35
390
0
 62
     7
 48
0.03937
100
AcDb2dPolyline
 66
     1
 10
0.0
 20
0.0
 30
0.0
 71
     2
  0
VERTEX
  5
1CC
100
AcDbEntity
  8
0
370
     0
390
0
100
AcDbVertex
100
AcDb2dVertex
 10
4.679541
 20
4.5307
 30
0.0
 42
0.066646
  0
VERTEX
  5
1CD
100
AcDbEntity
  8
0
370
     0
390
0
100
AcDbVertex
100
AcDb2dVertex
 10
4.686223
 20
4.570844
 30
0.0
  0
SEQEND
  5
1CE
100
AcDbEntity
  8
0
370
     0
390
0
  0
SPLINE
  5
1CF
100
AcDbEntity
  8
0
370
    35
390
0
 62
     7
 48
0.03937
100
AcDbSpline
210
0.0
220
0.0
230
1.0
 70
     8
 71
     5
 72
    39
 73
    33
 74
     0
 42
0.0
 43
0.0
 40
0.0
 40
0.0
 40
0.0
 40
0.0
 40
0.0
 40
0.0
 40
7.2030155077121156
 40
7.2030155077121156
 40
7.2030155077121156
 40
9.604273117083018
 40
9.604273117083018
 40
9.604273117083018
 40
14.409116896282779
 40
14.409116896282779
 40
14.409116896282779
 40
15.607556912839918
 40
15.607556912839918
 40
15.607556912839918
 40
16.805996929397047
 40
16.805996929397047
 40
16.805996929397047
 40
19.219867887858335
 40
19.219867887858335
 40
19.219867887858335
 40
23.322776004176745
 40
23.322776004176745
 40
23.322776004176745
 40
24.981466827719043
 40
24.981466827719043
 40
24.981466827719043
 40
26.599379850954129
 40
26.599379850954129
 40
26.599379850954129
 40
27.693190581895532
 40
27.693190581895532
 40
27.693190581895532
 40
27.693190581895532
 40
27.693190581895532
 40
27.693190581895532
 10
4.540812065859404
 20
4.2800814376968406
 30
0.0
 10
4.5219823146072207
 20
4.2806038122401135
 30
0.0
 10
4.5032662320055463
 20
4.2836538491026781
 30
0.0
 10
4.4850403007775599
 20
4.2892111689427903
 30
0.0
 10
4.4620727929372217
 20
4.2998550749455982
 30
0.0
 10
4.4417145926987294
 20
4.31415553297321
 30
0.0
 10
4.4367896673624303
 20
4.3179565507486899
 30
0.0
 10
4.4225604327040644
 20
4.3299955689211398
 30
0.0
 10
4.4099970077707251
 20
4.3439310249563601
 30
0.0
 10
4.4024758828115385
 20
4.3539787605205964
 30
0.0
 10
4.3942941339269517
 20
4.3673123122989983
 30
0.0
 10
4.3877367521190385
 20
4.381330640761159
 30
0.0
 10
4.3864925947417657
 20
4.3841555404811379
 30
0.0
 10
4.3841376514684516
 20
4.3898480216614164
 30
0.0
 10
4.3820478753197696
 20
4.3956253726159584
 30
0.0
 10
4.3810694443197047
 20
4.3985338037554156
 30
0.0
 10
4.3783201413946342
 20
4.4073607274357069
 30
0.0
 10
4.3761812554636279
 20
4.4163372115295969
 30
0.0
 10
4.3750414272710207
 20
4.4223413291678284
 30
0.0
 10
4.3727200819183345
 20
4.4384136067082798
 30
0.0
 10
4.3723418739473097
 20
4.4541944742964761
 30
0.0
 10
4.3728106050501268
 20
4.4640911422808838
 30
0.0
 10
4.3744933809274587
 20
4.4780241578826452
 30
0.0
 10
4.3777290404447839
 20
4.4920080597946805
 30
0.0
 10
4.3787930388476122
 20
4.4960367554117164
 30
0.0
 10
4.381155329844665
 20
4.5039607485167155
 30
0.0
 10
4.3840127887113258
 20
4.5117491162060857
 30
0.0
 10
4.3855420014252138
 20
4.5155503512109467
 30
0.0
 10
4.388290694237293
 20
4.5218221217059424
 30
0.0
 10
4.3913535221643416
 20
4.5279368294255775
 30
0.0
 10
4.3926398870289551
 20
4.5303773397062752
 30
0.0
 10
4.3939753288979997
 20
4.5327885053894477
 30
0.0
 10
4.3953595403514374
 20
4.5351700162007065
 30
0.0
  0
SPLINE
  5
1D0
100
AcDbEntity
  8
0
370
    35
390
0
 62
     7
 48
0.03937
100
AcDbSpline
210
0.0
220
0.0
230
1.0
 70
     8
 71
     5
 72
    15
 73
     9
 74
     0
 42
0.0
 43
0.0
 40
0.0
 40
0.0
 40
0.0
 40
0.0
 40
0.0
 40
0.0
 40
7.260738544462936
 40
7.260738544462936
 40
7.260738544462936
 40
14.474322018084695
 40
14.474322018084695
 40
14.474322018084695
 40
14.474322018084695
 40
14.474322018084695
 40
14.474322018084695
 10
4.6993305950377682
 20
4.3691098721851205
 30
0.0
 10
4.6896539759152338
 20
4.3523834072675909
 30
0.0
 10
4.6777561428834478
 20
4.336994397405225
 30
0.0
 10
4.6638949972071009
 20
4.3233613249601728
 30
0.0
 10
4.6330643497128783
 20
4.3002698771782306
 30
0.0
 10
4.5972812594991632
 20
4.2861418952663968
 30
0.0
 10
4.5786408104420131
 20
4.2815702414452907
 30
0.0
 10
4.5596694433427318
 20
4.2795582967462238
 30
0.0
 10
4.540812065859404
 20
4.2800814376968397
 30
0.0
  0
POLYLINE
  5
1D1
100
AcDbEntity
  8
0
370
    35
390
0
 62
     7
 48
0.03937
100
AcDb2dPolyline
 66
     1
 10
0.0
 20
0.0
 30
0.0
 71
     2
  0
VERTEX
  5
1D2
100
AcDbEntity
  8
0
370
     0
390
0
100
AcDbVertex
100
AcDb2dVertex
 10
4.466027
 20
7.10913
 30
0.0
 42
0.033569
  0
VERTEX
  5
1D3
100
AcDbEntity
  8
0
370
     0
390
0
100
AcDbVertex
100
AcDb2dVertex
 10
4.4482
 20
7.097817
 30
0.0
  0
SEQEND
  5
1D4
100
AcDbEntity
  8
0
370
     0
390
0
  0
SPLINE
  5
1D5
100
AcDbEntity
  8
0
370
    35
390
0
 62
     7
 48
0.03937
100
AcDbSpline
210
0.0
220
0.0
230
1.0
 70
     8
 71
     5
 72
    15
 73
     9
 74
     0
 42
0.0
 43
0.0
 40
0.0
 40
0.0
 40
0.0
 40
0.0
 40
0.0
 40
0.0
 40
7.3175014506469509
 40
7.3175014506469509
 40
7.3175014506469509
 40
12.143252112690364
 40
12.143252112690364
 40
12.143252112690364
 40
12.143252112690364
 40
12.143252112690364
 40
12.143252112690364
 10
4.3797581526606262
 20
6.9719643338301767
 30
0.0
 10
4.3803734282149307
 20
6.9900150698463337
 30
0.0
 10
4.3835110698886322
 20
7.0079302966813763
 30
0.0
 10
4.3891446132750165
 20
7.0253046125522189
 30
0.0
 10
4.4024558631954127
 20
7.0523742344817997
 30
0.0
 10
4.4212883959525024
 20
7.0752636232855295
 30
0.0
 10
4.4295759828138817
 20
7.0836303796915905
 30
0.0
 10
4.4385888468009691
 20
7.0911758102923068
 30
0.0
 10
4.4482003874333929
 20
7.0978170167995076
 30
0.0
  0
SPLINE
  5
1D6
100
AcDbEntity
  8
0
370
    35
390
0
 62
     7
 48
0.03937
100
AcDbSpline
210
0.0
220
0.0
230
1.0
 70
     8
 71
     5
 72
    15
 73
     9
 74
     0
 42
0.0
 43
0.0
 40
0.0
 40
0.0
 40
0.0
 40
0.0
 40
0.0
 40
0.0
 40
8.5320045985435744
 40
8.5320045985435744
 40
8.5320045985435744
 40
14.173808513156738
 40
14.173808513156738
 40
14.173808513156738
 40
14.173808513156738
 40
14.173808513156738
 40
14.173808513156738
 10
4.4615585354686766
 20
6.8249561484307604
 30
0.0
 10
4.4429821395545046
 20
6.8357533532414365
 30
0.0
 10
4.426210086863593
 20
6.8495178808085102
 30
0.0
 10
4.4118762737270423
 20
6.8658531514765366
 30
0.0
 10
4.3929402313973487
 20
6.8962635076579542
 30
0.0
 10
4.3828472400417908
 20
6.9301893601569509
 30
0.0
 10
4.3803088009592823
 20
6.9440495027612101
 30
0.0
 10
4.3792837743467716
 20
6.9580471909623665
 30
0.0
 10
4.3797581526606271
 20
6.9719643338301758
 30
0.0
  0
SPLINE
  5
1D7
100
AcDbEntity
  8
0
370
    35
390
0
 62
     7
 48
0.03937
100
AcDbSpline
210
0.0
220
0.0
230
1.0
 70
     8
 71
     5
 72
    18
 73
    12
 74
     0
 42
0.0
 43
0.0
 40
0.0
 40
0.0
 40
0.0
 40
0.0
 40
0.0
 40
0.0
 40
8.0494089092947299
 40
8.0494089092947299
 40
8.0494089092947299
 40
9.646991065434019
 40
9.646991065434019
 40
9.646991065434019
 40
15.951498949979541
 40
15.951498949979541
 40
15.951498949979541
 40
15.951498949979541
 40
15.951498949979541
 40
15.951498949979541
 10
4.4258851265338652
 20
7.1158283497311592
 30
0.0
 10
4.443282388474084
 20
7.1290125307393861
 30
0.0
 10
4.4625825103401118
 20
7.1396042577373624
 30
0.0
 10
4.4833204746071473
 20
7.1472634838597022
 30
0.0
 10
4.5091345277815877
 20
7.1525855542646433
 30
0.0
 10
4.5350517360400806
 20
7.1532996485316271
 30
0.0
 10
4.5393504064429449
 20
7.1532916296406688
 30
0.0
 10
4.5605426608643391
 20
7.1526274739321138
 30
0.0
 10
4.5813544023121366
 20
7.1489091023776723
 30
0.0
 10
4.5975631101766945
 20
7.1440569534454976
 30
0.0
 10
4.6130950701699511
 20
7.1373294229711988
 30
0.0
 10
4.6276186794842626
 20
7.128927203117092
 30
0.0
  0
POLYLINE
  5
1D8
100
AcDbEntity
  8
0
370
    35
390
0
 62
     7
 48
0.03937
100
AcDb2dPolyline
 66
     1
 10
0.0
 20
0.0
 30
0.0
 71
     2
  0
VERTEX
  5
1D9
100
AcDbEntity
  8
0
370
     0
390
0
100
AcDbVertex
100
AcDb2dVertex
 10
4.466029
 20
7.109138
 30
0.0
 42
0.066646
  0
VERTEX
  5
1DA
100
AcDbEntity
  8
0
370
     0
390
0
100
AcDbVertex
100
AcDb2dVertex
 10
4.425885
 20
7.11582
 30
0.0
  0
SEQEND
  5
1DB
100
AcDbEntity
  8
0
370
     0
390
0
  0
SPLINE
  5
1DC
100
AcDbEntity
  8
0
370
    35
390
0
 62
     7
 48
0.03937
100
AcDbSpline
210
0.0
220
0.0
230
1.0
 70
     8
 71
     5
 72
    39
 73
    33
 74
     0
 42
0.0
 43
0.0
 40
0.0
 40
0.0
 40
0.0
 40
0.0
 40
0.0
 40
0.0
 40
7.2030154682765799
 40
7.2030154682765799
 40
7.2030154682765799
 40
9.6042730315854357
 40
9.6042730315854357
 40
9.6042730315854357
 40
14.409116787008553
 40
14.409116787008553
 40
14.409116787008553
 40
15.607556793762077
 40
15.607556793762077
 40
15.607556793762077
 40
16.805996800515608
 40
16.805996800515608
 40
16.805996800515608
 40
19.219867736914736
 40
19.219867736914736
 40
19.219867736914736
 40
23.322772714796489
 40
23.322772714796489
 40
23.322772714796489
 40
24.981460477870968
 40
24.981460477870968
 40
24.981460477870968
 40
26.599375476472389
 40
26.599375476472389
 40
26.599375476472389
 40
27.693165168546667
 40
27.693165168546667
 40
27.693165168546667
 40
27.693165168546667
 40
27.693165168546667
 40
27.693165168546667
 10
4.7166471139725417
 20
6.9704086739387288
 30
0.0
 10
4.7161247394321295
 20
6.9515789227896345
 30
0.0
 10
4.7130747025997861
 20
6.9328628402896717
 30
0.0
 10
4.7075173828042614
 20
6.9146369088842983
 30
0.0
 10
4.6968734765944129
 20
6.8916694007997554
 30
0.0
 10
4.6825730186584655
 20
6.8713112007385284
 30
0.0
 10
4.6787720009651883
 20
6.866386275507729
 30
0.0
 10
4.6667329829200339
 20
6.8521570409690957
 30
0.0
 10
4.6527975269696391
 20
6.8395936160537962
 30
0.0
 10
4.6427497913848725
 20
6.8320724910452917
 30
0.0
 10
4.6294162395652432
 20
6.8238907421164603
 30
0.0
 10
4.615397911120767
 20
6.8173333602946231
 30
0.0
 10
4.6125730114144456
 20
6.8160892029187421
 30
0.0
 10
4.6068805302675582
 20
6.8137342596492791
 30
0.0
 10
4.6011031793572048
 20
6.8116444835049972
 30
0.0
 10
4.5981947481308225
 20
6.8106660524758809
 30
0.0
 10
4.5893678249270655
 20
6.8079167496658028
 30
0.0
 10
4.5803913399326177
 20
6.8057778634527306
 30
0.0
 10
4.5743872154131946
 20
6.8046380334120462
 30
0.0
 10
4.5583149040051438
 20
6.8023166839995932
 30
0.0
 10
4.5425339504981199
 20
6.801938479258931
 30
0.0
 10
4.5326372266735824
 20
6.8024072226094763
 30
0.0
 10
4.5187041551817835
 20
6.8040900262072244
 30
0.0
 10
4.5047202428560746
 20
6.8073257110795486
 30
0.0
 10
4.5006915512211991
 20
6.8083897152066752
 30
0.0
 10
4.4927675600496784
 20
6.810752018656073
 30
0.0
 10
4.4849792007545135
 20
6.813609487707363
 30
0.0
 10
4.481177964232911
 20
6.8151387077003465
 30
0.0
 10
4.4749062422934944
 20
6.817887390864672
 30
0.0
 10
4.4687915814175438
 20
6.8209502044703907
 30
0.0
 10
4.4663511192081398
 20
6.8222365464813235
 30
0.0
 10
4.4639400004728431
 20
6.8235719636018937
 30
0.0
 10
4.4615585354686766
 20
6.8249561484307604
 30
0.0
  0
SPLINE
  5
1DD
100
AcDbEntity
  8
0
370
    35
390
0
 62
     7
 48
0.03937
100
AcDbSpline
210
0.0
220
0.0
230
1.0
 70
     8
 71
     5
 72
    15
 73
     9
 74
     0
 42
0.0
 43
0.0
 40
0.0
 40
0.0
 40
0.0
 40
0.0
 40
0.0
 40
0.0
 40
7.2607384180390806
 40
7.2607384180390806
 40
7.2607384180390806
 40
14.474322341746449
 40
14.474322341746449
 40
14.474322341746449
 40
14.474322341746449
 40
14.474322341746449
 40
14.474322341746449
 10
4.6276186794842626
 20
7.128927203117092
 30
0.0
 10
4.6443451441105514
 20
7.1192505841630478
 30
0.0
 10
4.6597341537280119
 20
7.1073527513771353
 30
0.0
 10
4.673367224298663
 20
7.093491607055638
 30
0.0
 10
4.6964586705486937
 20
7.0626609646165015
 30
0.0
 10
4.7105866555358862
 20
7.0268778721233094
 30
0.0
 10
4.7151583099730203
 20
7.0082374208888769
 30
0.0
 10
4.7171702549558008
 20
6.9892660525986452
 30
0.0
 10
4.7166471139725434
 20
6.9704086739387279
 30
0.0
  0
POLYLINE
  5
1DE
100
AcDbEntity
  8
0
370
    35
390
0
 62
     7
 48
0.03937
100
AcDb2dPolyline
 66
     1
 10
0.0
 20
0.0
 30
0.0
 71
     2
  0
VERTEX
  5
1DF
100
AcDbEntity
  8
0
370
     0
390
0
100
AcDbVertex
100
AcDb2dVertex
 10
1.887599
 20
6.895623
 30
0.0
 42
0.033569
  0
VERTEX
  5
1E0
100
AcDbEntity
  8
0
370
     0
390
0
100
AcDbVertex
100
AcDb2dVertex
 10
1.898912
 20
6.877797
 30
0.0
  0
SEQEND
  5
1E1
100
AcDbEntity
  8
0
370
     0
390
0
  0
SPLINE
  5
1E2
100
AcDbEntity
  8
0
370
    35
390
0
 62
     7
 48
0.03937
100
AcDbSpline
210
0.0
220
0.0
230
1.0
 70
     8
 71
     5
 72
    15
 73
     9
 74
     0
 42
0.0
 43
0.0
 40
0.0
 40
0.0
 40
0.0
 40
0.0
 40
0.0
 40
0.0
 40
7.3175014565123302
 40
7.3175014565123302
 40
7.3175014565123302
 40
12.143252089745111
 40
12.143252089745111
 40
12.143252089745111
 40
12.143252089745111
 40
12.143252089745111
 40
12.143252089745111
 10
2.024764217839206
 20
6.8093547607399501
 30
0.0
 10
2.0067134818085801
 20
6.8099700362947484
 30
0.0
 10
1.9887982549592167
 20
6.8131076779730035
 30
0.0
 10
1.9714239389544364
 20
6.8187412213758076
 30
0.0
 10
1.9443543168614852
 20
6.8320524714801865
 30
0.0
 10
1.92146492821697
 20
6.8508850042040716
 30
0.0
 10
1.913098171887621
 20
6.8591725910008527
 30
0.0
 10
1.9055527413374265
 20
6.8681854549376755
 30
0.0
 10
1.8989115348698749
 20
6.8777969955127158
 30
0.0
  0
SPLINE
  5
1E3
100
AcDbEntity
  8
0
370
    35
390
0
 62
     7
 48
0.03937
100
AcDbSpline
210
0.0
220
0.0
230
1.0
 70
     8
 71
     5
 72
    15
 73
     9
 74
     0
 42
0.0
 43
0.0
 40
0.0
 40
0.0
 40
0.0
 40
0.0
 40
0.0
 40
0.0
 40
8.5320045987121365
 40
8.5320045987121365
 40
8.5320045987121365
 40
14.173808513279297
 40
14.173808513279297
 40
14.173808513279297
 40
14.173808513279297
 40
14.173808513279297
 40
14.173808513279297
 10
2.171772403238621
 20
6.8911551435480005
 30
0.0
 10
2.1609751984277317
 20
6.8725787476334617
 30
0.0
 10
2.1472106708599985
 20
6.8558066949421592
 30
0.0
 10
2.1308754001937102
 20
6.8414728818067827
 30
0.0
 10
2.1004650440118375
 20
6.8225368394768688
 30
0.0
 10
2.0665391915127169
 20
6.8124438481211786
 30
0.0
 10
2.0526790489079438
 20
6.8099054090385929
 30
0.0
 10
2.0386813607069012
 20
6.8088803824260999
 30
0.0
 10
2.0247642178392065
 20
6.8093547607399518
 30
0.0
  0
SPLINE
  5
1E4
100
AcDbEntity
  8
0
370
    35
390
0
 62
     7
 48
0.03937
100
AcDbSpline
210
0.0
220
0.0
230
1.0
 70
     8
 71
     5
 72
    18
 73
    12
 74
     0
 42
0.0
 43
0.0
 40
0.0
 40
0.0
 40
0.0
 40
0.0
 40
0.0
 40
0.0
 40
8.0494088792469523
 40
8.0494088792469523
 40
8.0494088792469523
 40
9.6469910474868943
 40
9.6469910474868943
 40
9.6469910474868943
 40
15.95149897507517
 40
15.95149897507517
 40
15.95149897507517
 40
15.95149897507517
 40
15.95149897507517
 40
15.95149897507517
 10
1.8809002019382279
 20
6.8554817346131838
 30
0.0
 10
1.8677160209792154
 20
6.8728789964884589
 30
0.0
 10
1.8571242940110155
 20
6.8921791182752532
 30
0.0
 10
1.8494650679644919
 20
6.9129170823457073
 30
0.0
 10
1.8441429975024715
 20
6.9387311352721444
 30
0.0
 10
1.8434289031427005
 20
6.9646483434926747
 30
0.0
 10
1.8434369220194622
 20
6.968947013928716
 30
0.0
 10
1.8441010776667004
 20
6.9901392684999371
 30
0.0
 10
1.8478194491997171
 20
7.0109510100725076
 30
0.0
 10
1.8526715981320225
 20
7.0271597180439871
 30
0.0
 10
1.8593991286408191
 20
7.0426916781501179
 30
0.0
 10
1.86780134855229
 20
7.0572152875635865
 30
0.0
  0
POLYLINE
  5
1E5
100
AcDbEntity
  8
0
370
    35
390
0
 62
     7
 48
0.03937
100
AcDb2dPolyline
 66
     1
 10
0.0
 20
0.0
 30
0.0
 71
     2
  0
VERTEX
  5
1E6
100
AcDbEntity
  8
0
370
     0
390
0
100
AcDbVertex
100
AcDb2dVertex
 10
1.88759
 20
6.895625
 30
0.0
 42
0.066646
  0
VERTEX
  5
1E7
100
AcDbEntity
  8
0
370
     0
390
0
100
AcDbVertex
100
AcDb2dVertex
 10
1.880909
 20
6.855481
 30
0.0
  0
SEQEND
  5
1E8
100
AcDbEntity
  8
0
370
     0
390
0
  0
SPLINE
  5
1E9
100
AcDbEntity
  8
0
370
    35
390
0
 62
     7
 48
0.03937
100
AcDbSpline
210
0.0
220
0.0
230
1.0
 70
     8
 71
     5
 72
    39
 73
    33
 74
     0
 42
0.0
 43
0.0
 40
0.0
 40
0.0
 40
0.0
 40
0.0
 40
0.0
 40
0.0
 40
7.2030154638824362
 40
7.2030154638824362
 40
7.2030154638824362
 40
9.6042730230437936
 40
9.6042730230437936
 40
9.6042730230437936
 40
14.409116801738207
 40
14.409116801738207
 40
14.409116801738207
 40
15.60755682005437
 40
15.60755682005437
 40
15.60755682005437
 40
16.80599683837054
 40
16.80599683837054
 40
16.80599683837054
 40
19.219867768113669
 40
19.219867768113669
 40
19.219867768113669
 40
23.32276846788551
 40
23.32276846788551
 40
23.32276846788551
 40
24.981452054982626
 40
24.981452054982626
 40
24.981452054982626
 40
26.599369745998249
 40
26.599369745998249
 40
26.599369745998249
 40
27.69313069117656
 40
27.69313069117656
 40
27.69313069117656
 40
27.69313069117656
 40
27.69313069117656
 40
27.69313069117656
 10
2.0263198777306544
 20
7.1462437220518664
 30
0.0
 10
2.0451496288682609
 20
7.1457213475117731
 30
0.0
 10
2.0638657113568084
 20
7.1426713106828306
 30
0.0
 10
2.0820916427746923
 20
7.1371139908929369
 30
0.0
 10
2.1050591508798604
 20
7.1264700846668951
 30
0.0
 10
2.1254173509244016
 20
7.1121696267418164
 30
0.0
 10
2.1303422761497592
 20
7.108368609053433
 30
0.0
 10
2.144571510719234
 20
7.0963295909827835
 30
0.0
 10
2.1571349355781129
 20
7.0823941350882009
 30
0.0
 10
2.1646560605469483
 20
7.0723463995576985
 30
0.0
 10
2.1728378094535272
 20
7.0590128478188445
 30
0.0
 10
2.1793951912936129
 20
7.0449945193808157
 30
0.0
 10
2.1806393486791746
 20
7.0421696196613972
 30
0.0
 10
2.1829942919693424
 20
7.0364771384807403
 30
0.0
 10
2.1850840681351178
 20
7.0306997875232256
 30
0.0
 10
2.1860624992170594
 20
7.0277913561183052
 30
0.0
 10
2.1888118018837441
 20
7.0189644334373709
 30
0.0
 10
2.1909506884763323
 20
7.0099879470927222
 30
0.0
 10
2.1920905210224269
 20
7.0039838131342336
 30
0.0
 10
2.1944118759055322
 20
6.9879114554993471
 30
0.0
 10
2.1947900761688546
 20
6.9721303848011011
 30
0.0
 10
2.1943213160742849
 20
6.962233584841707
 30
0.0
 10
2.1926384746137972
 20
6.9483004371472195
 30
0.0
 10
2.1894027551017348
 20
6.9343165106302553
 30
0.0
 10
2.1883387431515766
 20
6.930287824434223
 30
0.0
 10
2.1859764226876082
 20
6.9223638359152329
 30
0.0
 10
2.1831189397174815
 20
6.9145754880898203
 30
0.0
 10
2.181589709783037
 20
6.910774249509954
 30
0.0
 10
2.1788410398073697
 20
6.9045025939312055
 30
0.0
 10
2.1757782457775776
 20
6.8983879970760693
 30
0.0
 10
2.1744919349933687
 20
6.8959476005498139
 30
0.0
 10
2.1731565516884501
 20
6.8935365459626876
 30
0.0
 10
2.1717724032386214
 20
6.8911551435480014
 30
0.0
  0
SPLINE
  5
1EA
100
AcDbEntity
  8
0
370
    35
390
0
 62
     7
 48
0.03937
100
AcDbSpline
210
0.0
220
0.0
230
1.0
 70
     8
 71
     5
 72
    15
 73
     9
 74
     0
 42
0.0
 43
0.0
 40
0.0
 40
0.0
 40
0.0
 40
0.0
 40
0.0
 40
0.0
 40
7.2607384297599973
 40
7.2607384297599973
 40
7.2607384297599973
 40
14.474322311110097
 40
14.474322311110097
 40
14.474322311110097
 40
14.474322311110097
 40
14.474322311110097
 40
14.474322311110097
 10
1.86780134855229
 20
7.0572152875635865
 30
0.0
 10
1.8774779675219562
 20
7.0739417522168777
 30
0.0
 10
1.889375800330523
 20
7.0893307618570898
 30
0.0
 10
1.903236944780923
 20
7.1029638326052993
 30
0.0
 10
1.9340675876950633
 20
7.1260552789989005
 30
0.0
 10
1.9698506799734048
 20
7.1401832636967502
 30
0.0
 10
1.988491131003435
 20
7.1447549180759875
 30
0.0
 10
2.0074624991814649
 20
7.1467668630320533
 30
0.0
 10
2.0263198777306544
 20
7.1462437220518664
 30
0.0
  0
CIRCLE
  5
1EB
100
AcDbEntity
  8
0
370
    35
390
0
 62
     7
 48
0.03937
100
AcDbCircle
 10
3.283566
 20
5.713163
 30
0.0
 40
0.889331
210
0.0
220
0.0
230
1.0
  0
POLYLINE
  5
1EC
100
AcDbEntity
  8
0
370
    35
390
0
 62
     7
 48
0.03937
100
AcDb2dPolyline
 66
     1
 10
0.0
 20
0.0
 30
0.0
 71
     2
  0
VERTEX
  5
1ED
100
AcDbEntity
  8
0
370
     0
390
0
100
AcDbVertex
100
AcDb2dVertex
 10
2.024575
 20
7.128272
 30
0.0
 42
0.566269
  0
VERTEX
  5
1EE
100
AcDbEntity
  8
0
370
     0
390
0
100
AcDbVertex
100
AcDb2dVertex
 10
1.887599
 20
6.895623
 30
0.0
  0
SEQEND
  5
1EF
100
AcDbEntity
  8
0
370
     0
390
0
  0
POLYLINE
  5
1F0
100
AcDbEntity
  8
0
370
    35
390
0
 62
     7
 48
0.03937
100
AcDb2dPolyline
 66
     1
 10
0.0
 20
0.0
 30
0.0
 71
     2
  0
VERTEX
  5
1F1
100
AcDbEntity
  8
0
370
     0
390
0
100
AcDbVertex
100
AcDb2dVertex
 10
4.698676
 20
6.972154
 30
0.0
 42
0.566269
  0
VERTEX
  5
1F2
100
AcDbEntity
  8
0
370
     0
390
0
100
AcDbVertex
100
AcDb2dVertex
 10
4.466027
 20
7.10913
 30
0.0
  0
SEQEND
  5
1F3
100
AcDbEntity
  8
0
370
     0
390
0
  0
POLYLINE
  5
1F4
100
AcDbEntity
  8
0
370
    35
390
0
 62
     7
 48
0.03937
100
AcDb2dPolyline
 66
     1
 10
0.0
 20
0.0
 30
0.0
 71
     2
  0
VERTEX
  5
1F5
100
AcDbEntity
  8
0
370
     0
390
0
100
AcDbVertex
100
AcDb2dVertex
 10
4.542557
 20
4.298053
 30
0.0
 42
0.566269
  0
VERTEX
  5
1F6
100
AcDbEntity
  8
0
370
     0
390
0
100
AcDbVertex
100
AcDb2dVertex
 10
4.679533
 20
4.530702
 30
0.0
  0
SEQEND
  5
1F7
100
AcDbEntity
  8
0
370
     0
390
0
  0
POLYLINE
  5
1F8
100
AcDbEntity
  8
0
370
    35
390
0
 62
     7
 48
0.03937
100
AcDb2dPolyline
 66
     1
 10
0.0
 20
0.0
 30
0.0
 71
     2
  0
VERTEX
  5
1F9
100
AcDbEntity
  8
0
370
     0
390
0
100
AcDbVertex
100
AcDb2dVertex
 10
4.668222
 20
4.548527
 30
0.0
 42
0.241112
  0
VERTEX
  5
1FA
100
AcDbEntity
  8
0
370
     0
390
0
100
AcDbVertex
100
AcDb2dVertex
 10
4.539982
 20
4.612865
 30
0.0
  0
SEQEND
  5
1FB
100
AcDbEntity
  8
0
370
     0
390
0
  0
POLYLINE
  5
1FC
100
AcDbEntity
  8
0
370
    35
390
0
 62
     7
 48
0.03937
100
AcDb2dPolyline
 66
     1
 10
0.0
 20
0.0
 30
0.0
 71
     2
  0
VERTEX
  5
1FD
100
AcDbEntity
  8
0
370
     0
390
0
100
AcDbVertex
100
AcDb2dVertex
 10
4.539982
 20
4.612865
 30
0.0
 42
1.0
  0
VERTEX
  5
1FE
100
AcDbEntity
  8
0
370
     0
390
0
100
AcDbVertex
100
AcDb2dVertex
 10
4.542557
 20
4.298053
 30
0.0
  0
SEQEND
  5
1FF
100
AcDbEntity
  8
0
370
     0
390
0
  0
POLYLINE
  5
200
100
AcDbEntity
  8
0
370
    35
390
0
 62
     7
 48
0.03937
100
AcDb2dPolyline
 66
     1
 10
0.0
 20
0.0
 30
0.0
 71
     2
  0
VERTEX
  5
201
100
AcDbEntity
  8
0
370
     0
390
0
100
AcDbVertex
100
AcDb2dVertex
 10
4.448201
 20
7.097817
 30
0.0
 42
0.24111
  0
VERTEX
  5
202
100
AcDbEntity
  8
0
370
     0
390
0
100
AcDbVertex
100
AcDb2dVertex
 10
4.383863
 20
6.969578
 30
0.0
  0
SEQEND
  5
203
100
AcDbEntity
  8
0
370
     0
390
0
  0
POLYLINE
  5
204
100
AcDbEntity
  8
0
370
    35
390
0
 62
     7
 48
0.03937
100
AcDb2dPolyline
 66
     1
 10
0.0
 20
0.0
 30
0.0
 71
     2
  0
VERTEX
  5
205
100
AcDbEntity
  8
0
370
     0
390
0
100
AcDbVertex
100
AcDb2dVertex
 10
4.383863
 20
6.969578
 30
0.0
 42
1.0
  0
VERTEX
  5
206
100
AcDbEntity
  8
0
370
     0
390
0
100
AcDbVertex
100
AcDb2dVertex
 10
4.698676
 20
6.972154
 30
0.0
  0
SEQEND
  5
207
100
AcDbEntity
  8
0
370
     0
390
0
  0
POLYLINE
  5
208
100
AcDbEntity
  8
0
370
    35
390
0
 62
     7
 48
0.03937
100
AcDb2dPolyline
 66
     1
 10
0.0
 20
0.0
 30
0.0
 71
     2
  0
VERTEX
  5
209
100
AcDbEntity
  8
0
370
     0
390
0
100
AcDbVertex
100
AcDb2dVertex
 10
1.898913
 20
6.877796
 30
0.0
 42
0.241106
  0
VERTEX
  5
20A
100
AcDbEntity
  8
0
370
     0
390
0
100
AcDbVertex
100
AcDb2dVertex
 10
2.02715
 20
6.81346
 30
0.0
  0
SEQEND
  5
20B
100
AcDbEntity
  8
0
370
     0
390
0
  0
POLYLINE
  5
20C
100
AcDbEntity
  8
0
370
    35
390
0
 62
     7
 48
0.03937
100
AcDb2dPolyline
 66
     1
 10
0.0
 20
0.0
 30
0.0
 71
     2
  0
VERTEX
  5
20D
100
AcDbEntity
  8
0
370
     0
390
0
100
AcDbVertex
100
AcDb2dVertex
 10
2.02715
 20
6.81346
 30
0.0
 42
1.0
  0
VERTEX
  5
20E
100
AcDbEntity
  8
0
370
     0
390
0
100
AcDbVertex
100
AcDb2dVertex
 10
2.024575
 20
7.128272
 30
0.0
  0
SEQEND
  5
20F
100
AcDbEntity
  8
0
370
     0
390
0
  0
LINE
  5
210
100
AcDbEntity
  8
0
370
    35
390
0
 62
     7
 48
0.03937
100
AcDbLine
 10
2.394235
 20
1.526564
 30
0.0
 11
2.394235
 21
2.45295
 31
0.0
210
0.0
220
0.0
230
1.0
  0
LINE
  5
211
100
AcDbEntity
  8
0
370
    35
390
0
 62
     7
 48
0.014822
100
AcDbLine
 10
2.394235
 20
2.45295
 30
0.0
 11
1.801348
 21
2.45295
 31
0.0
210
0.0
220
0.0
230
1.0
  0
LINE
  5
212
100
AcDbEntity
  8
0
370
    35
390
0
 62
     7
 48
0.000926
100
AcDbLine
 10
1.801348
 20
2.415895
 30
0.0
 11
1.801348
 21
2.45295
 31
0.0
210
0.0
220
0.0
230
1.0
  0
LINE
  5
213
100
AcDbEntity
  8
0
370
    35
390
0
 62
     7
 48
0.018528
100
AcDbLine
 10
1.801348
 20
2.415895
 30
0.0
 11
1.060239
 21
2.415895
 31
0.0
210
0.0
220
0.0
230
1.0
  0
LINE
  5
214
100
AcDbEntity
  8
0
370
    35
390
0
 62
     7
 48
0.03937
100
AcDbLine
 10
1.060239
 20
1.526564
 30
0.0
 11
1.060239
 21
2.415895
 31
0.0
210
0.0
220
0.0
230
1.0
  0
LINE
  5
215
100
AcDbEntity
  8
0
370
    35
390
0
 62
     7
 48
0.03937
100
AcDbLine
 10
2.394235
 20
1.526564
 30
0.0
 11
1.060239
 21
1.526564
 31
0.0
210
0.0
220
0.0
230
1.0
  0
LINE
  5
216
100
AcDbEntity
  8
0
370
    35
390
0
 62
     7
 48
0.03937
100
AcDbLine
 10
5.506893
 20
1.526564
 30
0.0
 11
4.172897
 21
1.526564
 31
0.0
210
0.0
220
0.0
230
1.0
  0
LINE
  5
217
100
AcDbEntity
  8
0
370
    35
390
0
 62
     7
 48
0.03937
100
AcDbLine
 10
5.506893
 20
1.526564
 30
0.0
 11
5.506893
 21
2.415895
 31
0.0
210
0.0
220
0.0
230
1.0
  0
LINE
  5
218
100
AcDbEntity
  8
0
370
    35
390
0
 62
     7
 48
0.018528
100
AcDbLine
 10
5.506893
 20
2.415895
 30
0.0
 11
4.765784
 21
2.415895
 31
0.0
210
0.0
220
0.0
230
1.0
  0
LINE
  5
219
100
AcDbEntity
  8
0
370
    35
390
0
 62
     7
 48
0.000926
100
AcDbLine
 10
4.765784
 20
2.415895
 30
0.0
 11
4.765784
 21
2.45295
 31
0.0
210
0.0
220
0.0
230
1.0
  0
LINE
  5
21A
100
AcDbEntity
  8
0
370
    35
390
0
 62
     7
 48
0.014822
100
AcDbLine
 10
4.765784
 20
2.45295
 30
0.0
 11
4.172897
 21
2.45295
 31
0.0
210
0.0
220
0.0
230
1.0
  0
LINE
  5
21B
100
AcDbEntity
  8
0
370
    35
390
0
 62
     7
 48
0.03937
100
AcDbLine
 10
4.172897
 20
1.526564
 30
0.0
 11
4.172897
 21
2.45295
 31
0.0
210
0.0
220
0.0
230
1.0
  0
POLYLINE
  5
21C
100
AcDbEntity
  8
0
370
    35
390
0
 62
     7
 48
0.03937
100
AcDb2dPolyline
 66
     1
 10
0.0
 20
0.0
 30
0.0
 71
     2
  0
VERTEX
  5
21D
100
AcDbEntity
  8
0
370
     0
390
0
100
AcDbVertex
100
AcDb2dVertex
 10
7.056227
 20
4.361817
 30
0.0
 42
0.057181
  0
VERTEX
  5
21E
100
AcDbEntity
  8
0
370
     0
390
0
100
AcDbVertex
100
AcDb2dVertex
 10
7.073356
 20
4.305724
 30
0.0
  0
SEQEND
  5
21F
100
AcDbEntity
  8
0
370
     0
390
0
  0
POLYLINE
  5
220
100
AcDbEntity
  8
0
370
    35
390
0
 62
     7
 48
0.03937
100
AcDb2dPolyline
 66
     1
 10
0.0
 20
0.0
 30
0.0
 71
     2
  0
VERTEX
  5
221
100
AcDbEntity
  8
0
370
     0
390
0
100
AcDbVertex
100
AcDb2dVertex
 10
7.058004
 20
4.357408
 30
0.0
 42
0.047806
  0
VERTEX
  5
222
100
AcDbEntity
  8
0
370
     0
390
0
100
AcDbVertex
100
AcDb2dVertex
 10
7.07236
 20
4.310393
 30
0.0
  0
SEQEND
  5
223
100
AcDbEntity
  8
0
370
     0
390
0
  0
POLYLINE
  5
224
100
AcDbEntity
  8
0
370
    35
390
0
 62
     7
 48
0.03937
100
AcDb2dPolyline
 66
     1
 10
0.0
 20
0.0
 30
0.0
 71
     2
  0
VERTEX
  5
225
100
AcDbEntity
  8
0
370
     0
390
0
100
AcDbVertex
100
AcDb2dVertex
 10
7.014436
 20
4.42108
 30
0.0
 42
0.01871
  0
VERTEX
  5
226
100
AcDbEntity
  8
0
370
     0
390
0
100
AcDbVertex
100
AcDb2dVertex
 10
7.014047
 20
4.402399
 30
0.0
  0
SEQEND
  5
227
100
AcDbEntity
  8
0
370
     0
390
0
  0
SPLINE
  5
228
100
AcDbEntity
  8
0
370
    35
390
0
 62
     7
 48
0.03937
100
AcDbSpline
210
0.0
220
0.0
230
1.0
 70
     8
 71
     5
 72
    15
 73
     9
 74
     0
 42
0.0
 43
0.0
 40
0.0
 40
0.0
 40
0.0
 40
0.0
 40
0.0
 40
0.0
 40
7.6365086510915887
 40
7.6365086510915887
 40
7.6365086510915887
 40
10.996319605159183
 40
10.996319605159183
 40
10.996319605159183
 40
10.996319605159183
 40
10.996319605159183
 40
10.996319605159183
 10
7.0744961118610483
 20
4.2306816067991413
 30
0.0
 10
7.0590437755276136
 20
4.2496096474989473
 30
0.0
 10
7.0457000233615208
 20
4.2715469488129392
 30
0.0
 10
7.0347729049143579
 20
4.2953652738296704
 30
0.0
 10
7.0227030446738556
 20
4.331340459105065
 30
0.0
 10
7.0163876473624418
 20
4.368410567152277
 30
0.0
 10
7.0150155986599581
 20
4.3797816183966614
 30
0.0
 10
7.0142256995499066
 20
4.3911357821142154
 30
0.0
 10
7.0140459285931351
 20
4.4023994515516236
 30
0.0
  0
POLYLINE
  5
229
100
AcDbEntity
  8
0
370
    35
390
0
 62
     7
 48
0.03937
100
AcDb2dPolyline
 66
     1
 10
0.0
 20
0.0
 30
0.0
 71
     2
  0
VERTEX
  5
22A
100
AcDbEntity
  8
0
370
     0
390
0
100
AcDbVertex
100
AcDb2dVertex
 10
7.016141
 20
4.430875
 30
0.0
 42
0.025219
  0
VERTEX
  5
22B
100
AcDbEntity
  8
0
370
     0
390
0
100
AcDbVertex
100
AcDb2dVertex
 10
7.013421
 20
4.412794
 30
0.0
  0
SEQEND
  5
22C
100
AcDbEntity
  8
0
370
     0
390
0
  0
POLYLINE
  5
22D
100
AcDbEntity
  8
0
370
    35
390
0
 62
     7
 48
0.03937
100
AcDb2dPolyline
 66
     1
 10
0.0
 20
0.0
 30
0.0
 71
     2
  0
VERTEX
  5
22E
100
AcDbEntity
  8
0
370
     0
390
0
100
AcDbVertex
100
AcDb2dVertex
 10
7.013419
 20
4.412794
 30
0.0
 42
0.025991
  0
VERTEX
  5
22F
100
AcDbEntity
  8
0
370
     0
390
0
100
AcDbVertex
100
AcDb2dVertex
 10
7.012408
 20
4.391249
 30
0.0
  0
SEQEND
  5
230
100
AcDbEntity
  8
0
370
     0
390
0
  0
SPLINE
  5
231
100
AcDbEntity
  8
0
370
    35
390
0
 62
     7
 48
0.03937
100
AcDbSpline
210
0.0
220
0.0
230
1.0
 70
     8
 71
     5
 72
    21
 73
    15
 74
     0
 42
0.0
 43
0.0
 40
0.0
 40
0.0
 40
0.0
 40
0.0
 40
0.0
 40
0.0
 40
2.4571158800198036
 40
2.4571158800198036
 40
2.4571158800198036
 40
8.8151722533137828
 40
8.8151722533137828
 40
8.8151722533137828
 40
11.367096879351104
 40
11.367096879351104
 40
11.367096879351104
 40
12.648945428778422
 40
12.648945428778422
 40
12.648945428778422
 40
12.648945428778422
 40
12.648945428778422
 40
12.648945428778422
 10
7.065230327190311
 20
4.2394982242124151
 30
0.0
 10
7.0614827979269101
 20
4.2438800050877381
 30
0.0
 10
7.0578626469766492
 20
4.2484871483865128
 30
0.0
 10
7.0543615636281158
 20
4.2533227749274776
 30
0.0
 10
7.042356394608742
 20
4.2712814570437505
 30
0.0
 10
7.0321593049720574
 20
4.2916460564585535
 30
0.0
 10
7.0259772055012029
 20
4.3071829292005912
 30
0.0
 10
7.0190767316456668
 20
4.3295818856281763
 30
0.0
 10
7.0147696611802948
 20
4.3524325736653262
 30
0.0
 10
7.0137549558079124
 20
4.3589872794991598
 30
0.0
 10
7.012562867858299
 20
4.3688589680916001
 30
0.0
 10
7.0118869709333662
 20
4.3786885095864143
 30
0.0
 10
7.0117193051696862
 20
4.3819688524663665
 30
0.0
 10
7.0116107147546947
 20
4.3852380898492731
 30
0.0
 10
7.0115617267236203
 20
4.3884945361878138
 30
0.0
  0
POLYLINE
  5
232
100
AcDbEntity
  8
0
370
    35
390
0
 62
     7
 48
0.03937
100
AcDb2dPolyline
 66
     1
 10
0.0
 20
0.0
 30
0.0
 71
     2
  0
VERTEX
  5
233
100
AcDbEntity
  8
0
370
     0
390
0
100
AcDbVertex
100
AcDb2dVertex
 10
7.015486
 20
4.431677
 30
0.0
 42
0.055508
  0
VERTEX
  5
234
100
AcDbEntity
  8
0
370
     0
390
0
100
AcDbVertex
100
AcDb2dVertex
 10
7.011575
 20
4.388495
 30
0.0
  0
SEQEND
  5
235
100
AcDbEntity
  8
0
370
     0
390
0
  0
SPLINE
  5
236
100
AcDbEntity
  8
0
370
    35
390
0
 62
     7
 48
0.03937
100
AcDbSpline
210
0.0
220
0.0
230
1.0
 70
     8
 71
     5
 72
    18
 73
    12
 74
     0
 42
0.0
 43
0.0
 40
0.0
 40
0.0
 40
0.0
 40
0.0
 40
0.0
 40
0.0
 40
2.4951156517097361
 40
2.4951156517097361
 40
2.4951156517097361
 40
8.954395679162495
 40
8.954395679162495
 40
8.954395679162495
 40
12.841694730220159
 40
12.841694730220159
 40
12.841694730220159
 40
12.841694730220159
 40
12.841694730220159
 40
12.841694730220159
 10
7.0660981498199611
 20
4.2397818958951197
 30
0.0
 10
7.0622938864461489
 20
4.2442301852008768
 30
0.0
 10
7.0586202132039721
 20
4.2489116135065386
 30
0.0
 10
7.0550679959306288
 20
4.253830518780422
 30
0.0
 10
7.0428963202574542
 20
4.2721070711153972
 30
0.0
 10
7.0325938337659801
 20
4.2928576229925826
 30
0.0
 10
7.0263856396841513
 20
4.308677312389972
 30
0.0
 10
7.0185224140275677
 20
4.3347137150826374
 30
0.0
 10
7.0141610457114094
 20
4.3613589991750876
 30
0.0
 10
7.0130341117747941
 20
4.3714188174033133
 30
0.0
 10
7.0124450469313189
 20
4.3813986367926177
 30
0.0
 10
7.012406591595437
 20
4.3912493200267058
 30
0.0
  0
POLYLINE
  5
237
100
AcDbEntity
  8
0
370
    35
390
0
 62
     7
 48
0.03937
100
AcDb2dPolyline
 66
     1
 10
0.0
 20
0.0
 30
0.0
 71
     2
  0
VERTEX
  5
238
100
AcDbEntity
  8
0
370
     0
390
0
100
AcDbVertex
100
AcDb2dVertex
 10
7.068809
 20
4.23669
 30
0.0
 42
0.022268
  0
VERTEX
  5
239
100
AcDbEntity
  8
0
370
     0
390
0
100
AcDbVertex
100
AcDb2dVertex
 10
7.078331
 20
4.226976
 30
0.0
  0
SEQEND
  5
23A
100
AcDbEntity
  8
0
370
     0
390
0
  0
LINE
  5
23B
100
AcDbEntity
  8
0
370
    35
390
0
 62
     7
 48
0.000103
100
AcDbLine
 10
7.068809
 20
4.23669
 30
0.0
 11
7.066098
 21
4.239782
 31
0.0
210
0.0
220
0.0
230
1.0
  0
POLYLINE
  5
23C
100
AcDbEntity
  8
0
370
    35
390
0
 62
     7
 48
0.03937
100
AcDb2dPolyline
 66
     1
 10
0.0
 20
0.0
 30
0.0
 71
     2
  0
VERTEX
  5
23D
100
AcDbEntity
  8
0
370
     0
390
0
100
AcDbVertex
100
AcDb2dVertex
 10
6.9738
 20
4.407797
 30
0.0
 42
0.01871
  0
VERTEX
  5
23E
100
AcDbEntity
  8
0
370
     0
390
0
100
AcDbVertex
100
AcDb2dVertex
 10
6.97341
 20
4.389116
 30
0.0
  0
SEQEND
  5
23F
100
AcDbEntity
  8
0
370
     0
390
0
  0
SPLINE
  5
240
100
AcDbEntity
  8
0
370
    35
390
0
 62
     7
 48
0.03937
100
AcDbSpline
210
0.0
220
0.0
230
1.0
 70
     8
 71
     5
 72
    15
 73
     9
 74
     0
 42
0.0
 43
0.0
 40
0.0
 40
0.0
 40
0.0
 40
0.0
 40
0.0
 40
0.0
 40
7.6365085003559603
 40
7.6365085003559603
 40
7.6365085003559603
 40
10.996319363087537
 40
10.996319363087537
 40
10.996319363087537
 40
10.996319363087537
 40
10.996319363087537
 40
10.996319363087537
 10
7.0338599342160322
 20
4.2173985514918222
 30
0.0
 10
7.0184075973414961
 20
4.2363265920544801
 30
0.0
 10
7.0050638443820974
 20
4.2582638936149424
 30
0.0
 10
6.9941367251942896
 20
4.2820822193001611
 30
0.0
 10
6.9820668645176092
 20
4.3180574059042982
 30
0.0
 10
6.9757514672595997
 20
4.355127514847867
 30
0.0
 10
6.9743794186110648
 20
4.366498566215502
 30
0.0
 10
6.9735895195515969
 20
4.3778527299090575
 30
0.0
 10
6.973409748596552
 20
4.3891163990424289
 30
0.0
  0
POLYLINE
  5
241
100
AcDbEntity
  8
0
370
    35
390
0
 62
     7
 48
0.03937
100
AcDb2dPolyline
 66
     1
 10
0.0
 20
0.0
 30
0.0
 71
     2
  0
VERTEX
  5
242
100
AcDbEntity
  8
0
370
     0
390
0
100
AcDbVertex
100
AcDb2dVertex
 10
7.065232
 20
4.2395
 30
0.0
 42
0.030101
  0
VERTEX
  5
243
100
AcDbEntity
  8
0
370
     0
390
0
100
AcDbVertex
100
AcDb2dVertex
 10
7.078174
 20
4.226034
 30
0.0
  0
SEQEND
  5
244
100
AcDbEntity
  8
0
370
     0
390
0
  0
ELLIPSE
  5
245
100
AcDbEntity
  8
0
370
    35
390
0
 62
     7
 48
0.03937
100
AcDbEllipse
 10
7.083821
 20
4.335992
 30
0.0
 11
0.049682396363116
 21
-0.1597158127062688
 31
0.0
210
0.0
220
0.0
230
1.0
 40
0.628845
 41
3.6923242521014341
 42
4.1182535051415998
  0
POLYLINE
  5
246
100
AcDbEntity
  8
0
370
    35
390
0
 62
     7
 48
0.03937
100
AcDb2dPolyline
 66
     1
 10
0.0
 20
0.0
 30
0.0
 71
     2
  0
VERTEX
  5
247
100
AcDbEntity
  8
0
370
     0
390
0
100
AcDbVertex
100
AcDb2dVertex
 10
6.972783
 20
4.399511
 30
0.0
 42
0.025991
  0
VERTEX
  5
248
100
AcDbEntity
  8
0
370
     0
390
0
100
AcDbVertex
100
AcDb2dVertex
 10
6.971772
 20
4.377966
 30
0.0
  0
SEQEND
  5
249
100
AcDbEntity
  8
0
370
     0
390
0
  0
SPLINE
  5
24A
100
AcDbEntity
  8
0
370
    35
390
0
 62
     7
 48
0.03937
100
AcDbSpline
210
0.0
220
0.0
230
1.0
 70
     8
 71
     5
 72
    21
 73
    15
 74
     0
 42
0.0
 43
0.0
 40
0.0
 40
0.0
 40
0.0
 40
0.0
 40
0.0
 40
0.0
 40
2.4571149718130481
 40
2.4571149718130481
 40
2.4571149718130481
 40
8.8151712272752114
 40
8.8151712272752114
 40
8.8151712272752114
 40
11.367095111717855
 40
11.367095111717855
 40
11.367095111717855
 40
12.648943178112372
 40
12.648943178112372
 40
12.648943178112372
 40
12.648943178112372
 40
12.648943178112372
 40
12.648943178112372
 10
7.0245941474946534
 20
4.2262151718015879
 30
0.0
 10
7.0208466188824232
 20
4.2305969520235589
 30
0.0
 10
7.0172264689350854
 20
4.2352040941557885
 30
0.0
 10
7.0137253858196926
 20
4.2400397204202704
 30
0.0
 10
7.0017202175710205
 20
4.257998400895648
 30
0.0
 10
6.9915231232645105
 20
4.2783630079356287
 30
0.0
 10
6.9853410222783054
 20
4.2938998878619365
 30
0.0
 10
6.9784405490105295
 20
4.3162988458586842
 30
0.0
 10
6.9741334796241023
 20
4.3391495326354441
 30
0.0
 10
6.9731187747822743
 20
4.3457042361590821
 30
0.0
 10
6.9719266873743191
 20
4.3555759220643688
 30
0.0
 10
6.9712507907763621
 20
4.3654054606790105
 30
0.0
 10
6.9710831251028056
 20
4.3686858023839861
 30
0.0
 10
6.9709745347428766
 20
4.371955038567453
 30
0.0
 10
6.9709255467270346
 20
4.37521148367862
 30
0.0
  0
ELLIPSE
  5
24B
100
AcDbEntity
  8
0
370
    35
390
0
 62
     7
 48
0.03937
100
AcDbEllipse
 10
7.081624
 20
4.336863
 30
0.0
 11
0.0481472289773229
 21
-0.1585460654165758
 31
0.0
210
0.0
220
0.0
230
1.0
 40
0.628884
 41
3.6926297356289015
 42
4.2838073009033195
  0
SPLINE
  5
24C
100
AcDbEntity
  8
0
370
    35
390
0
 62
     7
 48
0.03937
100
AcDbSpline
210
0.0
220
0.0
230
1.0
 70
     8
 71
     5
 72
    18
 73
    12
 74
     0
 42
0.0
 43
0.0
 40
0.0
 40
0.0
 40
0.0
 40
0.0
 40
0.0
 40
0.0
 40
2.4951105232157849
 40
2.4951105232157849
 40
2.4951105232157849
 40
8.9543925011482894
 40
8.9543925011482894
 40
8.9543925011482894
 40
12.84168501237702
 40
12.84168501237702
 40
12.84168501237702
 40
12.84168501237702
 40
12.84168501237702
 40
12.84168501237702
 10
7.0254619691608067
 20
4.2264988431693462
 30
0.0
 10
7.0216577113216774
 20
4.2309471257319551
 30
0.0
 10
7.017984044424141
 20
4.2356285451407052
 30
0.0
 10
7.0144318257370992
 20
4.2405474510833363
 30
0.0
 10
7.0022601508476017
 20
4.2588239936866383
 30
0.0
 10
6.9919576317107284
 20
4.2795745962212282
 30
0.0
 10
6.9857494313211967
 20
4.2953943282038978
 30
0.0
 10
6.9778862173907985
 20
4.3214307229883264
 30
0.0
 10
6.9735248591520316
 20
4.3480759968124953
 30
0.0
 10
6.9723979294406995
 20
4.3581357981860043
 30
0.0
 10
6.9718088668747029
 20
4.3681156008582969
 30
0.0
 10
6.9717704115988548
 20
4.3779662675175128
 30
0.0
  0
ELLIPSE
  5
24D
100
AcDbEntity
  8
0
370
    35
390
0
 62
     7
 48
0.03937
100
AcDbEllipse
 10
7.066454
 20
4.330095
 30
0.0
 11
0.0441008984102446
 21
-0.1406004844588994
 31
0.0
210
0.0
220
0.0
230
1.0
 40
0.588055
 41
5.3723483143894741
 42
5.786166822576166
  0
LINE
  5
24E
100
AcDbEntity
  8
0
370
    35
390
0
 62
     7
 48
0.000103
100
AcDbLine
 10
7.028172
 20
4.223407
 30
0.0
 11
7.025462
 21
4.226499
 31
0.0
210
0.0
220
0.0
230
1.0
  0
POLYLINE
  5
24F
100
AcDbEntity
  8
0
370
    35
390
0
 62
     7
 48
0.03937
100
AcDb2dPolyline
 66
     1
 10
0.0
 20
0.0
 30
0.0
 71
     2
  0
VERTEX
  5
250
100
AcDbEntity
  8
0
370
     0
390
0
100
AcDbVertex
100
AcDb2dVertex
 10
6.933164
 20
4.394514
 30
0.0
 42
0.01871
  0
VERTEX
  5
251
100
AcDbEntity
  8
0
370
     0
390
0
100
AcDbVertex
100
AcDb2dVertex
 10
6.932774
 20
4.375833
 30
0.0
  0
SEQEND
  5
252
100
AcDbEntity
  8
0
370
     0
390
0
  0
SPLINE
  5
253
100
AcDbEntity
  8
0
370
    35
390
0
 62
     7
 48
0.03937
100
AcDbSpline
210
0.0
220
0.0
230
1.0
 70
     8
 71
     5
 72
    15
 73
     9
 74
     0
 42
0.0
 43
0.0
 40
0.0
 40
0.0
 40
0.0
 40
0.0
 40
0.0
 40
0.0
 40
7.6365079798054936
 40
7.6365079798054936
 40
7.6365079798054936
 40
10.996318525199969
 40
10.996318525199969
 40
10.996318525199969
 40
10.996318525199969
 40
10.996318525199969
 40
10.996318525199969
 10
6.9932237530477925
 20
4.2041154997882746
 30
0.0
 10
6.9777714160308504
 20
4.2230435402095186
 30
0.0
 10
6.9644276625306158
 20
4.2449808418485011
 30
0.0
 10
6.9535005429350019
 20
4.2687991680564643
 30
0.0
 10
6.9414306828438228
 20
4.3047743555712499
 30
0.0
 10
6.93511528664295
 20
4.3418444644426186
 30
0.0
 10
6.9337432383376854
 20
4.3532155154140701
 30
0.0
 10
6.9329533395266756
 20
4.3645696784667418
 30
0.0
 10
6.9327735685999663
 20
4.3758333465332351
 30
0.0
  0
ELLIPSE
  5
254
100
AcDbEntity
  8
0
370
    35
390
0
 62
     7
 48
0.03937
100
AcDbEllipse
 10
7.065596
 20
4.330152
 30
0.0
 11
0.0440513850713787
 21
-0.1409558074185613
 31
0.0
210
0.0
220
0.0
230
1.0
 40
0.587673
 41
5.342141647291478
 42
5.7931311715393257
  0
SPLINE
  5
255
100
AcDbEntity
  8
0
370
    35
390
0
 62
     7
 48
0.03937
100
AcDbSpline
210
0.0
220
0.0
230
1.0
 70
     8
 71
     5
 72
    18
 73
    12
 74
     0
 42
0.0
 43
0.0
 40
0.0
 40
0.0
 40
0.0
 40
0.0
 40
0.0
 40
0.0
 40
4.7804207775935232
 40
4.7804207775935232
 40
4.7804207775935232
 40
7.2394963648946717
 40
7.2394963648946717
 40
7.2394963648946717
 40
8.0921069362655196
 40
8.0921069362655196
 40
8.0921069362655196
 40
8.0921069362655196
 40
8.0921069362655196
 40
8.0921069362655196
 10
6.9672348178256467
 20
4.4671748921672734
 30
0.0
 10
6.9602772653324614
 20
4.4608396150496912
 30
0.0
 10
6.9540140269742876
 20
4.4532372188464011
 30
0.0
 10
6.9485746457703135
 20
4.4444972871519584
 30
0.0
 10
6.9417096454550995
 20
4.4298940197173549
 30
0.0
 10
6.9369319477988611
 20
4.4137925477819691
 30
0.0
 10
6.9355509635489065
 20
4.40819424475856
 30
0.0
 10
6.9339961940414749
 20
4.4004345833111955
 30
0.0
 10
6.9328599719158435
 20
4.3924619329441166
 30
0.0
 10
6.9325950410347597
 20
4.3903957201417638
 30
0.0
 10
6.9323576978572827
 20
4.3883176293323656
 30
0.0
 10
6.9321477593393839
 20
4.386228132905388
 30
0.0
  0
POLYLINE
  5
256
100
AcDbEntity
  8
0
370
    35
390
0
 62
     7
 48
0.03937
100
AcDb2dPolyline
 66
     1
 10
0.0
 20
0.0
 30
0.0
 71
     2
  0
VERTEX
  5
257
100
AcDbEntity
  8
0
370
     0
390
0
100
AcDbVertex
100
AcDb2dVertex
 10
6.932146
 20
4.386228
 30
0.0
 42
0.025991
  0
VERTEX
  5
258
100
AcDbEntity
  8
0
370
     0
390
0
100
AcDbVertex
100
AcDb2dVertex
 10
6.931136
 20
4.364683
 30
0.0
  0
SEQEND
  5
259
100
AcDbEntity
  8
0
370
     0
390
0
  0
SPLINE
  5
25A
100
AcDbEntity
  8
0
370
    35
390
0
 62
     7
 48
0.03937
100
AcDbSpline
210
0.0
220
0.0
230
1.0
 70
     8
 71
     5
 72
    21
 73
    15
 74
     0
 42
0.0
 43
0.0
 40
0.0
 40
0.0
 40
0.0
 40
0.0
 40
0.0
 40
0.0
 40
2.4571153874434768
 40
2.4571153874434768
 40
2.4571153874434768
 40
8.81517158613606
 40
8.81517158613606
 40
8.81517158613606
 40
11.367095911250491
 40
11.367095911250491
 40
11.367095911250491
 40
12.648944292577832
 40
12.648944292577832
 40
12.648944292577832
 40
12.648944292577832
 40
12.648944292577832
 40
12.648944292577832
 10
6.9839579686767141
 20
4.2129321196776663
 30
0.0
 10
6.9802104405126997
 20
4.2173138996527131
 30
0.0
 10
6.9765902904743404
 20
4.2219210421118358
 30
0.0
 10
6.9730892072079529
 20
4.22675666885785
 30
0.0
 10
6.9610840392864128
 20
4.244715350138061
 30
0.0
 10
6.9508869481430322
 20
4.2650799518691649
 30
0.0
 10
6.9447048476318081
 20
4.2806168270191991
 30
0.0
 10
6.9378043727120655
 20
4.303015784103617
 30
0.0
 10
6.9334973014874155
 20
4.325866472073244
 30
0.0
 10
6.9324825960114191
 20
4.3324211772514349
 30
0.0
 10
6.9312905079163079
 20
4.3422928651356623
 30
0.0
 10
6.9306146109402933
 20
4.3521224057359404
 30
0.0
 10
6.9304469451709654
 20
4.3554027482623647
 30
0.0
 10
6.9303383547577644
 20
4.3586719852582689
 30
0.0
 10
6.9302893667304506
 20
4.3619284311694253
 30
0.0
  0
SPLINE
  5
25B
100
AcDbEntity
  8
0
370
    35
390
0
 62
     7
 48
0.03937
100
AcDbSpline
210
0.0
220
0.0
230
1.0
 70
     8
 71
     5
 72
    18
 73
    12
 74
     0
 42
0.0
 43
0.0
 40
0.0
 40
0.0
 40
0.0
 40
0.0
 40
0.0
 40
0.0
 40
4.9263527778272307
 40
4.9263527778272307
 40
4.9263527778272307
 40
6.9489305905527132
 40
6.9489305905527132
 40
6.9489305905527132
 40
10.076522451589334
 40
10.076522451589334
 40
10.076522451589334
 40
10.076522451589334
 40
10.076522451589334
 40
10.076522451589334
 10
6.9668487599045248
 20
4.467326678694417
 30
0.0
 10
6.9596390676882001
 20
4.4608702507057201
 30
0.0
 10
6.9531637228317624
 20
4.4530645828110718
 30
0.0
 10
6.9475632860080916
 20
4.4440487482691973
 30
0.0
 10
6.9410226172032017
 20
4.4299850942616139
 30
0.0
 10
6.9364027396831567
 20
4.4145604692104943
 30
0.0
 10
6.9352178003032563
 20
4.4099645215508039
 30
0.0
 10
6.9326038105403711
 20
4.3980185384771211
 30
0.0
 10
6.9310058734788491
 20
4.3855150353175336
 30
0.0
 10
6.9304051367380639
 20
4.3777431356625227
 30
0.0
 10
6.9301698404648047
 20
4.3698738589429587
 30
0.0
 10
6.9302893667304497
 20
4.3619284311694253
 30
0.0
  0
SPLINE
  5
25C
100
AcDbEntity
  8
0
370
    35
390
0
 62
     7
 48
0.03937
100
AcDbSpline
210
0.0
220
0.0
230
1.0
 70
     8
 71
     5
 72
    18
 73
    12
 74
     0
 42
0.0
 43
0.0
 40
0.0
 40
0.0
 40
0.0
 40
0.0
 40
0.0
 40
0.0
 40
2.4951098960392124
 40
2.4951098960392124
 40
2.4951098960392124
 40
8.9543917038367375
 40
8.9543917038367375
 40
8.9543917038367375
 40
12.841683289316828
 40
12.841683289316828
 40
12.841683289316828
 40
12.841683289316828
 40
12.841683289316828
 40
12.841683289316828
 10
6.9848257887170861
 20
4.2132157905139938
 30
0.0
 10
6.9810215310715593
 20
4.2176640727237329
 30
0.0
 10
6.9773478646680793
 20
4.2223454913660179
 30
0.0
 10
6.9737956460966508
 20
4.2272643969340518
 30
0.0
 10
6.9616239712283692
 20
4.2455409383267391
 30
0.0
 10
6.9513214487301944
 20
4.2662915461537336
 30
0.0
 10
6.9451132477607622
 20
4.2821112828581542
 30
0.0
 10
6.9372500353762812
 20
4.308147677532796
 30
0.0
 10
6.9328886784259947
 20
4.3347929504153448
 30
0.0
 10
6.931761749190426
 20
4.3448527500275498
 30
0.0
 10
6.9311726868573871
 20
4.3548325506918406
 30
0.0
 10
6.9311342316022682
 20
4.3646832150083181
 30
0.0
  0
ELLIPSE
  5
25D
100
AcDbEntity
  8
0
370
    35
390
0
 62
     7
 48
0.03937
100
AcDbEllipse
 10
7.025744
 20
4.316376
 30
0.0
 11
0.044202262187183
 21
-0.1401405503274364
 31
0.0
210
0.0
220
0.0
230
1.0
 40
0.588203
 41
5.3701731305449574
 42
5.8578246458258354
  0
LINE
  5
25E
100
AcDbEntity
  8
0
370
    35
390
0
 62
     7
 48
0.000103
100
AcDbLine
 10
6.987536
 20
4.210124
 30
0.0
 11
6.984826
 21
4.213216
 31
0.0
210
0.0
220
0.0
230
1.0
  0
POLYLINE
  5
25F
100
AcDbEntity
  8
0
370
    35
390
0
 62
     7
 48
0.03937
100
AcDb2dPolyline
 66
     1
 10
0.0
 20
0.0
 30
0.0
 71
     2
  0
VERTEX
  5
260
100
AcDbEntity
  8
0
370
     0
390
0
100
AcDbVertex
100
AcDb2dVertex
 10
7.031994
 20
4.178
 30
0.0
 42
0.064323
  0
VERTEX
  5
261
100
AcDbEntity
  8
0
370
     0
390
0
100
AcDbVertex
100
AcDb2dVertex
 10
7.04876
 20
4.174099
 30
0.0
  0
SEQEND
  5
262
100
AcDbEntity
  8
0
370
     0
390
0
  0
POLYLINE
  5
263
100
AcDbEntity
  8
0
370
    35
390
0
 62
     7
 48
0.03937
100
AcDb2dPolyline
 66
     1
 10
0.0
 20
0.0
 30
0.0
 71
     2
  0
VERTEX
  5
264
100
AcDbEntity
  8
0
370
     0
390
0
100
AcDbVertex
100
AcDb2dVertex
 10
6.892528
 20
4.381231
 30
0.0
 42
0.01871
  0
VERTEX
  5
265
100
AcDbEntity
  8
0
370
     0
390
0
100
AcDbVertex
100
AcDb2dVertex
 10
6.892138
 20
4.36255
 30
0.0
  0
SEQEND
  5
266
100
AcDbEntity
  8
0
370
     0
390
0
  0
SPLINE
  5
267
100
AcDbEntity
  8
0
370
    35
390
0
 62
     7
 48
0.03937
100
AcDbSpline
210
0.0
220
0.0
230
1.0
 70
     8
 71
     5
 72
    15
 73
     9
 74
     0
 42
0.0
 43
0.0
 40
0.0
 40
0.0
 40
0.0
 40
0.0
 40
0.0
 40
0.0
 40
7.6365079468013031
 40
7.6365079468013031
 40
7.6365079468013031
 40
10.996318638761302
 40
10.996318638761302
 40
10.996318638761302
 40
10.996318638761302
 40
10.996318638761302
 40
10.996318638761302
 10
6.9525875736378753
 20
4.1908324461206883
 30
0.0
 10
6.9371352374046396
 20
4.2097604857256492
 30
0.0
 10
6.9237914848649122
 20
4.2316977865707743
 30
0.0
 10
6.9128643661861018
 20
4.2555161122913692
 30
0.0
 10
6.9007945055595963
 20
4.2914913002360757
 30
0.0
 10
6.8944791077087126
 20
4.3285614100671532
 30
0.0
 10
6.8931070588234062
 20
4.3399324617247244
 30
0.0
 10
6.8923171595457013
 20
4.3512866254654536
 30
0.0
 10
6.8921373886033814
 20
4.3625502940240413
 30
0.0
  0
POLYLINE
  5
268
100
AcDbEntity
  8
0
370
    35
390
0
 62
     7
 48
0.03937
100
AcDb2dPolyline
 66
     1
 10
0.0
 20
0.0
 30
0.0
 71
     2
  0
VERTEX
  5
269
100
AcDbEntity
  8
0
370
     0
390
0
100
AcDbVertex
100
AcDb2dVertex
 10
7.031126
 20
4.177716
 30
0.0
 42
0.066279
  0
VERTEX
  5
26A
100
AcDbEntity
  8
0
370
     0
390
0
100
AcDbVertex
100
AcDb2dVertex
 10
7.048349
 20
4.173773
 30
0.0
  0
SEQEND
  5
26B
100
AcDbEntity
  8
0
370
     0
390
0
  0
ELLIPSE
  5
26C
100
AcDbEntity
  8
0
370
    35
390
0
 62
     7
 48
0.03937
100
AcDbEllipse
 10
7.0249
 20
4.316542
 30
0.0
 11
0.0441300728594649
 21
-0.1406105527308268
 31
0.0
210
0.0
220
0.0
230
1.0
 40
0.587762
 41
5.3404733036108638
 42
5.8592132903897634
  0
SPLINE
  5
26D
100
AcDbEntity
  8
0
370
    35
390
0
 62
     7
 48
0.03937
100
AcDbSpline
210
0.0
220
0.0
230
1.0
 70
     8
 71
     5
 72
    21
 73
    15
 74
     0
 42
0.0
 43
0.0
 40
0.0
 40
0.0
 40
0.0
 40
0.0
 40
0.0
 40
0.0
 40
2.1693484097476965
 40
2.1693484097476965
 40
2.1693484097476965
 40
7.715370942432541
 40
7.715370942432541
 40
7.715370942432541
 40
9.9958455954255498
 40
9.9958455954255498
 40
9.9958455954255498
 40
11.180056397284165
 40
11.180056397284165
 40
11.180056397284165
 40
11.180056397284165
 40
11.180056397284165
 40
11.180056397284165
 10
6.9517707645458522
 20
4.4688506725059636
 30
0.0
 10
6.9478749500111832
 20
4.467549742297324
 30
0.0
 10
6.9440851106126384
 20
4.4659521806899409
 30
0.0
 10
6.9404077281322127
 20
4.4640600229560654
 30
0.0
 10
6.9278503944236505
 20
4.4563730468271192
 30
0.0
 10
6.9170408193750736
 20
4.4452944126764979
 30
0.0
 10
6.9102888481746803
 20
4.4357274552484389
 30
0.0
 10
6.9024323129043994
 20
4.4202884144842054
 30
0.0
 10
6.8970186348548639
 20
4.4030477361686646
 30
0.0
 10
6.8956453517039709
 20
4.3978867161903779
 30
0.0
 10
6.8938654858194166
 20
4.3898609927691092
 30
0.0
 10
6.892545452144045
 20
4.3815842654076445
 30
0.0
 10
6.8921476230675882
 20
4.3787273718984583
 30
0.0
 10
6.8918031679820944
 20
4.3758472244842777
 30
0.0
 10
6.8915115794366146
 20
4.3729450743482685
 30
0.0
  0
POLYLINE
  5
26E
100
AcDbEntity
  8
0
370
    35
390
0
 62
     7
 48
0.03937
100
AcDb2dPolyline
 66
     1
 10
0.0
 20
0.0
 30
0.0
 71
     2
  0
VERTEX
  5
26F
100
AcDbEntity
  8
0
370
     0
390
0
100
AcDbVertex
100
AcDb2dVertex
 10
6.89151
 20
4.372945
 30
0.0
 42
0.025991
  0
VERTEX
  5
270
100
AcDbEntity
  8
0
370
     0
390
0
100
AcDbVertex
100
AcDb2dVertex
 10
6.890499
 20
4.3514
 30
0.0
  0
SEQEND
  5
271
100
AcDbEntity
  8
0
370
     0
390
0
  0
SPLINE
  5
272
100
AcDbEntity
  8
0
370
    35
390
0
 62
     7
 48
0.03937
100
AcDbSpline
210
0.0
220
0.0
230
1.0
 70
     8
 71
     5
 72
    21
 73
    15
 74
     0
 42
0.0
 43
0.0
 40
0.0
 40
0.0
 40
0.0
 40
0.0
 40
0.0
 40
0.0
 40
2.4571155386750867
 40
2.4571155386750867
 40
2.4571155386750867
 40
8.8151715358490552
 40
8.8151715358490552
 40
8.8151715358490552
 40
11.367095868764464
 40
11.367095868764464
 40
11.367095868764464
 40
12.648944210912356
 40
12.648944210912356
 40
12.648944210912356
 40
12.648944210912356
 40
12.648944210912356
 40
12.648944210912356
 10
6.9433217878783307
 20
4.1996490669063808
 30
0.0
 10
6.9395742587695635
 20
4.2040308477930228
 30
0.0
 10
6.9359541081600673
 20
4.2086379908898683
 30
0.0
 10
6.9324530251649215
 20
4.2134736171529825
 30
0.0
 10
6.9204478567841168
 20
4.2314322988159931
 30
0.0
 10
6.9102507661333448
 20
4.2517968999459059
 30
0.0
 10
6.9040686659700841
 20
4.2673337744783897
 30
0.0
 10
6.8971681915746759
 20
4.2897327318405205
 30
0.0
 10
6.8928611209586439
 20
4.3125834197311255
 30
0.0
 10
6.891846415626647
 20
4.3191381250253844
 30
0.0
 10
6.8906543277393704
 20
4.3290098129387031
 30
0.0
 10
6.8899784308906158
 20
4.3388393535100871
 30
0.0
 10
6.8898107651552651
 20
4.3421196959469111
 30
0.0
 10
6.8897021747603358
 20
4.3453889328482589
 30
0.0
 10
6.8896531867338657
 20
4.3486453786602324
 30
0.0
  0
POLYLINE
  5
273
100
AcDbEntity
  8
0
370
    35
390
0
 62
     7
 48
0.03937
100
AcDb2dPolyline
 66
     1
 10
0.0
 20
0.0
 30
0.0
 71
     2
  0
VERTEX
  5
274
100
AcDbEntity
  8
0
370
     0
390
0
100
AcDbVertex
100
AcDb2dVertex
 10
6.957609
 20
4.470426
 30
0.0
 42
0.024348
  0
VERTEX
  5
275
100
AcDbEntity
  8
0
370
     0
390
0
100
AcDbVertex
100
AcDb2dVertex
 10
6.951307
 20
4.468701
 30
0.0
  0
SEQEND
  5
276
100
AcDbEntity
  8
0
370
     0
390
0
  0
SPLINE
  5
277
100
AcDbEntity
  8
0
370
    35
390
0
 62
     7
 48
0.03937
100
AcDbSpline
210
0.0
220
0.0
230
1.0
 70
     8
 71
     5
 72
    21
 73
    15
 74
     0
 42
0.0
 43
0.0
 40
0.0
 40
0.0
 40
0.0
 40
0.0
 40
0.0
 40
0.0
 40
2.53643670198593
 40
2.53643670198593
 40
2.53643670198593
 40
7.7176864617196932
 40
7.7176864617196932
 40
7.7176864617196932
 40
10.384660646933387
 40
10.384660646933387
 40
10.384660646933387
 40
13.143952305945113
 40
13.143952305945113
 40
13.143952305945113
 40
13.143952305945113
 40
13.143952305945113
 40
13.143952305945113
 10
6.9513073262366571
 20
4.4687006090406776
 30
0.0
 10
6.9467448907150704
 20
4.4672092511276178
 30
0.0
 10
6.9423248188511169
 20
4.4653119105837611
 30
0.0
 10
6.9380777166504295
 20
4.4630221369025103
 30
0.0
 10
6.9257203368287366
 20
4.4549250430901868
 30
0.0
 10
6.9151217531967584
 20
4.4434610598694402
 30
0.0
 10
6.9089176283185916
 20
4.4343733522754976
 30
0.0
 10
6.9011035557248022
 20
4.4188535086533607
 30
0.0
 10
6.8957460789915954
 20
4.4015087760937268
 30
0.0
 10
6.8942086796315953
 20
4.3954492341468763
 30
0.0
 10
6.8916288975907536
 20
4.3827507528489944
 30
0.0
 10
6.8901724611303177
 20
4.369482135056824
 30
0.0
 10
6.8897184609526354
 20
4.3626056804338376
 30
0.0
 10
6.8895477356892902
 20
4.3556551656008793
 30
0.0
 10
6.889653186733864
 20
4.3486453786602324
 30
0.0
  0
SPLINE
  5
278
100
AcDbEntity
  8
0
370
    35
390
0
 62
     7
 48
0.03937
100
AcDbSpline
210
0.0
220
0.0
230
1.0
 70
     8
 71
     5
 72
    18
 73
    12
 74
     0
 42
0.0
 43
0.0
 40
0.0
 40
0.0
 40
0.0
 40
0.0
 40
0.0
 40
0.0
 40
2.4951089231396244
 40
2.4951089231396244
 40
2.4951089231396244
 40
8.9543912798082808
 40
8.9543912798082808
 40
8.9543912798082808
 40
12.841682787854605
 40
12.841682787854605
 40
12.841682787854605
 40
12.841682787854605
 40
12.841682787854605
 40
12.841682787854605
 10
6.9441896080602419
 20
4.1999327377889752
 30
0.0
 10
6.9403853548572423
 20
4.2043810146397274
 30
0.0
 10
6.9367116906781447
 20
4.2090624295943577
 30
0.0
 10
6.9331594694148455
 20
4.2139813381668896
 30
0.0
 10
6.9209877943676608
 20
4.2322578773475241
 30
0.0
 10
6.9106852689652962
 20
4.2530084880248253
 30
0.0
 10
6.9044770669768631
 20
4.2688282287019899
 30
0.0
 10
6.8966138548132712
 20
4.2948646242319883
 30
0.0
 10
6.8922524981840727
 20
4.3215098984696745
 30
0.0
 10
6.8911255691240063
 20
4.3315696978775788
 30
0.0
 10
6.8905365068664635
 20
4.3415494983792549
 30
0.0
 10
6.8904980516056833
 20
4.3514001624991234
 30
0.0
  0
ELLIPSE
  5
279
100
AcDbEntity
  8
0
370
    35
390
0
 62
     7
 48
0.03937
100
AcDbEllipse
 10
6.985108
 20
4.303093
 30
0.0
 11
0.0442022852751342
 21
-0.1401404741939701
 31
0.0
210
0.0
220
0.0
230
1.0
 40
0.588203
 41
5.3701727367064667
 42
5.857824395752135
  0
LINE
  5
27A
100
AcDbEntity
  8
0
370
    35
390
0
 62
     7
 48
0.000103
100
AcDbLine
 10
6.9469
 20
4.196841
 30
0.0
 11
6.94419
 21
4.199933
 31
0.0
210
0.0
220
0.0
230
1.0
  0
ELLIPSE
  5
27B
100
AcDbEntity
  8
0
370
    35
390
0
 62
     7
 48
0.03937
100
AcDbEllipse
 10
6.985136
 20
4.299501
 30
0.0
 11
0.0445117580640947
 21
-0.1364076007539764
 31
0.0
210
0.0
220
0.0
230
1.0
 40
0.592582
 41
5.84728703572834
 42
6.2781794078934006
  0
ELLIPSE
  5
27C
100
AcDbEntity
  8
0
370
    35
390
0
 62
     7
 48
0.03937
100
AcDbEllipse
 10
6.983941
 20
4.309953
 30
0.0
 11
0.0470298357299024
 21
-0.1454945998595466
 31
0.0
210
0.0
220
0.0
230
1.0
 40
0.594529
 41
0.1931330442779203
 42
0.7828126567275785
  0
POLYLINE
  5
27D
100
AcDbEntity
  8
0
370
    35
390
0
 62
     7
 48
0.03937
100
AcDb2dPolyline
 66
     1
 10
0.0
 20
0.0
 30
0.0
 71
     2
  0
VERTEX
  5
27E
100
AcDbEntity
  8
0
370
     0
390
0
100
AcDbVertex
100
AcDb2dVertex
 10
6.852317
 20
4.373899
 30
0.0
 42
0.025062
  0
VERTEX
  5
27F
100
AcDbEntity
  8
0
370
     0
390
0
100
AcDbVertex
100
AcDb2dVertex
 10
6.851503
 20
4.349267
 30
0.0
  0
SEQEND
  5
280
100
AcDbEntity
  8
0
370
     0
390
0
  0
ELLIPSE
  5
281
100
AcDbEntity
  8
0
370
    35
390
0
 62
     7
 48
0.03937
100
AcDbEllipse
 10
6.984311
 20
4.299038
 30
0.0
 11
0.0444773285439704
 21
-0.1362264353120375
 31
0.0
210
0.0
220
0.0
230
1.0
 40
0.592967
 41
5.8469073051607676
 42
6.2833861479464961
  0
POLYLINE
  5
282
100
AcDbEntity
  8
0
370
    35
390
0
 62
     7
 48
0.03937
100
AcDb2dPolyline
 66
     1
 10
0.0
 20
0.0
 30
0.0
 71
     2
  0
VERTEX
  5
283
100
AcDbEntity
  8
0
370
     0
390
0
100
AcDbVertex
100
AcDb2dVertex
 10
7.028805
 20
4.162817
 30
0.0
 42
0.036213
  0
VERTEX
  5
284
100
AcDbEntity
  8
0
370
     0
390
0
100
AcDbVertex
100
AcDb2dVertex
 10
7.03559
 20
4.165595
 30
0.0
  0
SEQEND
  5
285
100
AcDbEntity
  8
0
370
     0
390
0
  0
ELLIPSE
  5
286
100
AcDbEntity
  8
0
370
    35
390
0
 62
     7
 48
0.03937
100
AcDbEllipse
 10
6.984264
 20
4.303259
 30
0.0
 11
0.044129976005221
 21
-0.1406103759843429
 31
0.0
210
0.0
220
0.0
230
1.0
 40
0.587763
 41
5.3404723818198079
 42
5.8592124259916663
  0
SPLINE
  5
287
100
AcDbEntity
  8
0
370
    35
390
0
 62
     7
 48
0.03937
100
AcDbSpline
210
0.0
220
0.0
230
1.0
 70
     8
 71
     5
 72
    15
 73
     9
 74
     0
 42
0.0
 43
0.0
 40
0.0
 40
0.0
 40
0.0
 40
0.0
 40
0.0
 40
0.0
 40
7.9586788208521693
 40
7.9586788208521693
 40
7.9586788208521693
 40
11.481769600774726
 40
11.481769600774726
 40
11.481769600774726
 40
11.481769600774726
 40
11.481769600774726
 40
11.481769600774726
 10
6.9169597068456437
 20
4.1716436103156402
 30
0.0
 10
6.9003045432929895
 20
4.1905402559182585
 30
0.0
 10
6.8858622283777455
 20
4.2129571978374001
 30
0.0
 10
6.8740292556267404
 20
4.2375465010425879
 30
0.0
 10
6.8609185954925707
 20
4.2749371068989275
 30
0.0
 10
6.8540470866007039
 20
4.313620335381871
 30
0.0
 10
6.8525490945185084
 20
4.3255456162835744
 30
0.0
 10
6.8516897160546053
 20
4.3374561811660417
 30
0.0
 10
6.8515012086067966
 20
4.3492672415148474
 30
0.0
  0
POLYLINE
  5
288
100
AcDbEntity
  8
0
370
    35
390
0
 62
     7
 48
0.03937
100
AcDb2dPolyline
 66
     1
 10
0.0
 20
0.0
 30
0.0
 71
     2
  0
VERTEX
  5
289
100
AcDbEntity
  8
0
370
     0
390
0
100
AcDbVertex
100
AcDb2dVertex
 10
7.035611
 20
4.165598
 30
0.0
 42
0.058702
  0
VERTEX
  5
28A
100
AcDbEntity
  8
0
370
     0
390
0
100
AcDbVertex
100
AcDb2dVertex
 10
7.041192
 20
4.143907
 30
0.0
  0
SEQEND
  5
28B
100
AcDbEntity
  8
0
370
     0
390
0
  0
POLYLINE
  5
28C
100
AcDbEntity
  8
0
370
    35
390
0
 62
     7
 48
0.03937
100
AcDb2dPolyline
 66
     1
 10
0.0
 20
0.0
 30
0.0
 71
     2
  0
VERTEX
  5
28D
100
AcDbEntity
  8
0
370
     0
390
0
100
AcDbVertex
100
AcDb2dVertex
 10
6.851953
 20
4.370466
 30
0.0
 42
0.028166
  0
VERTEX
  5
28E
100
AcDbEntity
  8
0
370
     0
390
0
100
AcDbVertex
100
AcDb2dVertex
 10
6.850921
 20
4.345307
 30
0.0
  0
SEQEND
  5
28F
100
AcDbEntity
  8
0
370
     0
390
0
  0
SPLINE
  5
290
100
AcDbEntity
  8
0
370
    35
390
0
 62
     7
 48
0.03937
100
AcDbSpline
210
0.0
220
0.0
230
1.0
 70
     8
 71
     5
 72
    36
 73
    30
 74
     0
 42
0.0
 43
0.0
 40
0.0
 40
0.0
 40
0.0
 40
0.0
 40
0.0
 40
0.0
 40
4.7239844683783314
 40
4.7239844683783314
 40
4.7239844683783314
 40
7.0137342874001973
 40
7.0137342874001973
 40
7.0137342874001973
 40
11.46148039358059
 40
11.46148039358059
 40
11.46148039358059
 40
13.630258011116535
 40
13.630258011116535
 40
13.630258011116535
 40
15.820272814825728
 40
15.820272814825728
 40
15.820272814825728
 40
18.028177118725438
 40
18.028177118725438
 40
18.028177118725438
 40
20.25267402710617
 40
20.25267402710617
 40
20.25267402710617
 40
21.377104168032869
 40
21.377104168032869
 40
21.377104168032869
 40
22.501534308959574
 40
22.501534308959574
 40
22.501534308959574
 40
22.501534308959574
 40
22.501534308959574
 40
22.501534308959574
 10
6.8519551208414686
 20
4.370465763639241
 30
0.0
 10
6.853091612854203
 20
4.381912277811554
 30
0.0
 10
6.8550005261136864
 20
4.3930349334440857
 30
0.0
 10
6.857705290705165
 20
4.4036708248243732
 30
0.0
 10
6.862885689102181
 20
4.4184671059772347
 30
0.0
 10
6.8696992694559977
 20
4.4314781833630272
 30
0.0
 10
6.8720979997120244
 20
4.4355290769466427
 30
0.0
 10
6.8796487058512472
 20
4.4468161132856299
 30
0.0
 10
6.8886734781310679
 20
4.4561945052112719
 30
0.0
 10
6.895235197667259
 20
4.461425837900352
 30
0.0
 10
6.9057585727331592
 20
4.4675790089998477
 30
0.0
 10
6.9170614591767867
 20
4.4712257929002304
 30
0.0
 10
6.9208383121892254
 20
4.4721502022625579
 30
0.0
 10
6.9285499215272131
 20
4.4734650293769045
 30
0.0
 10
6.9364573998464216
 20
4.4736987469721923
 30
0.0
 10
6.9404292720071918
 20
4.4735413993295206
 30
0.0
 10
6.9483248845216226
 20
4.4727279644150411
 30
0.0
 10
6.9560943166819351
 20
4.470971317601089
 30
0.0
 10
6.9599692218654772
 20
4.469865473750632
 30
0.0
 10
6.9677153072063351
 20
4.4672092331179023
 30
0.0
 10
6.9754735626231978
 20
4.463644339860946
 30
0.0
 10
6.9793914802878572
 20
4.4616165673876447
 30
0.0
 10
6.9853081196723963
 20
4.458196157356312
 30
0.0
 10
6.9912149297990336
 20
4.4542341594655657
 30
0.0
 10
6.9931949399339226
 20
4.4528433704762911
 30
0.0
 10
6.997135963025503
 20
4.4499483804588609
 30
0.0
 10
7.0010182944616046
 20
4.4468445300132071
 30
0.0
 10
7.0029403135270263
 20
4.4452443796948122
 30
0.0
 10
7.0048442017051276
 20
4.443596120985978
 30
0.0
 10
7.0067286404807838
 20
4.4419015006785498
 30
0.0
  0
ELLIPSE
  5
291
100
AcDbEntity
  8
0
370
    35
390
0
 62
     7
 48
0.03937
100
AcDbEllipse
 10
6.979365
 20
4.312264
 30
0.0
 11
0.0489077182557828
 21
-0.149620942993987
 31
0.0
210
0.0
220
0.0
230
1.0
 40
0.608973
 41
0.0822165081448179
 42
0.2164424511645234
  0
ELLIPSE
  5
292
100
AcDbEntity
  8
0
370
    35
390
0
 62
     7
 48
0.03937
100
AcDbEllipse
 10
6.952545
 20
4.303497
 30
0.0
 11
-0.0599603099520055
 21
0.1834335854785036
 31
0.0
210
0.0
220
0.0
230
1.0
 40
0.608973
 41
5.4078383217504333
 42
10.300142937124631
  0
ELLIPSE
  5
293
100
AcDbEntity
  8
0
370
    35
390
0
 62
     7
 48
0.03937
100
AcDbEllipse
 10
6.952545
 20
4.303497
 30
0.0
 11
-0.0599603099520076
 21
0.183433585478503
 31
0.0
210
0.0
220
0.0
230
1.0
 40
0.608973
 41
4.0169576299450451
 42
5.3670233043288649
  0
SPLINE
  5
294
100
AcDbEntity
  8
0
370
    35
390
0
 62
     7
 48
0.03937
100
AcDbSpline
210
0.0
220
0.0
230
1.0
 70
     8
 71
     5
 72
    18
 73
    12
 74
     0
 42
0.0
 43
0.0
 40
0.0
 40
0.0
 40
0.0
 40
0.0
 40
0.0
 40
0.0
 40
7.0136198196453545
 40
7.0136198196453545
 40
7.0136198196453545
 40
9.8472798027428432
 40
9.8472798027428432
 40
9.8472798027428432
 40
14.232689474688733
 40
14.232689474688733
 40
14.232689474688733
 40
14.232689474688733
 40
14.232689474688733
 40
14.232689474688733
 10
7.0412115733532437
 20
4.1439142304839995
 30
0.0
 10
7.031082269713032
 20
4.1354246441169602
 30
0.0
 10
7.0195493195506691
 20
4.1296024030368326
 30
0.0
 10
7.0069155892295294
 20
4.1268124869257612
 30
0.0
 10
6.9883392032342506
 20
4.127334016364185
 30
0.0
 10
6.969700339498881
 20
4.1334286917249843
 30
0.0
 10
6.9643341918923563
 20
4.1356367049674816
 30
0.0
 10
6.9508861571449474
 20
4.1422813050268319
 30
0.0
 10
6.9379468843793539
 20
4.1514133904019772
 30
0.0
 10
6.930299665968775
 20
4.1578019966573105
 30
0.0
 10
6.9229011875834914
 20
4.1650017761197908
 30
0.0
 10
6.915847758117871
 20
4.1728757366228981
 30
0.0
  0
LINE
  5
295
100
AcDbEntity
  8
0
370
    35
390
0
 62
     7
 48
0.000084
100
AcDbLine
 10
6.915848
 20
4.172876
 30
0.0
 11
6.913623
 21
4.175402
 31
0.0
210
0.0
220
0.0
230
1.0
  0
SPLINE
  5
296
100
AcDbEntity
  8
0
370
    35
390
0
 62
     7
 48
0.03937
100
AcDbSpline
210
0.0
220
0.0
230
1.0
 70
     8
 71
     5
 72
    15
 73
     9
 74
     0
 42
0.0
 43
0.0
 40
0.0
 40
0.0
 40
0.0
 40
0.0
 40
0.0
 40
0.0
 40
7.109945717220894
 40
7.109945717220894
 40
7.109945717220894
 40
14.32339731333351
 40
14.32339731333351
 40
14.32339731333351
 40
14.32339731333351
 40
14.32339731333351
 40
14.32339731333351
 10
6.9136233235235665
 20
4.175401533810696
 30
0.0
 10
6.9023341575626436
 20
4.1884386223357506
 30
0.0
 10
6.8920080356215063
 20
4.2031658736731048
 30
0.0
 10
6.8828589017977952
 20
4.2191643884023815
 30
0.0
 10
6.8670119836427288
 20
4.2532144980874431
 30
0.0
 10
6.8567583533107346
 20
4.2898157130327341
 30
0.0
 10
6.8531409048447554
 20
4.3085385995373864
 30
0.0
 10
6.8511694506785856
 20
4.3271621280538604
 30
0.0
 10
6.8509189236388206
 20
4.3453067660378526
 30
0.0
  0
ELLIPSE
  5
297
100
AcDbEntity
  8
0
370
    35
390
0
 62
     7
 48
0.03937
100
AcDbEllipse
 10
6.952545
 20
4.303497
 30
0.0
 11
-0.0599603099520055
 21
0.1834335854785036
 31
0.0
210
0.0
220
0.0
230
1.0
 40
0.608973
 41
5.3670233043288667
 42
5.4078383217504333
  0
ELLIPSE
  5
298
100
AcDbEntity
  8
0
370
    35
390
0
 62
     7
 48
0.03937
100
AcDbEllipse
 10
7.713261
 20
5.227507
 30
0.0
 11
-0.6907869810138928
 21
2.1132901552822978
 31
0.0
210
0.0
220
0.0
230
1.0
 40
0.608973
 41
3.1415595233209004
 42
6.2831521769106891
  0
ELLIPSE
  5
299
100
AcDbEntity
  8
0
370
    35
390
0
 62
     7
 48
0.03937
100
AcDbEllipse
 10
7.713261
 20
5.227507
 30
0.0
 11
-0.6907869810138928
 21
2.1132901552822978
 31
0.0
210
0.0
220
0.0
230
1.0
 40
0.608973
 41
6.2831521769106899
 42
7.9378196311237614
  0
ELLIPSE
  5
29A
100
AcDbEntity
  8
0
370
    35
390
0
 62
     7
 48
0.03937
100
AcDbEllipse
 10
7.713261
 20
5.227507
 30
0.0
 11
-0.6907869810138928
 21
2.1132901552822978
 31
0.0
210
0.0
220
0.0
230
1.0
 40
0.608973
 41
1.6546343239441785
 42
3.1415595233209004
  0
ELLIPSE
  5
29B
100
AcDbEntity
  8
0
370
    35
390
0
 62
     7
 48
0.03937
100
AcDbEllipse
 10
7.713261
 20
5.227507
 30
0.0
 11
-0.4605246540092618
 21
1.4088601035215322
 31
0.0
210
0.0
220
0.0
230
1.0
 40
0.608973
 41
3.1415595233208995
 42
4.796226977533971
  0
ELLIPSE
  5
29C
100
AcDbEntity
  8
0
370
    35
390
0
 62
     7
 48
0.03937
100
AcDbEllipse
 10
7.713261
 20
5.227507
 30
0.0
 11
-0.4605246540092618
 21
1.4088601035215322
 31
0.0
210
0.0
220
0.0
230
1.0
 40
0.608973
 41
4.796226977533971
 42
6.2831521769106953
  0
ELLIPSE
  5
29D
100
AcDbEntity
  8
0
370
    35
390
0
 62
     7
 48
0.03937
100
AcDbEllipse
 10
8.600213
 20
3.772275
 30
0.0
 11
-0.059960309952005
 21
0.1834335854785038
 31
0.0
210
0.0
220
0.0
230
1.0
 40
0.608973
 41
0.6546343239441759
 42
4.0169576299450478
  0
ELLIPSE
  5
29E
100
AcDbEntity
  8
0
370
    35
390
0
 62
     7
 48
0.03937
100
AcDbEllipse
 10
8.600213
 20
3.772275
 30
0.0
 11
-0.059960309952005
 21
0.1834335854785038
 31
0.0
210
0.0
220
0.0
230
1.0
 40
0.608973
 41
4.0169576299450478
 42
5.4078383217504324
  0
ELLIPSE
  5
29F
100
AcDbEntity
  8
0
370
    35
390
0
 62
     7
 48
0.03937
100
AcDbEllipse
 10
8.600213
 20
3.772275
 30
0.0
 11
-0.059960309952005
 21
0.1834335854785038
 31
0.0
210
0.0
220
0.0
230
1.0
 40
0.608973
 41
5.4078383217504324
 42
6.937819631123765
  0
ELLIPSE
  5
2A0
100
AcDbEntity
  8
0
370
    35
390
0
 62
     7
 48
0.03937
100
AcDbEllipse
 10
8.473976
 20
6.151517
 30
0.0
 11
-0.0599603099520065
 21
0.1834335854785033
 31
0.0
210
0.0
220
0.0
230
1.0
 40
0.608973
 41
4.0169576299450487
 42
5.407838321750436
  0
ELLIPSE
  5
2A1
100
AcDbEntity
  8
0
370
    35
390
0
 62
     7
 48
0.03937
100
AcDbEllipse
 10
8.473976
 20
6.151517
 30
0.0
 11
-0.0599603099520055
 21
0.1834335854785036
 31
0.0
210
0.0
220
0.0
230
1.0
 40
0.608973
 41
5.4078383217504316
 42
8.5086159579186642
  0
ELLIPSE
  5
2A2
100
AcDbEntity
  8
0
370
    35
390
0
 62
     7
 48
0.03937
100
AcDbEllipse
 10
8.473976
 20
6.151517
 30
0.0
 11
-0.0599603099520065
 21
0.1834335854785032
 31
0.0
210
0.0
220
0.0
230
1.0
 40
0.608973
 41
2.2254306507390749
 42
4.0169576299450487
  0
ELLIPSE
  5
2A3
100
AcDbEntity
  8
0
370
    35
390
0
 62
     7
 48
0.03937
100
AcDbEllipse
 10
6.826309
 20
6.682739
 30
0.0
 11
-0.059960309952005
 21
0.1834335854785038
 31
0.0
210
0.0
220
0.0
230
1.0
 40
0.608973
 41
5.4078383217504333
 42
10.30014293712463
  0
ELLIPSE
  5
2A4
100
AcDbEntity
  8
0
370
    35
390
0
 62
     7
 48
0.03937
100
AcDbEllipse
 10
6.826309
 20
6.682739
 30
0.0
 11
-0.059960309952005
 21
0.1834335854785038
 31
0.0
210
0.0
220
0.0
230
1.0
 40
0.608973
 41
4.0169576299450469
 42
5.4078383217504333
  0
ELLIPSE
  5
2A5
100
AcDbEntity
  8
0
370
    35
390
0
 62
     7
 48
0.03937
100
AcDbEllipse
 10
8.383758
 20
5.446677
 30
0.0
 11
-0.690786981013894
 21
2.1132901552822974
 31
0.0
210
0.0
220
0.0
230
1.0
 40
0.608973
 41
3.1415595233209004
 42
6.2831521769106891
  0
ELLIPSE
  5
2A6
100
AcDbEntity
  8
0
370
    35
390
0
 62
     7
 48
0.03937
100
AcDbEllipse
 10
7.685323
 20
5.218375
 30
0.0
 11
-0.4605246540092618
 21
1.4088601035215322
 31
0.0
210
0.0
220
0.0
230
1.0
 40
0.608973
 41
6.2831521769106953
 42
9.4247448305004848
  0
ELLIPSE
  5
2A7
100
AcDbEntity
  8
0
370
    35
390
0
 62
     7
 48
0.03937
100
AcDbEllipse
 10
7.685323
 20
5.218375
 30
0.0
 11
-0.4605246540092618
 21
1.4088601035215322
 31
0.0
210
0.0
220
0.0
230
1.0
 40
0.608973
 41
3.1415595233209004
 42
4.7962269775339692
  0
ELLIPSE
  5
2A8
100
AcDbEntity
  8
0
370
    35
390
0
 62
     7
 48
0.03937
100
AcDbEllipse
 10
7.685323
 20
5.218375
 30
0.0
 11
-0.4605246540092618
 21
1.4088601035215322
 31
0.0
210
0.0
220
0.0
230
1.0
 40
0.608973
 41
4.7962269775339692
 42
6.2831521769106953
  0
ELLIPSE
  5
2A9
100
AcDbEntity
  8
0
370
    35
390
0
 62
     7
 48
0.03937
100
AcDbEllipse
 10
8.620927
 20
3.776769
 30
0.0
 11
0.0518492226715528
 21
-0.1572514487442817
 31
0.0
210
0.0
220
0.0
230
1.0
 40
0.623973
 41
2.3316755408585119
 42
2.6948924875747
  0
SPLINE
  5
2AA
100
AcDbEntity
  8
0
370
    35
390
0
 62
     7
 48
0.03937
100
AcDbSpline
210
0.0
220
0.0
230
1.0
 70
     8
 71
     5
 72
    15
 73
     9
 74
     0
 42
0.0
 43
0.0
 40
0.0
 40
0.0
 40
0.0
 40
0.0
 40
0.0
 40
0.0
 40
7.880696845034131
 40
7.880696845034131
 40
7.880696845034131
 40
13.034105668839175
 40
13.034105668839175
 40
13.034105668839175
 40
13.034105668839175
 40
13.034105668839175
 40
13.034105668839175
 10
8.5207829562378539
 20
3.8850708109090268
 30
0.0
 10
8.5272285046800462
 20
3.9002104504755031
 30
0.0
 10
8.5357278743752154
 20
3.9133276656495628
 30
0.0
 10
8.5461727796935048
 20
3.9237747776369978
 30
0.0
 10
8.5660872782535122
 20
3.9356378875550293
 30
0.0
 10
8.588745002985517
 20
3.9381946008906041
 30
0.0
 10
8.5979707965493883
 20
3.9377158310043145
 30
0.0
 10
8.6072904893810822
 20
3.9358039390619344
 30
0.0
 10
8.6165525776879761
 20
3.9325670704141644
 30
0.0
  0
POLYLINE
  5
2AB
100
AcDbEntity
  8
0
370
    35
390
0
 62
     7
 48
0.03937
100
AcDb2dPolyline
 66
     1
 10
0.0
 20
0.0
 30
0.0
 71
     2
  0
VERTEX
  5
2AC
100
AcDbEntity
  8
0
370
     0
390
0
100
AcDbVertex
100
AcDb2dVertex
 10
8.717794
 20
3.66039
 30
0.0
 42
0.045567
  0
VERTEX
  5
2AD
100
AcDbEntity
  8
0
370
     0
390
0
100
AcDbVertex
100
AcDb2dVertex
 10
8.725019
 20
3.687141
 30
0.0
  0
SEQEND
  5
2AE
100
AcDbEntity
  8
0
370
     0
390
0
  0
ELLIPSE
  5
2AF
100
AcDbEntity
  8
0
370
    35
390
0
 62
     7
 48
0.03937
100
AcDbEllipse
 10
8.618104
 20
3.76854
 30
0.0
 11
0.0511256982368748
 21
-0.1602135134743579
 31
0.0
210
0.0
220
0.0
230
1.0
 40
0.604842
 41
5.3509110603578272
 42
5.8331671713906017
  0
SPLINE
  5
2B0
100
AcDbEntity
  8
0
370
    35
390
0
 62
     7
 48
0.03937
100
AcDbSpline
210
0.0
220
0.0
230
1.0
 70
     8
 71
     5
 72
    24
 73
    18
 74
     0
 42
0.0
 43
0.0
 40
0.0
 40
0.0
 40
0.0
 40
0.0
 40
0.0
 40
0.0
 40
3.2790841895399634
 40
3.2790841895399634
 40
3.2790841895399634
 40
10.031814310444918
 40
10.031814310444918
 40
10.031814310444918
 40
11.727135273618273
 40
11.727135273618273
 40
11.727135273618273
 40
15.033085047984112
 40
15.033085047984112
 40
15.033085047984112
 40
16.635083250278058
 40
16.635083250278058
 40
16.635083250278058
 40
16.635083250278058
 40
16.635083250278058
 40
16.635083250278058
 10
8.5707641625437176
 20
3.6482210912132467
 30
0.0
 10
8.5656174203205957
 20
3.6539620835380942
 30
0.0
 10
8.5606797201055009
 20
3.6600569865105808
 30
0.0
 10
8.5559419718025023
 20
3.6665010729806564
 30
0.0
 10
8.5422334130615951
 20
3.6869850293945845
 30
0.0
 10
8.5307260641128657
 20
3.7100325892870498
 30
0.0
 10
8.5241994171904381
 20
3.7263040065174571
 30
0.0
 10
8.5176524404358442
 20
3.7471353848285553
 30
0.0
 10
8.5132168077217134
 20
3.768204373293452
 30
0.0
 10
8.5124340969895638
 20
3.772323082887052
 30
0.0
 10
8.5103297327021323
 20
3.7847262661791925
 30
0.0
 10
8.5090109179225575
 20
3.7968337012468614
 30
0.0
 10
8.508474086177463
 20
3.8046516279518525
 30
0.0
 10
8.5081361022269419
 20
3.8160506231687461
 30
0.0
 10
8.5085095804474147
 20
3.8272927013727722
 30
0.0
 10
8.5087087684714611
 20
3.8309527155132841
 30
0.0
 10
8.5089882830236885
 20
3.8346040505154373
 30
0.0
 10
8.5093514549074527
 20
3.8382449190152981
 30
0.0
  0
ELLIPSE
  5
2B1
100
AcDbEntity
  8
0
370
    35
390
0
 62
     7
 48
0.03937
100
AcDbEllipse
 10
8.622189
 20
3.769653
 30
0.0
 11
0.0526691394937176
 21
-0.1645431007535322
 31
0.0
210
0.0
220
0.0
230
1.0
 40
0.613525
 41
3.7593315471689643
 42
4.0970583429313656
  0
SPLINE
  5
2B2
100
AcDbEntity
  8
0
370
    35
390
0
 62
     7
 48
0.03937
100
AcDbSpline
210
0.0
220
0.0
230
1.0
 70
     8
 71
     5
 72
    15
 73
     9
 74
     0
 42
0.0
 43
0.0
 40
0.0
 40
0.0
 40
0.0
 40
0.0
 40
0.0
 40
0.0
 40
6.6030074958020757
 40
6.6030074958020757
 40
6.6030074958020757
 40
13.044289394100206
 40
13.044289394100206
 40
13.044289394100206
 40
13.044289394100206
 40
13.044289394100206
 40
13.044289394100206
 10
8.7177878714851378
 20
3.6603927796357398
 30
0.0
 10
8.7127462032238974
 20
3.6469997270200958
 30
0.0
 10
8.7061669704479261
 20
3.6350745237980222
 30
0.0
 10
8.6981109145172475
 20
3.6250603844559151
 30
0.0
 10
8.6796342074951891
 20
3.6097974617093107
 30
0.0
 10
8.657272314162725
 20
3.6042280105448739
 30
0.0
 10
8.6456221293390545
 20
3.6040501363324307
 30
0.0
 10
8.6337549585379101
 20
3.6063301125509057
 30
0.0
 10
8.6219885767212272
 20
3.6108268425150047
 30
0.0
  0
ELLIPSE
  5
2B3
100
AcDbEntity
  8
0
370
    35
390
0
 62
     7
 48
0.03937
100
AcDbEllipse
 10
8.500796
 20
6.160284
 30
0.0
 11
0.0489077182557846
 21
-0.1496209429939864
 31
0.0
210
0.0
220
0.0
230
1.0
 40
0.608973
 41
3.2238091617346072
 42
3.3580351047543133
  0
POLYLINE
  5
2B4
100
AcDbEntity
  8
0
370
    35
390
0
 62
     7
 48
0.03937
100
AcDb2dPolyline
 66
     1
 10
0.0
 20
0.0
 30
0.0
 71
     2
  0
VERTEX
  5
2B5
100
AcDbEntity
  8
0
370
     0
390
0
100
AcDbVertex
100
AcDb2dVertex
 10
8.392841
 20
6.216495
 30
0.0
 42
0.026894
  0
VERTEX
  5
2B6
100
AcDbEntity
  8
0
370
     0
390
0
100
AcDbVertex
100
AcDb2dVertex
 10
8.391854
 20
6.19442
 30
0.0
  0
SEQEND
  5
2B7
100
AcDbEntity
  8
0
370
     0
390
0
  0
ELLIPSE
  5
2B8
100
AcDbEntity
  8
0
370
    35
390
0
 62
     7
 48
0.03937
100
AcDbEllipse
 10
8.501055
 20
6.150702
 30
0.0
 11
0.0503908392314224
 21
-0.1578645796520681
 31
0.0
210
0.0
220
0.0
230
1.0
 40
0.613748
 41
3.3293882606393397
 42
4.0975771883936405
  0
SPLINE
  5
2B9
100
AcDbEntity
  8
0
370
    35
390
0
 62
     7
 48
0.03937
100
AcDbSpline
210
0.0
220
0.0
230
1.0
 70
     8
 71
     5
 72
    15
 73
     9
 74
     0
 42
0.0
 43
0.0
 40
0.0
 40
0.0
 40
0.0
 40
0.0
 40
0.0
 40
0.0
 40
14.022383545325916
 40
14.022383545325916
 40
14.022383545325916
 40
14.024679404264516
 40
14.024679404264516
 40
14.024679404264516
 40
14.024679404264516
 40
14.024679404264516
 40
14.024679404264516
 10
8.4492317762356066
 20
6.0369244770524926
 30
0.0
 10
8.4283311124808211
 20
6.0612213591881687
 30
0.0
 10
8.4109870959254547
 20
6.0918901203279443
 30
0.0
 10
8.3986496297687747
 20
6.1260901083506818
 30
0.0
 10
8.3921115790394261
 20
6.1611947471250383
 30
0.0
 10
8.3918525534104074
 20
6.1944038550987157
 30
0.0
 10
8.3918525111758306
 20
6.1944092914236908
 30
0.0
 10
8.3918524691095246
 20
6.1944147276978363
 30
0.0
 10
8.3918524272114912
 20
6.1944201639211451
 30
0.0
  0
SPLINE
  5
2BA
100
AcDbEntity
  8
0
370
    35
390
0
 62
     7
 48
0.03937
100
AcDbSpline
210
0.0
220
0.0
230
1.0
 70
     8
 71
     5
 72
    18
 73
    12
 74
     0
 42
0.0
 43
0.0
 40
0.0
 40
0.0
 40
0.0
 40
0.0
 40
0.0
 40
0.0
 40
6.778583942183845
 40
6.778583942183845
 40
6.778583942183845
 40
9.5149840048157159
 40
9.5149840048157159
 40
9.5149840048157159
 40
13.722865146292786
 40
13.722865146292786
 40
13.722865146292786
 40
13.722865146292786
 40
13.722865146292786
 40
13.722865146292786
 10
8.3969321440178391
 20
6.3148990043130544
 30
0.0
 10
8.4073638545118321
 20
6.3232668775552243
 30
0.0
 10
8.419084066898872
 20
6.3291881997479376
 30
0.0
 10
8.4318419195743797
 20
6.3323624290047862
 30
0.0
 10
8.4505995294669916
 20
6.3327334151652552
 30
0.0
 10
8.4694839864304061
 20
6.327921465027563
 30
0.0
 10
8.4748965531121652
 20
6.3261271295984356
 30
0.0
 10
8.4885495788449568
 20
6.3205728148046987
 30
0.0
 10
8.5017761860255323
 20
6.3126745051094701
 30
0.0
 10
8.5096024208260914
 20
6.3071002732423063
 30
0.0
 10
8.5172138289414097
 20
6.3007776770154944
 30
0.0
 10
8.5245506383190168
 20
6.293785107424366
 30
0.0
  0
POLYLINE
  5
2BB
100
AcDbEntity
  8
0
370
    35
390
0
 62
     7
 48
0.03937
100
AcDb2dPolyline
 66
     1
 10
0.0
 20
0.0
 30
0.0
 71
     2
  0
VERTEX
  5
2BC
100
AcDbEntity
  8
0
370
     0
390
0
100
AcDbVertex
100
AcDb2dVertex
 10
8.444569
 20
6.306948
 30
0.0
 42
0.045045
  0
VERTEX
  5
2BD
100
AcDbEntity
  8
0
370
     0
390
0
100
AcDbVertex
100
AcDb2dVertex
 10
8.396933
 20
6.314904
 30
0.0
  0
SEQEND
  5
2BE
100
AcDbEntity
  8
0
370
     0
390
0
  0
SPLINE
  5
2BF
100
AcDbEntity
  8
0
370
    35
390
0
 62
     7
 48
0.03937
100
AcDbSpline
210
0.0
220
0.0
230
1.0
 70
     8
 71
     5
 72
    27
 73
    21
 74
     0
 42
0.0
 43
0.0
 40
0.0
 40
0.0
 40
0.0
 40
0.0
 40
0.0
 40
0.0
 40
4.3958595556986237
 40
4.3958595556986237
 40
4.3958595556986237
 40
10.745064548400361
 40
10.745064548400361
 40
10.745064548400361
 40
12.831240733609143
 40
12.831240733609143
 40
12.831240733609143
 40
16.997896336123159
 40
16.997896336123159
 40
16.997896336123159
 40
19.126835666383286
 40
19.126835666383286
 40
19.126835666383286
 40
21.224824633647678
 40
21.224824633647678
 40
21.224824633647678
 40
21.224824633647678
 40
21.224824633647678
 40
21.224824633647678
 10
8.5991247096339638
 20
6.0690220262289287
 30
0.0
 10
8.5972088473796315
 20
6.059184923444918
 30
0.0
 10
8.5946082670045723
 20
6.0498237025225965
 30
0.0
 10
8.5913430992986868
 20
6.0411389110582325
 30
0.0
 10
8.5817906424554806
 20
6.0216337025624762
 30
0.0
 10
8.5684247763812316
 20
6.006881016340845
 30
0.0
 10
8.5593133511883615
 20
6.0002321425909315
 30
0.0
 10
8.5459845470181026
 20
5.9945467578091796
 30
0.0
 10
8.5317306467925
 20
5.9930055987122195
 30
0.0
 10
8.528164567749009
 20
5.9928778670960066
 30
0.0
 10
8.5174376275186816
 20
5.9932412037398519
 30
0.0
 10
8.506877885173278
 20
5.9956814190736987
 30
0.0
 10
8.4999318724788271
 20
5.998113677423019
 30
0.0
 10
8.4894965163602212
 20
6.0029396837239206
 30
0.0
 10
8.4789709974748479
 20
6.0097184103458989
 30
0.0
 10
8.4753980813874534
 20
6.0122431241718539
 30
0.0
 10
8.4683437475963199
 20
6.0176936456462871
 30
0.0
 10
8.4615027637437752
 20
6.0238856326169641
 30
0.0
 10
8.4582183920627507
 20
6.0270825648264168
 30
0.0
 10
8.4549635915751544
 20
6.0304762056334713
 30
0.0
 10
8.4517857503408447
 20
6.0340174020530464
 30
0.0
  0
LINE
  5
2C0
100
AcDbEntity
  8
0
370
    35
390
0
 62
     7
 48
0.000097
100
AcDbLine
 10
8.451786
 20
6.034017
 30
0.0
 11
8.449232
 21
6.036924
 31
0.0
210
0.0
220
0.0
230
1.0
  0
ELLIPSE
  5
2C1
100
AcDbEntity
  8
0
370
    35
390
0
 62
     7
 48
0.03937
100
AcDbEllipse
 10
6.853129
 20
6.691506
 30
0.0
 11
0.0489077182557846
 21
-0.1496209429939864
 31
0.0
210
0.0
220
0.0
230
1.0
 40
0.608973
 41
4.7946054885295046
 42
4.9288314315492112
  0
ELLIPSE
  5
2C2
100
AcDbEntity
  8
0
370
    35
390
0
 62
     7
 48
0.03937
100
AcDbEllipse
 10
6.854628
 20
6.682429
 30
0.0
 11
0.0468276062605537
 21
-0.1470734877119939
 31
0.0
210
0.0
220
0.0
230
1.0
 40
0.604481
 41
5.3534942655965327
 42
5.8261824287891866
  0
ELLIPSE
  5
2C3
100
AcDbEntity
  8
0
370
    35
390
0
 62
     7
 48
0.03937
100
AcDbEllipse
 10
6.854899
 20
6.683363
 30
0.0
 11
0.0465453744094803
 21
-0.1480780146418704
 31
0.0
210
0.0
220
0.0
230
1.0
 40
0.604712
 41
4.8844052105428029
 42
5.358030081247164
  0
SPLINE
  5
2C4
100
AcDbEntity
  8
0
370
    35
390
0
 62
     7
 48
0.03937
100
AcDbSpline
210
0.0
220
0.0
230
1.0
 70
     8
 71
     5
 72
    15
 73
     9
 74
     0
 42
0.0
 43
0.0
 40
0.0
 40
0.0
 40
0.0
 40
0.0
 40
0.0
 40
0.0
 40
7.8174165412100427
 40
7.8174165412100427
 40
7.8174165412100427
 40
12.925437505896259
 40
12.925437505896259
 40
12.925437505896259
 40
12.925437505896259
 40
12.925437505896259
 40
12.925437505896259
 10
6.9460307174976235
 20
6.5831139872548716
 30
0.0
 10
6.9404343995887032
 20
6.5682677520834254
 30
0.0
 10
6.9327971535741337
 20
6.555428829058318
 30
0.0
 10
6.9232171569546894
 20
6.5452524575976794
 30
0.0
 10
6.9047358745579315
 20
6.5338539440701391
 30
0.0
 10
6.8835125303377485
 20
6.5317747730728684
 30
0.0
 10
6.8748584683588119
 20
6.5324429861621747
 30
0.0
 10
6.8661108837435805
 20
6.5345412091495296
 30
0.0
 10
6.8574211125608446
 20
6.537958175973988
 30
0.0
  0
ELLIPSE
  5
2C5
100
AcDbEntity
  8
0
370
    35
390
0
 62
     7
 48
0.03937
100
AcDbEllipse
 10
6.835959
 20
6.677666
 30
0.0
 11
0.0552492686745
 21
-0.1763039815625261
 31
0.0
210
0.0
220
0.0
230
1.0
 40
0.610985
 41
4.1043817174418464
 42
4.9331999252750007
  0
ELLIPSE
  5
2C6
100
AcDbEntity
  8
0
370
    35
390
0
 62
     7
 48
0.03937
100
AcDbEllipse
 10
6.83777
 20
6.676782
 30
0.0
 11
0.0568757007892889
 21
-0.1776221498557232
 31
0.0
210
0.0
220
0.0
230
1.0
 40
0.613194
 41
3.7624563727785265
 42
4.0980427652569302
  0
POLYLINE
  5
2C7
100
AcDbEntity
  8
0
370
    35
390
0
 62
     7
 48
0.03937
100
AcDb2dPolyline
 66
     1
 10
0.0
 20
0.0
 30
0.0
 71
     2
  0
VERTEX
  5
2C8
100
AcDbEntity
  8
0
370
     0
390
0
100
AcDbVertex
100
AcDb2dVertex
 10
6.76633
 20
6.64954
 30
0.0
 42
0.048836
  0
VERTEX
  5
2C9
100
AcDbEntity
  8
0
370
     0
390
0
100
AcDbVertex
100
AcDb2dVertex
 10
6.742965
 20
6.606111
 30
0.0
  0
SEQEND
  5
2CA
100
AcDbEntity
  8
0
370
     0
390
0
  0
ELLIPSE
  5
2CB
100
AcDbEntity
  8
0
370
    35
390
0
 62
     7
 48
0.03937
100
AcDbEllipse
 10
6.8366
 20
6.683978
 30
0.0
 11
0.0561752262002928
 21
-0.1702440291590677
 31
0.0
210
0.0
220
0.0
230
1.0
 40
0.622927
 41
2.2962533300821057
 42
2.7004620779961259
  0
POLYLINE
  5
2CC
100
AcDbEntity
  8
0
370
    35
390
0
 62
     7
 48
0.03937
100
AcDb2dPolyline
 66
     1
 10
0.0
 20
0.0
 30
0.0
 71
     2
  0
VERTEX
  5
2CD
100
AcDbEntity
  8
0
370
     0
390
0
100
AcDbVertex
100
AcDb2dVertex
 10
6.946034
 20
6.583113
 30
0.0
 42
0.037957
  0
VERTEX
  5
2CE
100
AcDbEntity
  8
0
370
     0
390
0
100
AcDbVertex
100
AcDb2dVertex
 10
6.951765
 20
6.602966
 30
0.0
  0
SEQEND
  5
2CF
100
AcDbEntity
  8
0
370
     0
390
0
  0
SPLINE
  5
2D0
100
AcDbEntity
  8
0
370
    35
390
0
 62
     7
 48
0.03937
100
AcDbSpline
210
0.0
220
0.0
230
1.0
 70
     8
 71
     5
 72
    15
 73
     9
 74
     0
 42
0.0
 43
0.0
 40
0.0
 40
0.0
 40
0.0
 40
0.0
 40
0.0
 40
0.0
 40
6.6579708747180311
 40
6.6579708747180311
 40
6.6579708747180311
 40
13.160134808731128
 40
13.160134808731128
 40
13.160134808731128
 40
13.160134808731128
 40
13.160134808731128
 40
13.160134808731128
 10
6.7281477072088753
 20
6.8009674392308179
 30
0.0
 10
6.7338949880927954
 20
6.8146043694708158
 30
0.0
 10
6.7411893562502527
 20
6.8267617061987789
 30
0.0
 10
6.7499626502844574
 20
6.8370013222079979
 30
0.0
 10
6.7698643017304718
 20
6.8527237658821738
 30
0.0
 10
6.7936557162389031
 20
6.8587672785426896
 30
0.0
 10
6.8060192049718058
 20
6.8591839948746109
 30
0.0
 10
6.8186004066468469
 20
6.8571386925083777
 30
0.0
 10
6.8310813988430725
 20
6.8528654500911967
 30
0.0
  0
ELLIPSE
  5
2D1
100
AcDbEntity
  8
0
370
    35
390
0
 62
     7
 48
0.03937
100
AcDbEllipse
 10
7.685323
 20
5.218375
 30
0.0
 11
-0.2763147924055571
 21
0.8453160621129191
 31
0.0
210
0.0
220
0.0
230
1.0
 40
0.608973
 41
6.2831521769106935
 42
9.4247448305004848
  0
ELLIPSE
  5
2D2
100
AcDbEntity
  8
0
370
    35
390
0
 62
     7
 48
0.03937
100
AcDbEllipse
 10
7.685323
 20
5.218375
 30
0.0
 11
-0.2763147924055571
 21
0.8453160621129191
 31
0.0
210
0.0
220
0.0
230
1.0
 40
0.608973
 41
3.1415595233208995
 42
4.796226977533971
  0
ELLIPSE
  5
2D3
100
AcDbEntity
  8
0
370
    35
390
0
 62
     7
 48
0.03937
100
AcDbEllipse
 10
7.685323
 20
5.218375
 30
0.0
 11
-0.2763147924055571
 21
0.8453160621129191
 31
0.0
210
0.0
220
0.0
230
1.0
 40
0.608973
 41
4.796226977533971
 42
6.2831521769106935
  0
ELLIPSE
  5
2D4
100
AcDbEntity
  8
0
370
    35
390
0
 62
     7
 48
0.03937
100
AcDbEllipse
 10
8.383758
 20
5.446677
 30
0.0
 11
-0.2763147924055576
 21
0.8453160621129189
 31
0.0
210
0.0
220
0.0
230
1.0
 40
0.608973
 41
0.7455666520540711
 42
2.3960259870297693
  0
POLYLINE
  5
2D5
100
AcDbEntity
  8
0
370
    35
390
0
 62
     7
 48
0.03937
100
AcDb2dPolyline
 66
     1
 10
0.0
 20
0.0
 30
0.0
 71
     2
  0
VERTEX
  5
2D6
100
AcDbEntity
  8
0
370
     0
390
0
100
AcDbVertex
100
AcDb2dVertex
 10
6.877025
 20
6.788734
 30
0.0
 42
0.027408
  0
VERTEX
  5
2D7
100
AcDbEntity
  8
0
370
     0
390
0
100
AcDbVertex
100
AcDb2dVertex
 10
6.876021
 20
6.765936
 30
0.0
  0
SEQEND
  5
2D8
100
AcDbEntity
  8
0
370
     0
390
0
  0
POLYLINE
  5
2D9
100
AcDbEntity
  8
0
370
    35
390
0
 62
     7
 48
0.03937
100
AcDb2dPolyline
 66
     1
 10
0.0
 20
0.0
 30
0.0
 71
     2
  0
VERTEX
  5
2DA
100
AcDbEntity
  8
0
370
     0
390
0
100
AcDbVertex
100
AcDb2dVertex
 10
6.882648
 20
6.818737
 30
0.0
 42
0.044378
  0
VERTEX
  5
2DB
100
AcDbEntity
  8
0
370
     0
390
0
100
AcDbVertex
100
AcDb2dVertex
 10
6.877033
 20
6.788733
 30
0.0
  0
SEQEND
  5
2DC
100
AcDbEntity
  8
0
370
     0
390
0
  0
ELLIPSE
  5
2DD
100
AcDbEntity
  8
0
370
    35
390
0
 62
     7
 48
0.03937
100
AcDbEllipse
 10
6.985055
 20
6.726572
 30
0.0
 11
0.0473253200483028
 21
-0.1579372285489064
 31
0.0
210
0.0
220
0.0
230
1.0
 40
0.628123
 41
3.9105313277910252
 42
4.2807176408346335
  0
POLYLINE
  5
2DE
100
AcDbEntity
  8
0
370
    35
390
0
 62
     7
 48
0.03937
100
AcDb2dPolyline
 66
     1
 10
0.0
 20
0.0
 30
0.0
 71
     2
  0
VERTEX
  5
2DF
100
AcDbEntity
  8
0
370
     0
390
0
100
AcDbVertex
100
AcDb2dVertex
 10
6.836389
 20
6.775451
 30
0.0
 42
0.027408
  0
VERTEX
  5
2E0
100
AcDbEntity
  8
0
370
     0
390
0
100
AcDbVertex
100
AcDb2dVertex
 10
6.835385
 20
6.752653
 30
0.0
  0
SEQEND
  5
2E1
100
AcDbEntity
  8
0
370
     0
390
0
  0
ELLIPSE
  5
2E2
100
AcDbEntity
  8
0
370
    35
390
0
 62
     7
 48
0.03937
100
AcDbEllipse
 10
6.946849
 20
6.712373
 30
0.0
 11
0.0490386086238426
 21
-0.1592316032057006
 31
0.0
210
0.0
220
0.0
230
1.0
 40
0.628714
 41
3.7870695410289139
 42
4.1216804587898332
  0
ELLIPSE
  5
2E3
100
AcDbEntity
  8
0
370
    35
390
0
 62
     7
 48
0.03937
100
AcDbEllipse
 10
6.944968
 20
6.712946
 30
0.0
 11
0.0478826654247238
 21
-0.1583506884323275
 31
0.0
210
0.0
220
0.0
230
1.0
 40
0.628641
 41
3.7920253208682251
 42
4.2774562772537461
  0
POLYLINE
  5
2E4
100
AcDbEntity
  8
0
370
    35
390
0
 62
     7
 48
0.03937
100
AcDb2dPolyline
 66
     1
 10
0.0
 20
0.0
 30
0.0
 71
     2
  0
VERTEX
  5
2E5
100
AcDbEntity
  8
0
370
     0
390
0
100
AcDbVertex
100
AcDb2dVertex
 10
6.795753
 20
6.762167
 30
0.0
 42
0.027408
  0
VERTEX
  5
2E6
100
AcDbEntity
  8
0
370
     0
390
0
100
AcDbVertex
100
AcDb2dVertex
 10
6.794749
 20
6.73937
 30
0.0
  0
SEQEND
  5
2E7
100
AcDbEntity
  8
0
370
     0
390
0
  0
ELLIPSE
  5
2E8
100
AcDbEntity
  8
0
370
    35
390
0
 62
     7
 48
0.03937
100
AcDbEllipse
 10
6.906213
 20
6.69909
 30
0.0
 11
0.0490385675733712
 21
-0.1592315771011207
 31
0.0
210
0.0
220
0.0
230
1.0
 40
0.628714
 41
3.787069704990631
 42
4.1216806715720304
  0
ELLIPSE
  5
2E9
100
AcDbEntity
  8
0
370
    35
390
0
 62
     7
 48
0.03937
100
AcDbEllipse
 10
6.904332
 20
6.699663
 30
0.0
 11
0.047882790969844
 21
-0.1583507716965443
 31
0.0
210
0.0
220
0.0
230
1.0
 40
0.628641
 41
3.7920248438704518
 42
4.2774555480157517
  0
POLYLINE
  5
2EA
100
AcDbEntity
  8
0
370
    35
390
0
 62
     7
 48
0.03937
100
AcDb2dPolyline
 66
     1
 10
0.0
 20
0.0
 30
0.0
 71
     2
  0
VERTEX
  5
2EB
100
AcDbEntity
  8
0
370
     0
390
0
100
AcDbVertex
100
AcDb2dVertex
 10
6.755116
 20
6.748884
 30
0.0
 42
0.027408
  0
VERTEX
  5
2EC
100
AcDbEntity
  8
0
370
     0
390
0
100
AcDbVertex
100
AcDb2dVertex
 10
6.754112
 20
6.726087
 30
0.0
  0
SEQEND
  5
2ED
100
AcDbEntity
  8
0
370
     0
390
0
  0
ELLIPSE
  5
2EE
100
AcDbEntity
  8
0
370
    35
390
0
 62
     7
 48
0.03937
100
AcDbEllipse
 10
6.865577
 20
6.685807
 30
0.0
 11
0.0490385361874365
 21
-0.1592315612248444
 31
0.0
210
0.0
220
0.0
230
1.0
 40
0.628714
 41
3.7870698097128588
 42
4.1216808119787141
  0
ELLIPSE
  5
2EF
100
AcDbEntity
  8
0
370
    35
390
0
 62
     7
 48
0.03937
100
AcDbEllipse
 10
6.863696
 20
6.68638
 30
0.0
 11
0.047882708997764
 21
-0.1583507175131371
 31
0.0
210
0.0
220
0.0
230
1.0
 40
0.628641
 41
3.792025157792275
 42
4.2774560254362788
  0
ELLIPSE
  5
2F0
100
AcDbEntity
  8
0
370
    35
390
0
 62
     7
 48
0.03937
100
AcDbEllipse
 10
6.857188
 20
6.688539
 30
0.0
 11
0.0428485287500871
 21
-0.1538004061547765
 31
0.0
210
0.0
220
0.0
230
1.0
 40
0.615825
 41
4.3013472714290204
 42
4.7950990537957727
  0
SPLINE
  5
2F1
100
AcDbEntity
  8
0
370
    35
390
0
 62
     7
 48
0.03937
100
AcDbSpline
210
0.0
220
0.0
230
1.0
 70
     8
 71
     5
 72
    12
 73
     6
 74
     0
 42
0.0
 43
0.0
 40
0.0
 40
0.0
 40
0.0
 40
0.0
 40
0.0
 40
0.0
 40
7.6050072310204744
 40
7.6050072310204744
 40
7.6050072310204744
 40
7.6050072310204744
 40
7.6050072310204744
 40
7.6050072310204744
 10
6.7541109117583318
 20
6.7260866136938189
 30
0.0
 10
6.7542939373250945
 20
6.7067902662836438
 30
0.0
 10
6.7565795716645276
 20
6.6870220712005786
 30
0.0
 10
6.7608442274423082
 20
6.6673504255178164
 30
0.0
 10
6.7669219704623016
 20
6.64827768081493
 30
0.0
 10
6.7746428453797396
 20
6.6302852590989891
 30
0.0
  0
POLYLINE
  5
2F2
100
AcDbEntity
  8
0
370
    35
390
0
 62
     7
 48
0.03937
100
AcDb2dPolyline
 66
     1
 10
0.0
 20
0.0
 30
0.0
 71
     2
  0
VERTEX
  5
2F3
100
AcDbEntity
  8
0
370
     0
390
0
100
AcDbVertex
100
AcDb2dVertex
 10
8.513632
 20
6.303389
 30
0.0
 42
0.045989
  0
VERTEX
  5
2F4
100
AcDbEntity
  8
0
370
     0
390
0
100
AcDbVertex
100
AcDb2dVertex
 10
8.49612
 20
6.310231
 30
0.0
  0
SEQEND
  5
2F5
100
AcDbEntity
  8
0
370
     0
390
0
  0
ELLIPSE
  5
2F6
100
AcDbEntity
  8
0
370
    35
390
0
 62
     7
 48
0.03937
100
AcDbEllipse
 10
8.505965
 20
6.146365
 30
0.0
 11
0.053561496424231
 21
-0.1637076090243024
 31
0.0
210
0.0
220
0.0
230
1.0
 40
0.623462
 41
2.7438379634368428
 42
3.1414241592500818
  0
POLYLINE
  5
2F7
100
AcDbEntity
  8
0
370
    35
390
0
 62
     7
 48
0.03937
100
AcDb2dPolyline
 66
     1
 10
0.0
 20
0.0
 30
0.0
 71
     2
  0
VERTEX
  5
2F8
100
AcDbEntity
  8
0
370
     0
390
0
100
AcDbVertex
100
AcDb2dVertex
 10
8.45242
 20
6.310078
 30
0.0
 42
0.031441
  0
VERTEX
  5
2F9
100
AcDbEntity
  8
0
370
     0
390
0
100
AcDbVertex
100
AcDb2dVertex
 10
8.444571
 20
6.306953
 30
0.0
  0
SEQEND
  5
2FA
100
AcDbEntity
  8
0
370
     0
390
0
  0
POLYLINE
  5
2FB
100
AcDbEntity
  8
0
370
    35
390
0
 62
     7
 48
0.03937
100
AcDb2dPolyline
 66
     1
 10
0.0
 20
0.0
 30
0.0
 71
     2
  0
VERTEX
  5
2FC
100
AcDbEntity
  8
0
370
     0
390
0
100
AcDbVertex
100
AcDb2dVertex
 10
8.452884
 20
6.310231
 30
0.0
 42
0.080026
  0
VERTEX
  5
2FD
100
AcDbEntity
  8
0
370
     0
390
0
100
AcDbVertex
100
AcDb2dVertex
 10
8.433464
 20
6.300015
 30
0.0
  0
SEQEND
  5
2FE
100
AcDbEntity
  8
0
370
     0
390
0
  0
SPLINE
  5
2FF
100
AcDbEntity
  8
0
370
    35
390
0
 62
     7
 48
0.03937
100
AcDbSpline
210
0.0
220
0.0
230
1.0
 70
     8
 71
     5
 72
    15
 73
     9
 74
     0
 42
0.0
 43
0.0
 40
0.0
 40
0.0
 40
0.0
 40
0.0
 40
0.0
 40
0.0
 40
7.2080263110671758
 40
7.2080263110671758
 40
7.2080263110671758
 40
12.118468009494311
 40
12.118468009494311
 40
12.118468009494311
 40
12.118468009494311
 40
12.118468009494311
 40
12.118468009494311
 10
8.610413703351913
 20
3.662931208421
 30
0.0
 10
8.5958284219513921
 20
3.6807972443832879
 30
0.0
 10
8.5831217424766031
 20
3.7013443069240739
 30
0.0
 10
8.5725552421283417
 20
3.7236203097027403
 30
0.0
 10
8.5585774361844464
 20
3.7629330524220039
 30
0.0
 10
8.5514885284796325
 20
3.8038644332030871
 30
0.0
 10
8.5498064123820132
 20
3.8205474332790774
 30
0.0
 10
8.5493985772849168
 20
3.8371189949810431
 30
0.0
 10
8.5503546006911719
 20
3.8533289809061881
 30
0.0
  0
POLYLINE
  5
300
100
AcDbEntity
  8
0
370
    35
390
0
 62
     7
 48
0.03937
100
AcDb2dPolyline
 66
     1
 10
0.0
 20
0.0
 30
0.0
 71
     2
  0
VERTEX
  5
301
100
AcDbEntity
  8
0
370
     0
390
0
100
AcDbVertex
100
AcDb2dVertex
 10
8.549337
 20
3.845046
 30
0.0
 42
0.027387
  0
VERTEX
  5
302
100
AcDbEntity
  8
0
370
     0
390
0
100
AcDbVertex
100
AcDb2dVertex
 10
8.548334
 20
3.822264
 30
0.0
  0
SEQEND
  5
303
100
AcDbEntity
  8
0
370
     0
390
0
  0
SPLINE
  5
304
100
AcDbEntity
  8
0
370
    35
390
0
 62
     7
 48
0.03937
100
AcDbSpline
210
0.0
220
0.0
230
1.0
 70
     8
 71
     5
 72
    18
 73
    12
 74
     0
 42
0.0
 43
0.0
 40
0.0
 40
0.0
 40
0.0
 40
0.0
 40
0.0
 40
0.0
 40
5.1296386011787876
 40
5.1296386011787876
 40
5.1296386011787876
 40
8.0955262643125714
 40
8.0955262643125714
 40
8.0955262643125714
 40
10.000834949207901
 40
10.000834949207901
 40
10.000834949207901
 40
10.000834949207901
 40
10.000834949207901
 40
10.000834949207901
 10
8.5493382624465326
 20
3.845045906109696
 30
0.0
 10
8.5506065963928375
 20
3.857667473392294
 30
0.0
 10
8.5528798193423707
 20
3.8699218092505743
 30
0.0
 10
8.5561969353455982
 20
3.8815404473537947
 30
0.0
 10
8.5630345247925614
 20
3.8984775379925503
 30
0.0
 10
8.5723028872255771
 20
3.9127491437149531
 30
0.0
 10
8.5760386201579237
 20
3.9176176663304267
 30
0.0
 10
8.5827052519147919
 20
3.924903614201471
 30
0.0
 10
8.5901724062632745
 20
3.930911539569494
 30
0.0
 10
8.5932143938737848
 20
3.9330574268127805
 30
0.0
 10
8.5963500612364587
 20
3.9349775057798202
 30
0.0
 10
8.5995738321401145
 20
3.936671325500531
 30
0.0
  0
SPLINE
  5
305
100
AcDbEntity
  8
0
370
    35
390
0
 62
     7
 48
0.03937
100
AcDbSpline
210
0.0
220
0.0
230
1.0
 70
     8
 71
     5
 72
    18
 73
    12
 74
     0
 42
0.0
 43
0.0
 40
0.0
 40
0.0
 40
0.0
 40
0.0
 40
0.0
 40
0.0
 40
6.5977664029386842
 40
6.5977664029386842
 40
6.5977664029386842
 40
9.2218946372885373
 40
9.2218946372885373
 40
9.2218946372885373
 40
13.072330883194244
 40
13.072330883194244
 40
13.072330883194244
 40
13.072330883194244
 40
13.072330883194244
 40
13.072330883194244
 10
8.5483327334656032
 20
3.8222642105500322
 30
0.0
 10
8.5484915183150587
 20
3.8055235568215102
 30
0.0
 10
8.5502328372361536
 20
3.7884277656729615
 30
0.0
 10
8.5534778534724243
 20
3.7712802894653916
 30
0.0
 10
8.5600254714112349
 20
3.7477637514630753
 30
0.0
 10
8.5690432278627071
 20
3.7256995199377458
 30
0.0
 10
8.5718120962285678
 20
3.7195311071928763
 30
0.0
 10
8.5791101794171389
 20
3.7046796300214515
 30
0.0
 10
8.5875676420101179
 20
3.6907749218744379
 30
0.0
 10
8.5929785777918379
 20
3.6829321882158008
 30
0.0
 10
8.5987151701746409
 20
3.6756304671966902
 30
0.0
 10
8.6047076579862818
 20
3.6689598865140951
 30
0.0
  0
ELLIPSE
  5
306
100
AcDbEntity
  8
0
370
    35
390
0
 62
     7
 48
0.03937
100
AcDbEllipse
 10
8.642959
 20
3.775299
 30
0.0
 11
0.044171901161877
 21
-0.1402550303037711
 31
0.0
210
0.0
220
0.0
230
1.0
 40
0.588202
 41
5.3705048343845831
 42
5.8496851844570026
  0
ELLIPSE
  5
307
100
AcDbEntity
  8
0
370
    35
390
0
 62
     7
 48
0.03937
100
AcDbEllipse
 10
8.642935
 20
3.771737
 30
0.0
 11
0.0445312719831973
 21
-0.1365489256968469
 31
0.0
210
0.0
220
0.0
230
1.0
 40
0.592302
 41
5.8390236688864814
 42
6.2784137562738165
  0
SPLINE
  5
308
100
AcDbEntity
  8
0
370
    35
390
0
 62
     7
 48
0.03937
100
AcDbSpline
210
0.0
220
0.0
230
1.0
 70
     8
 71
     5
 72
    21
 73
    15
 74
     0
 42
0.0
 43
0.0
 40
0.0
 40
0.0
 40
0.0
 40
0.0
 40
0.0
 40
0.0
 40
7.5939245193654061
 40
7.5939245193654061
 40
7.5939245193654061
 40
13.20504966247859
 40
13.20504966247859
 40
13.20504966247859
 40
15.018278389284966
 40
15.018278389284966
 40
15.018278389284966
 40
18.441698233493092
 40
18.441698233493092
 40
18.441698233493092
 40
18.441698233493092
 40
18.441698233493092
 40
18.441698233493092
 10
8.5881006126382236
 20
3.8352634350655648
 30
0.0
 10
8.5882833714816726
 20
3.8159952080566031
 30
0.0
 10
8.5905627633142547
 20
3.7962557901936447
 30
0.0
 10
8.5948167930797847
 20
3.7766112628496633
 30
0.0
 10
8.6053571393379276
 20
3.7434852287676765
 30
0.0
 10
8.6208517912482634
 20
3.7136169804913179
 30
0.0
 10
8.6283157915346305
 20
3.7015973654493037
 30
0.0
 10
8.6392219273323896
 20
3.6870830295643353
 30
0.0
 10
8.6510600223216727
 20
3.6749400772794485
 30
0.0
 10
8.6540032141598502
 20
3.6721215183746412
 30
0.0
 10
8.6626303882723299
 20
3.6644318591719025
 30
0.0
 10
8.6716258264816855
 20
3.6580664735542578
 30
0.0
 10
8.6776224556349959
 20
3.6545272396733903
 30
0.0
 10
8.6836815131161877
 20
3.6516665887436224
 30
0.0
 10
8.6897410330211393
 20
3.6495245935014027
 30
0.0
  0
SPLINE
  5
309
100
AcDbEntity
  8
0
370
    35
390
0
 62
     7
 48
0.03937
100
AcDbSpline
210
0.0
220
0.0
230
1.0
 70
     8
 71
     5
 72
    15
 73
     9
 74
     0
 42
0.0
 43
0.0
 40
0.0
 40
0.0
 40
0.0
 40
0.0
 40
0.0
 40
0.0
 40
5.4858814151612609
 40
5.4858814151612609
 40
5.4858814151612609
 40
8.9638507192203267
 40
8.9638507192203267
 40
8.9638507192203267
 40
8.9638507192203267
 40
8.9638507192203267
 40
8.9638507192203267
 10
8.5881006126382253
 20
3.8352634350655643
 30
0.0
 10
8.5879685869194837
 20
3.8491828792451876
 30
0.0
 10
8.588930727774132
 20
3.8628564204227485
 30
0.0
 10
8.5910368437187596
 20
3.8761776433696435
 30
0.0
 10
8.5964770070976506
 20
3.8967744432923395
 30
0.0
 10
8.6049769012136981
 20
3.9145661017367237
 30
0.0
 10
8.6087206407517467
 20
3.9209811550455242
 30
0.0
 10
8.6129222538350891
 20
3.9268861012447114
 30
0.0
 10
8.6175648664983981
 20
3.932206880650988
 30
0.0
  0
POLYLINE
  5
30A
100
AcDbEntity
  8
0
370
    35
390
0
 62
     7
 48
0.03937
100
AcDb2dPolyline
 66
     1
 10
0.0
 20
0.0
 30
0.0
 71
     2
  0
VERTEX
  5
30B
100
AcDbEntity
  8
0
370
     0
390
0
100
AcDbVertex
100
AcDb2dVertex
 10
8.68903
 20
3.650392
 30
0.0
 42
0.06408
  0
VERTEX
  5
30C
100
AcDbEntity
  8
0
370
     0
390
0
100
AcDbVertex
100
AcDb2dVertex
 10
8.705887
 20
3.646267
 30
0.0
  0
SEQEND
  5
30D
100
AcDbEntity
  8
0
370
     0
390
0
  0
SPLINE
  5
30E
100
AcDbEntity
  8
0
370
    35
390
0
 62
     7
 48
0.03937
100
AcDbSpline
210
0.0
220
0.0
230
1.0
 70
     8
 71
     5
 72
    15
 73
     9
 74
     0
 42
0.0
 43
0.0
 40
0.0
 40
0.0
 40
0.0
 40
0.0
 40
0.0
 40
0.0
 40
7.5284875595244385
 40
7.5284875595244385
 40
7.5284875595244385
 40
12.670170885379736
 40
12.670170885379736
 40
12.670170885379736
 40
12.670170885379736
 40
12.670170885379736
 40
12.670170885379736
 10
8.5732891107101015
 20
3.645460127254752
 30
0.0
 10
8.5576862814934991
 20
3.6635733583094843
 30
0.0
 10
8.5440850324812612
 20
3.6847686829940662
 30
0.0
 10
8.5328107038213297
 20
3.7079198954700288
 30
0.0
 10
8.5179578819995871
 20
3.7489560727688596
 30
0.0
 10
8.510630101772497
 20
3.7917774817511658
 30
0.0
 10
8.5089634258832625
 20
3.8092564630206844
 30
0.0
 10
8.5087014758024395
 20
3.8265955648989198
 30
0.0
 10
8.5099475609123374
 20
3.8435012096059964
 30
0.0
  0
POLYLINE
  5
30F
100
AcDbEntity
  8
0
370
    35
390
0
 62
     7
 48
0.03937
100
AcDb2dPolyline
 66
     1
 10
0.0
 20
0.0
 30
0.0
 71
     2
  0
VERTEX
  5
310
100
AcDbEntity
  8
0
370
     0
390
0
100
AcDbVertex
100
AcDb2dVertex
 10
8.689743
 20
3.649529
 30
0.0
 42
0.060721
  0
VERTEX
  5
311
100
AcDbEntity
  8
0
370
     0
390
0
100
AcDbVertex
100
AcDb2dVertex
 10
8.705516
 20
3.645934
 30
0.0
  0
SEQEND
  5
312
100
AcDbEntity
  8
0
370
     0
390
0
  0
SPLINE
  5
313
100
AcDbEntity
  8
0
370
    35
390
0
 62
     7
 48
0.03937
100
AcDbSpline
210
0.0
220
0.0
230
1.0
 70
     8
 71
     5
 72
    15
 73
     9
 74
     0
 42
0.0
 43
0.0
 40
0.0
 40
0.0
 40
0.0
 40
0.0
 40
0.0
 40
0.0
 40
7.2080250284250509
 40
7.2080250284250509
 40
7.2080250284250509
 40
12.118464197355774
 40
12.118464197355774
 40
12.118464197355774
 40
12.118464197355774
 40
12.118464197355774
 40
12.118464197355774
 10
8.6510498686277497
 20
3.6762142726432714
 30
0.0
 10
8.6364645847077544
 20
3.6940803154929442
 30
0.0
 10
8.6237579050656024
 20
3.7146273865749762
 30
0.0
 10
8.6131914067579594
 20
3.7369033973829877
 30
0.0
 10
8.5992136076626569
 20
3.7762161407607286
 30
0.0
 10
8.5921247057450536
 20
3.8171475124297811
 30
0.0
 10
8.5904425921437149
 20
3.8338305014674012
 30
0.0
 10
8.5900347577052951
 20
3.8504020541873465
 30
0.0
 10
8.5909907806451127
 20
3.8666120321077355
 30
0.0
  0
POLYLINE
  5
314
100
AcDbEntity
  8
0
370
    35
390
0
 62
     7
 48
0.03937
100
AcDb2dPolyline
 66
     1
 10
0.0
 20
0.0
 30
0.0
 71
     2
  0
VERTEX
  5
315
100
AcDbEntity
  8
0
370
     0
390
0
100
AcDbVertex
100
AcDb2dVertex
 10
8.589973
 20
3.858329
 30
0.0
 42
0.027387
  0
VERTEX
  5
316
100
AcDbEntity
  8
0
370
     0
390
0
100
AcDbVertex
100
AcDb2dVertex
 10
8.58897
 20
3.835547
 30
0.0
  0
SEQEND
  5
317
100
AcDbEntity
  8
0
370
     0
390
0
  0
ELLIPSE
  5
318
100
AcDbEntity
  8
0
370
    35
390
0
 62
     7
 48
0.03937
100
AcDbEllipse
 10
8.701713
 20
3.794154
 30
0.0
 11
0.0505032673709911
 21
-0.1603687787560224
 31
0.0
210
0.0
220
0.0
230
1.0
 40
0.628634
 41
3.5133622173001937
 42
4.113539817710465
  0
SPLINE
  5
319
100
AcDbEntity
  8
0
370
    35
390
0
 62
     7
 48
0.03937
100
AcDbSpline
210
0.0
220
0.0
230
1.0
 70
     8
 71
     5
 72
    18
 73
    12
 74
     0
 42
0.0
 43
0.0
 40
0.0
 40
0.0
 40
0.0
 40
0.0
 40
0.0
 40
0.0
 40
6.5977479084448696
 40
6.5977479084448696
 40
6.5977479084448696
 40
9.2218630306046947
 40
9.2218630306046947
 40
9.2218630306046947
 40
13.072291752407027
 40
13.072291752407027
 40
13.072291752407027
 40
13.072291752407027
 40
13.072291752407027
 40
13.072291752407027
 10
8.5889689134621108
 20
3.8355472630592002
 30
0.0
 10
8.5891276978648712
 20
3.8188066562592566
 30
0.0
 10
8.5908690074673988
 20
3.8017109140328795
 30
0.0
 10
8.5941140087208048
 20
3.7845634474342003
 30
0.0
 10
8.6006616218271645
 20
3.7610469132694613
 30
0.0
 10
8.6096793353335794
 20
3.7389827462467267
 30
0.0
 10
8.6124481874269208
 20
3.7328143546540078
 30
0.0
 10
8.6197462466524897
 20
3.7179628849648325
 30
0.0
 10
8.6282037276415107
 20
3.7040581087696336
 30
0.0
 10
8.633614696092172
 20
3.6962153142710159
 30
0.0
 10
8.6393513222091052
 20
3.688913548806434
 30
0.0
 10
8.6453438268337379
 20
3.6822429481614725
 30
0.0
  0
ELLIPSE
  5
31A
100
AcDbEntity
  8
0
370
    35
390
0
 62
     7
 48
0.03937
100
AcDbEllipse
 10
8.683595
 20
3.788582
 30
0.0
 11
0.0441718629947256
 21
-0.1402549644352263
 31
0.0
210
0.0
220
0.0
230
1.0
 40
0.588202
 41
5.3705044467011911
 42
5.8496849468289449
  0
SPLINE
  5
31B
100
AcDbEntity
  8
0
370
    35
390
0
 62
     7
 48
0.03937
100
AcDbSpline
210
0.0
220
0.0
230
1.0
 70
     8
 71
     5
 72
    21
 73
    15
 74
     0
 42
0.0
 43
0.0
 40
0.0
 40
0.0
 40
0.0
 40
0.0
 40
0.0
 40
0.0
 40
7.5939256567800095
 40
7.5939256567800095
 40
7.5939256567800095
 40
13.205047272888315
 40
13.205047272888315
 40
13.205047272888315
 40
15.018273739328869
 40
15.018273739328869
 40
15.018273739328869
 40
18.441687009225834
 40
18.441687009225834
 40
18.441687009225834
 40
18.441687009225834
 40
18.441687009225834
 40
18.441687009225834
 10
8.5474644326417142
 20
3.8219803825563949
 30
0.0
 10
8.5476471915101762
 20
3.8027121526588878
 30
0.0
 10
8.5499265840453553
 20
3.7829727318059114
 30
0.0
 10
8.5541806147817123
 20
3.7633282018613152
 30
0.0
 10
8.5647209582371158
 20
3.7302021773816785
 30
0.0
 10
8.580215610810523
 20
3.7003339293695907
 30
0.0
 10
8.5876796249438847
 20
3.6883142828680326
 30
0.0
 10
8.5985858010917493
 20
3.6737999107686341
 30
0.0
 10
8.6104239050833673
 20
3.661656963945362
 30
0.0
 10
8.6133670951088455
 20
3.6588384102858478
 30
0.0
 10
8.6219942570938031
 20
3.6511487706251833
 30
0.0
 10
8.6309896811584306
 20
3.6447834009253786
 30
0.0
 10
8.6369862989803003
 20
3.6412441762737235
 30
0.0
 10
8.6430453447557216
 20
3.6383835321208768
 30
0.0
 10
8.6491048530245518
 20
3.6362415409922075
 30
0.0
  0
SPLINE
  5
31C
100
AcDbEntity
  8
0
370
    35
390
0
 62
     7
 48
0.03937
100
AcDbSpline
210
0.0
220
0.0
230
1.0
 70
     8
 71
     5
 72
    18
 73
    12
 74
     0
 42
0.0
 43
0.0
 40
0.0
 40
0.0
 40
0.0
 40
0.0
 40
0.0
 40
0.0
 40
4.9217849749709126
 40
4.9217849749709126
 40
4.9217849749709126
 40
7.3072694633054036
 40
7.3072694633054036
 40
7.3072694633054036
 40
11.894391318158828
 40
11.894391318158828
 40
11.894391318158828
 40
11.894391318158828
 40
11.894391318158828
 40
11.894391318158828
 10
8.5474644326417142
 20
3.8219803825563949
 30
0.0
 10
8.5473459827261511
 20
3.8344685327819859
 30
0.0
 10
8.5481082488273969
 20
3.8467587509069334
 30
0.0
 10
8.5497862466751915
 20
3.85878351573121
 30
0.0
 10
8.5537302159234905
 20
3.8758698883745186
 30
0.0
 10
8.5597341995739971
 20
3.8912541742443429
 30
0.0
 10
8.5619162363790018
 20
3.8960813783718127
 30
0.0
 10
8.5688894150398749
 20
3.9094886772677571
 30
0.0
 10
8.5776686505397244
 20
3.9208740083469449
 30
0.0
 10
8.5842322485077833
 20
3.9273985130285922
 30
0.0
 10
8.5915234720149112
 20
3.9327092666877488
 30
0.0
 10
8.5993170386099713
 20
3.936704794332603
 30
0.0
  0
SPLINE
  5
31D
100
AcDbEntity
  8
0
370
    35
390
0
 62
     7
 48
0.03937
100
AcDbSpline
210
0.0
220
0.0
230
1.0
 70
     8
 71
     5
 72
    21
 73
    15
 74
     0
 42
0.0
 43
0.0
 40
0.0
 40
0.0
 40
0.0
 40
0.0
 40
0.0
 40
0.0
 40
7.076550749117942
 40
7.076550749117942
 40
7.076550749117942
 40
8.8382050756319259
 40
8.8382050756319259
 40
8.8382050756319259
 40
14.035035318827152
 40
14.035035318827152
 40
14.035035318827152
 40
17.274880293395722
 40
17.274880293395722
 40
17.274880293395722
 40
17.274880293395722
 40
17.274880293395722
 40
17.274880293395722
 10
8.628736792634756
 20
3.8485464875747413
 30
0.0
 10
8.6289071001275293
 20
3.8305910040865339
 30
0.0
 10
8.6308980854394708
 20
3.8122263471696094
 30
0.0
 10
8.634612460593706
 20
3.7938683129035313
 30
0.0
 10
8.6412701030133832
 20
3.7714956710999537
 30
0.0
 10
8.6501649880382647
 20
3.7505273149465603
 30
0.0
 10
8.652026474245087
 20
3.7464045534001444
 30
0.0
 10
8.6597266929933312
 20
3.7303587124527637
 30
0.0
 10
8.6687860797594318
 20
3.7153338533842826
 30
0.0
 10
8.6762449126716081
 20
3.7049044430989544
 30
0.0
 10
8.6892379103695792
 20
3.6896988605436492
 30
0.0
 10
8.7032816881974959
 20
3.67775808815423
 30
0.0
 10
8.70881973973861
 20
3.6736750814131023
 30
0.0
 10
8.7144605428120343
 20
3.6701535722859635
 30
0.0
 10
8.7201554539202526
 20
3.6672347518806934
 30
0.0
  0
ELLIPSE
  5
31E
100
AcDbEntity
  8
0
370
    35
390
0
 62
     7
 48
0.03937
100
AcDbEllipse
 10
8.739297
 20
3.809052
 30
0.0
 11
0.0479948660977494
 21
-0.1584334547210581
 31
0.0
210
0.0
220
0.0
230
1.0
 40
0.628723
 41
3.7688733204774807
 42
4.2767878407052917
  0
ELLIPSE
  5
31F
100
AcDbEntity
  8
0
370
    35
390
0
 62
     7
 48
0.03937
100
AcDbEllipse
 10
8.64197
 20
3.77137
 30
0.0
 11
0.0446886051368937
 21
-0.1364457804886451
 31
0.0
210
0.0
220
0.0
230
1.0
 40
0.592396
 41
6.2828434552574217
 42
6.7462630486259751
  0
ELLIPSE
  5
320
100
AcDbEntity
  8
0
370
    35
390
0
 62
     7
 48
0.03937
100
AcDbEllipse
 10
8.642163
 20
3.771012
 30
0.0
 11
0.0444584802567219
 21
-0.1360998714047706
 31
0.0
210
0.0
220
0.0
230
1.0
 40
0.59322
 41
5.8552211232940667
 42
6.2832983579777926
  0
SPLINE
  5
321
100
AcDbEntity
  8
0
370
    35
390
0
 62
     7
 48
0.03937
100
AcDbSpline
210
0.0
220
0.0
230
1.0
 70
     8
 71
     5
 72
    15
 73
     9
 74
     0
 42
0.0
 43
0.0
 40
0.0
 40
0.0
 40
0.0
 40
0.0
 40
0.0
 40
0.0
 40
7.2080255068640779
 40
7.2080255068640779
 40
7.2080255068640779
 40
12.11846520227577
 40
12.11846520227577
 40
12.11846520227577
 40
12.11846520227577
 40
12.11846520227577
 40
12.11846520227577
 10
8.6916860559787814
 20
3.6894973199853558
 30
0.0
 10
8.6771007709893873
 20
3.707363362213969
 30
0.0
 10
8.6643940900152163
 20
3.7279104322767895
 30
0.0
 10
8.6538275904310158
 20
3.7501864419322728
 30
0.0
 10
8.639849789252489
 20
3.7894991860085492
 30
0.0
 10
8.6327608861552729
 20
3.8304305604393898
 30
0.0
 10
8.6310787720234092
 20
3.8471135519455131
 30
0.0
 10
8.6306709377050712
 20
3.8636851068454177
 30
0.0
 10
8.6316269606612721
 20
3.8798950860413091
 30
0.0
  0
POLYLINE
  5
322
100
AcDbEntity
  8
0
370
    35
390
0
 62
     7
 48
0.03937
100
AcDb2dPolyline
 66
     1
 10
0.0
 20
0.0
 30
0.0
 71
     2
  0
VERTEX
  5
323
100
AcDbEntity
  8
0
370
     0
390
0
100
AcDbVertex
100
AcDb2dVertex
 10
8.630609
 20
3.871612
 30
0.0
 42
0.027387
  0
VERTEX
  5
324
100
AcDbEntity
  8
0
370
     0
390
0
100
AcDbVertex
100
AcDb2dVertex
 10
8.629607
 20
3.84883
 30
0.0
  0
SEQEND
  5
325
100
AcDbEntity
  8
0
370
     0
390
0
  0
ELLIPSE
  5
326
100
AcDbEntity
  8
0
370
    35
390
0
 62
     7
 48
0.03937
100
AcDbEllipse
 10
8.741166
 20
3.808475
 30
0.0
 11
0.0491441787870959
 21
-0.1593117381769135
 31
0.0
210
0.0
220
0.0
230
1.0
 40
0.628739
 41
3.7696811773020125
 42
4.121205923854208
  0
SPLINE
  5
327
100
AcDbEntity
  8
0
370
    35
390
0
 62
     7
 48
0.03937
100
AcDbSpline
210
0.0
220
0.0
230
1.0
 70
     8
 71
     5
 72
    18
 73
    12
 74
     0
 42
0.0
 43
0.0
 40
0.0
 40
0.0
 40
0.0
 40
0.0
 40
0.0
 40
0.0
 40
6.5977558486901016
 40
6.5977558486901016
 40
6.5977558486901016
 40
9.2218753976076293
 40
9.2218753976076293
 40
9.2218753976076293
 40
13.072305851315956
 40
13.072305851315956
 40
13.072305851315956
 40
13.072305851315956
 40
13.072305851315956
 40
13.072305851315956
 10
8.6296050934587107
 20
3.8488303155684003
 30
0.0
 10
8.6297638780528807
 20
3.8320896886154356
 30
0.0
 10
8.6315051916568812
 20
3.8149939252876126
 30
0.0
 10
8.6347501999483676
 20
3.7978464469253068
 30
0.0
 10
8.6412978213053542
 20
3.7743298998828707
 30
0.0
 10
8.6503155545605406
 20
3.7522657081685087
 30
0.0
 10
8.6530844138873046
 20
3.7460973082118505
 30
0.0
 10
8.660382482124545
 20
3.7312458405609905
 30
0.0
 10
8.6688399536015623
 20
3.7173410975111474
 30
0.0
 10
8.6742509071314284
 20
3.7094983308831364
 30
0.0
 10
8.6799875176972456
 20
3.7021965861108828
 30
0.0
 10
8.6859800137018723
 20
3.695525995577198
 30
0.0
  0
ELLIPSE
  5
328
100
AcDbEntity
  8
0
370
    35
390
0
 62
     7
 48
0.03937
100
AcDbEllipse
 10
8.724366
 20
3.802629
 30
0.0
 11
0.0439912373886749
 21
-0.1410607635644106
 31
0.0
210
0.0
220
0.0
230
1.0
 40
0.587972
 41
5.3742988722552498
 42
5.7527606364728561
  0
SPLINE
  5
329
100
AcDbEntity
  8
0
370
    35
390
0
 62
     7
 48
0.03937
100
AcDbSpline
210
0.0
220
0.0
230
1.0
 70
     8
 71
     5
 72
    18
 73
    12
 74
     0
 42
0.0
 43
0.0
 40
0.0
 40
0.0
 40
0.0
 40
0.0
 40
0.0
 40
0.0
 40
6.6669969385626127
 40
6.6669969385626127
 40
6.6669969385626127
 40
9.3183851872371388
 40
9.3183851872371388
 40
9.3183851872371388
 40
13.206198577079853
 40
13.206198577079853
 40
13.206198577079853
 40
13.206198577079853
 40
13.206198577079853
 40
13.206198577079853
 10
8.6693729726314768
 20
3.8618295400839804
 30
0.0
 10
8.6695334236114139
 20
3.8449132262423866
 30
0.0
 10
8.6713099081974612
 20
3.8276337299185128
 30
0.0
 10
8.6746215689806778
 20
3.8103149559778573
 30
0.0
 10
8.6812925172278241
 20
3.7865850311131743
 30
0.0
 10
8.6904825871839915
 20
3.7643399617987678
 30
0.0
 10
8.6933056454499908
 20
3.7581209410857093
 30
0.0
 10
8.7007420629536583
 20
3.7431664901339468
 30
0.0
 10
8.7093565160687678
 20
3.7291953072592299
 30
0.0
 10
8.7148627240412928
 20
3.7213343057046662
 30
0.0
 10
8.7206939450280583
 20
3.7140355581004378
 30
0.0
 10
8.7267797047386146
 20
3.7073884344577963
 30
0.0
  0
POLYLINE
  5
32A
100
AcDbEntity
  8
0
370
    35
390
0
 62
     7
 48
0.03937
100
AcDb2dPolyline
 66
     1
 10
0.0
 20
0.0
 30
0.0
 71
     2
  0
VERTEX
  5
32B
100
AcDbEntity
  8
0
370
     0
390
0
100
AcDbVertex
100
AcDb2dVertex
 10
8.671018
 20
3.890182
 30
0.0
 42
0.034737
  0
VERTEX
  5
32C
100
AcDbEntity
  8
0
370
     0
390
0
100
AcDbVertex
100
AcDb2dVertex
 10
8.669376
 20
3.86183
 30
0.0
  0
SEQEND
  5
32D
100
AcDbEntity
  8
0
370
     0
390
0
  0
SPLINE
  5
32E
100
AcDbEntity
  8
0
370
    35
390
0
 62
     7
 48
0.03937
100
AcDbSpline
210
0.0
220
0.0
230
1.0
 70
     8
 71
     5
 72
    15
 73
     9
 74
     0
 42
0.0
 43
0.0
 40
0.0
 40
0.0
 40
0.0
 40
0.0
 40
0.0
 40
0.0
 40
7.882555876966661
 40
7.882555876966661
 40
7.882555876966661
 40
11.30109338741649
 40
11.30109338741649
 40
11.30109338741649
 40
11.30109338741649
 40
11.30109338741649
 40
11.30109338741649
 10
8.7268671598727696
 20
3.7097499001695629
 30
0.0
 10
8.7115547735684427
 20
3.7301458991438441
 30
0.0
 10
8.6985633181177811
 20
3.7534859587450122
 30
0.0
 10
8.6881849574448218
 20
3.7786104288592166
 30
0.0
 10
8.6772650046289552
 20
3.816147556603946
 30
0.0
 10
8.6725948076752299
 20
3.8543671831369872
 30
0.0
 10
8.6717770428977712
 20
3.8659314750521987
 30
0.0
 10
8.6715832482201858
 20
3.8774230295596923
 30
0.0
 10
8.6720433550552034
 20
3.8887596307439529
 30
0.0
  0
POLYLINE
  5
32F
100
AcDbEntity
  8
0
370
    35
390
0
 62
     7
 48
0.03937
100
AcDb2dPolyline
 66
     1
 10
0.0
 20
0.0
 30
0.0
 71
     2
  0
VERTEX
  5
330
100
AcDbEntity
  8
0
370
     0
390
0
100
AcDbVertex
100
AcDb2dVertex
 10
8.671245
 20
3.884895
 30
0.0
 42
0.027387
  0
VERTEX
  5
331
100
AcDbEntity
  8
0
370
     0
390
0
100
AcDbVertex
100
AcDb2dVertex
 10
8.670243
 20
3.862113
 30
0.0
  0
SEQEND
  5
332
100
AcDbEntity
  8
0
370
     0
390
0
  0
LINE
  5
333
100
AcDbEntity
  8
0
370
    35
390
0
 62
     7
 48
0.000108
100
AcDbLine
 10
8.671247
 20
3.884895
 30
0.0
 11
8.671728
 21
3.8892
 31
0.0
210
0.0
220
0.0
230
1.0
  0
SPLINE
  5
334
100
AcDbEntity
  8
0
370
    35
390
0
 62
     7
 48
0.03937
100
AcDbSpline
210
0.0
220
0.0
230
1.0
 70
     8
 71
     5
 72
    18
 73
    12
 74
     0
 42
0.0
 43
0.0
 40
0.0
 40
0.0
 40
0.0
 40
0.0
 40
0.0
 40
0.0
 40
6.5977585940615802
 40
6.5977585940615802
 40
6.5977585940615802
 40
9.2218828908008632
 40
9.2218828908008632
 40
9.2218828908008632
 40
13.072318953599794
 40
13.072318953599794
 40
13.072318953599794
 40
13.072318953599794
 40
13.072318953599794
 40
13.072318953599794
 10
8.6702412734551686
 20
3.8621133680775532
 30
0.0
 10
8.6704000581115359
 20
3.8453727341670803
 30
0.0
 10
8.6721413730070065
 20
3.8282769637477401
 30
0.0
 10
8.6753863819007027
 20
3.8111295018677032
 30
0.0
 10
8.6819339890731122
 20
3.7876129807575154
 30
0.0
 10
8.690951725020243
 20
3.7655487728298183
 30
0.0
 10
8.6937205857846145
 20
3.7593803685683431
 30
0.0
 10
8.7010186622926913
 20
3.7445288830557404
 30
0.0
 10
8.7094761415765287
 20
3.7306241302763494
 30
0.0
 10
8.7148870986619933
 20
3.7227813609620446
 30
0.0
 10
8.7206237132692426
 20
3.715479613693276
 30
0.0
 10
8.726616215010818
 20
3.7088090203151221
 30
0.0
  0
LINE
  5
335
100
AcDbEntity
  8
0
370
    35
390
0
 62
     7
 48
0.000008
100
AcDbLine
 10
8.726616
 20
3.708809
 30
0.0
 11
8.726827
 21
3.708575
 31
0.0
210
0.0
220
0.0
230
1.0
  0
SPLINE
  5
336
100
AcDbEntity
  8
0
370
    35
390
0
 62
     7
 48
0.03937
100
AcDbSpline
210
0.0
220
0.0
230
1.0
 70
     8
 71
     5
 72
    15
 73
     9
 74
     0
 42
0.0
 43
0.0
 40
0.0
 40
0.0
 40
0.0
 40
0.0
 40
0.0
 40
0.0
 40
7.636461104792839
 40
7.636461104792839
 40
7.636461104792839
 40
10.996248272277983
 40
10.996248272277983
 40
10.996248272277983
 40
10.996248272277983
 40
10.996248272277983
 40
10.996248272277983
 10
8.4943359489289776
 20
6.0454940878177101
 30
0.0
 10
8.4788837872163239
 20
6.0644221228444781
 30
0.0
 10
8.4655401930823402
 20
6.0863593482964209
 30
0.0
 10
8.4546132050266873
 20
6.1101775576188473
 30
0.0
 10
8.4425434942943447
 20
6.1461525343575047
 30
0.0
 10
8.4362281766563996
 20
6.1832224064492749
 30
0.0
 10
8.4348561458956315
 20
6.1945933773292685
 30
0.0
 10
8.4340662566715938
 20
6.2059474603054943
 30
0.0
 10
8.4338864869824661
 20
6.2172110500010822
 30
0.0
  0
ELLIPSE
  5
337
100
AcDbEntity
  8
0
370
    35
390
0
 62
     7
 48
0.03937
100
AcDbEllipse
 10
8.526857
 20
6.157753
 30
0.0
 11
0.0442023725128522
 21
-0.1401400500517543
 31
0.0
210
0.0
220
0.0
230
1.0
 40
0.588204
 41
5.3702225406745114
 42
5.8578231258382667
  0
SPLINE
  5
338
100
AcDbEntity
  8
0
370
    35
390
0
 62
     7
 48
0.03937
100
AcDbSpline
210
0.0
220
0.0
230
1.0
 70
     8
 71
     5
 72
    21
 73
    15
 74
     0
 42
0.0
 43
0.0
 40
0.0
 40
0.0
 40
0.0
 40
0.0
 40
0.0
 40
0.0
 40
3.8593570967969653
 40
3.8593570967969653
 40
3.8593570967969653
 40
9.1817018173135327
 40
9.1817018173135327
 40
9.1817018173135327
 40
11.846604962161015
 40
11.846604962161015
 40
11.846604962161015
 40
13.185337484709718
 40
13.185337484709718
 40
13.185337484709718
 40
13.185337484709718
 40
13.185337484709718
 40
13.185337484709718
 10
8.4886534974279186
 20
6.0514965273022607
 30
0.0
 10
8.4826570544214626
 20
6.0581686462724784
 30
0.0
 10
8.4769612876628742
 20
6.0654230866434604
 30
0.0
 10
8.4715836802941045
 20
6.0732031652273131
 30
0.0
 10
8.4596439484671819
 20
6.0927699212279229
 30
0.0
 10
8.4498314870455271
 20
6.1146407540671053
 30
0.0
 10
8.4450108149742675
 20
6.1278045117692228
 30
0.0
 10
8.439120938948248
 20
6.1479350398544366
 30
0.0
 10
8.4353161140615942
 20
6.1684283240663049
 30
0.0
 10
8.4342857239121258
 20
6.1752762284234359
 30
0.0
 10
8.4331015258527557
 20
6.1855849723838698
 30
0.0
 10
8.4324821763882643
 20
6.195839578892647
 30
0.0
 10
8.4323389402521478
 20
6.1992607219959144
 30
0.0
 10
8.4322603934773355
 20
6.2026684781623826
 30
0.0
 10
8.432247149984768
 20
6.2060609184761661
 30
0.0
  0
ELLIPSE
  5
339
100
AcDbEntity
  8
0
370
    35
390
0
 62
     7
 48
0.03937
100
AcDbEllipse
 10
8.526885
 20
6.154162
 30
0.0
 11
0.0445117884794098
 21
-0.1364083937698518
 31
0.0
210
0.0
220
0.0
230
1.0
 40
0.592581
 41
5.8472890937714723
 42
6.2776673879243701
  0
POLYLINE
  5
33A
100
AcDbEntity
  8
0
370
    35
390
0
 62
     7
 48
0.03937
100
AcDb2dPolyline
 66
     1
 10
0.0
 20
0.0
 30
0.0
 71
     2
  0
VERTEX
  5
33B
100
AcDbEntity
  8
0
370
     0
390
0
100
AcDbVertex
100
AcDb2dVertex
 10
8.393708
 20
6.223714
 30
0.0
 42
0.019873
  0
VERTEX
  5
33C
100
AcDbEntity
  8
0
370
     0
390
0
100
AcDbVertex
100
AcDb2dVertex
 10
8.393251
 20
6.203928
 30
0.0
  0
SEQEND
  5
33D
100
AcDbEntity
  8
0
370
     0
390
0
  0
POLYLINE
  5
33E
100
AcDbEntity
  8
0
370
    35
390
0
 62
     7
 48
0.03937
100
AcDb2dPolyline
 66
     1
 10
0.0
 20
0.0
 30
0.0
 71
     2
  0
VERTEX
  5
33F
100
AcDbEntity
  8
0
370
     0
390
0
100
AcDbVertex
100
AcDb2dVertex
 10
8.572874
 20
6.032373
 30
0.0
 42
0.044342
  0
VERTEX
  5
340
100
AcDbEntity
  8
0
370
     0
390
0
100
AcDbVertex
100
AcDb2dVertex
 10
8.584803
 20
6.029132
 30
0.0
  0
SEQEND
  5
341
100
AcDbEntity
  8
0
370
     0
390
0
  0
SPLINE
  5
342
100
AcDbEntity
  8
0
370
    35
390
0
 62
     7
 48
0.03937
100
AcDbSpline
210
0.0
220
0.0
230
1.0
 70
     8
 71
     5
 72
    24
 73
    18
 74
     0
 42
0.0
 43
0.0
 40
0.0
 40
0.0
 40
0.0
 40
0.0
 40
0.0
 40
0.0
 40
5.205964663513619
 40
5.205964663513619
 40
5.205964663513619
 40
8.8162530144950964
 40
8.8162530144950964
 40
8.8162530144950964
 40
14.428117938695157
 40
14.428117938695157
 40
14.428117938695157
 40
16.304771926410734
 40
16.304771926410734
 40
16.304771926410734
 40
18.226709959036857
 40
18.226709959036857
 40
18.226709959036857
 40
18.226709959036857
 40
18.226709959036857
 40
18.226709959036857
 10
8.5728732841450448
 20
6.0323712375184115
 30
0.0
 10
8.5636590842777949
 20
6.0357423470646951
 30
0.0
 10
8.5544571903189048
 20
6.040767988670277
 30
0.0
 10
8.5454242530828086
 20
6.0473302587939672
 30
0.0
 10
8.5307692671988686
 20
6.0607381827904083
 30
0.0
 10
8.5176870083967646
 20
6.0771887539217229
 30
0.0
 10
8.5125971734976673
 20
6.0844047535089727
 30
0.0
 10
8.5004258044809085
 20
6.1037954146060223
 30
0.0
 10
8.4903501862597714
 20
6.1256065942693381
 30
0.0
 10
8.4851731910261403
 20
6.1394501033941298
 30
0.0
 10
8.4795884882545334
 20
6.1583133709336755
 30
0.0
 10
8.4758361975447141
 20
6.1774953876218186
 30
0.0
 10
8.4750119075179775
 20
6.1823217159191257
 30
0.0
 10
8.4735865802245893
 20
6.1920951036124148
 30
0.0
 10
8.4726590757158622
 20
6.2018610465872106
 30
0.0
 10
8.4723193544261477
 20
6.2067953347037115
 30
0.0
 10
8.4721119152525421
 20
6.2117066383680273
 30
0.0
 10
8.4720384651095326
 20
6.2165891871464662
 30
0.0
  0
POLYLINE
  5
343
100
AcDbEntity
  8
0
370
    35
390
0
 62
     7
 48
0.03937
100
AcDb2dPolyline
 66
     1
 10
0.0
 20
0.0
 30
0.0
 71
     2
  0
VERTEX
  5
344
100
AcDbEntity
  8
0
370
     0
390
0
100
AcDbVertex
100
AcDb2dVertex
 10
8.434277
 20
6.235892
 30
0.0
 42
0.01871
  0
VERTEX
  5
345
100
AcDbEntity
  8
0
370
     0
390
0
100
AcDbVertex
100
AcDb2dVertex
 10
8.433887
 20
6.217211
 30
0.0
  0
SEQEND
  5
346
100
AcDbEntity
  8
0
370
     0
390
0
  0
SPLINE
  5
347
100
AcDbEntity
  8
0
370
    35
390
0
 62
     7
 48
0.03937
100
AcDbSpline
210
0.0
220
0.0
230
1.0
 70
     8
 71
     5
 72
    18
 73
    12
 74
     0
 42
0.0
 43
0.0
 40
0.0
 40
0.0
 40
0.0
 40
0.0
 40
0.0
 40
0.0
 40
5.2461885560633483
 40
5.2461885560633483
 40
5.2461885560633483
 40
7.9463078924671411
 40
7.9463078924671411
 40
7.9463078924671411
 40
8.8852998443338294
 40
8.8852998443338294
 40
8.8852998443338294
 40
8.8852998443338294
 40
8.8852998443338294
 40
8.8852998443338294
 10
8.4742898901782961
 20
6.3134427549837318
 30
0.0
 10
8.4661603024304313
 20
6.3074227692902785
 30
0.0
 10
8.4588411411804465
 20
6.2998401955386703
 30
0.0
 10
8.4524300689620429
 20
6.2908148292861457
 30
0.0
 10
8.4443250620771728
 20
6.2752766087063945
 30
0.0
 10
8.4387403595083104
 20
6.2578189655764005
 30
0.0
 10
8.4371290833645567
 20
6.2516922979616991
 30
0.0
 10
8.4353387119911076
 20
6.2432109367312316
 30
0.0
 10
8.4340542656564992
 20
6.234467277103886
 30
0.0
 10
8.433756332976472
 20
6.2321943826009427
 30
0.0
 10
8.4334918858777712
 20
6.2299070251416273
 30
0.0
 10
8.4332606776754968
 20
6.2276058338617073
 30
0.0
  0
POLYLINE
  5
348
100
AcDbEntity
  8
0
370
    35
390
0
 62
     7
 48
0.03937
100
AcDb2dPolyline
 66
     1
 10
0.0
 20
0.0
 30
0.0
 71
     2
  0
VERTEX
  5
349
100
AcDbEntity
  8
0
370
     0
390
0
100
AcDbVertex
100
AcDb2dVertex
 10
8.433259
 20
6.227606
 30
0.0
 42
0.025991
  0
VERTEX
  5
34A
100
AcDbEntity
  8
0
370
     0
390
0
100
AcDbVertex
100
AcDb2dVertex
 10
8.432248
 20
6.206061
 30
0.0
  0
SEQEND
  5
34B
100
AcDbEntity
  8
0
370
     0
390
0
  0
SPLINE
  5
34C
100
AcDbEntity
  8
0
370
    35
390
0
 62
     7
 48
0.03937
100
AcDbSpline
210
0.0
220
0.0
230
1.0
 70
     8
 71
     5
 72
    15
 73
     9
 74
     0
 42
0.0
 43
0.0
 40
0.0
 40
0.0
 40
0.0
 40
0.0
 40
0.0
 40
0.0
 40
7.7683258826524222
 40
7.7683258826524222
 40
7.7683258826524222
 40
11.194539581732224
 40
11.194539581732224
 40
11.194539581732224
 40
11.194539581732224
 40
11.194539581732224
 40
11.194539581732224
 10
8.4557246545427542
 20
6.0297686689419212
 30
0.0
 10
8.4397838457860974
 20
6.0486999818832681
 30
0.0
 10
8.4259961848290867
 20
6.0708415736373293
 30
0.0
 10
8.4147030675895191
 20
6.0949790766523924
 30
0.0
 10
8.4022133910698464
 20
6.1315354548167171
 30
0.0
 10
8.3956740601607684
 20
6.1692648561005239
 30
0.0
 10
8.3942514387366156
 20
6.1808613247252149
 30
0.0
 10
8.3934336309072748
 20
6.1924417147650557
 30
0.0
 10
8.3932503069858804
 20
6.2039279974918875
 30
0.0
  0
SPLINE
  5
34D
100
AcDbEntity
  8
0
370
    35
390
0
 62
     7
 48
0.03937
100
AcDbSpline
210
0.0
220
0.0
230
1.0
 70
     8
 71
     5
 72
    18
 73
    12
 74
     0
 42
0.0
 43
0.0
 40
0.0
 40
0.0
 40
0.0
 40
0.0
 40
0.0
 40
0.0
 40
5.3021395084360492
 40
5.3021395084360492
 40
5.3021395084360492
 40
7.4791551125087032
 40
7.4791551125087032
 40
7.4791551125087032
 40
10.853651717228169
 40
10.853651717228169
 40
10.853651717228169
 40
10.853651717228169
 40
10.853651717228169
 40
10.853651717228169
 10
8.4738089946159096
 20
6.3134438422764836
 30
0.0
 10
8.4655610945566853
 20
6.3074196091894468
 30
0.0
 10
8.4581404769544282
 20
6.2997972407774103
 30
0.0
 10
8.4516454044235818
 20
6.2907012646061204
 30
0.0
 10
8.444007257709826
 20
6.276083307155468
 30
0.0
 10
8.4386013632064856
 20
6.2597670059968662
 30
0.0
 10
8.4372093258704748
 20
6.254867813992135
 30
0.0
 10
8.4341470951287842
 20
6.242141053054576
 30
0.0
 10
8.4322681473019614
 20
6.2287318106764653
 30
0.0
 10
8.4315574171019616
 20
6.2203628300251941
 30
0.0
 10
8.4312733229537766
 20
6.2118788065946777
 30
0.0
 10
8.4314022851129486
 20
6.2033061346372724
 30
0.0
  0
SPLINE
  5
34E
100
AcDbEntity
  8
0
370
    35
390
0
 62
     7
 48
0.03937
100
AcDbSpline
210
0.0
220
0.0
230
1.0
 70
     8
 71
     5
 72
    18
 73
    12
 74
     0
 42
0.0
 43
0.0
 40
0.0
 40
0.0
 40
0.0
 40
0.0
 40
0.0
 40
0.0
 40
4.1378332735126842
 40
4.1378332735126842
 40
4.1378332735126842
 40
6.6855721809097872
 40
6.6855721809097872
 40
6.6855721809097872
 40
8.4368031090877729
 40
8.4368031090877729
 40
8.4368031090877729
 40
8.4368031090877729
 40
8.4368031090877729
 40
8.4368031090877729
 10
8.4974792430036228
 20
6.3098299526531738
 30
0.0
 10
8.4923029895485982
 20
6.3029763388599678
 30
0.0
 10
8.487726618683002
 20
6.295280391307152
 30
0.0
 10
8.4838397350152857
 20
6.2868909071044401
 30
0.0
 10
8.478675457302824
 20
6.2725203551478277
 30
0.0
 10
8.475257471687959
 20
6.2570355973500238
 30
0.0
 10
8.474200090679842
 20
6.2509688519444877
 30
0.0
 10
8.4728391871329016
 20
6.2405528842852869
 30
0.0
 10
8.4721731084632559
 20
6.2298602785768784
 30
0.0
 10
8.4720158570009598
 20
6.2254630709087593
 30
0.0
 10
8.471971538823734
 20
6.2210380664977514
 30
0.0
 10
8.4720384651095326
 20
6.2165891871464654
 30
0.0
  0
SPLINE
  5
34F
100
AcDbEntity
  8
0
370
    35
390
0
 62
     7
 48
0.03937
100
AcDbSpline
210
0.0
220
0.0
230
1.0
 70
     8
 71
     5
 72
    15
 73
     9
 74
     0
 42
0.0
 43
0.0
 40
0.0
 40
0.0
 40
0.0
 40
0.0
 40
0.0
 40
0.0
 40
7.6364594491912721
 40
7.6364594491912721
 40
7.6364594491912721
 40
10.99624546311075
 40
10.99624546311075
 40
10.99624546311075
 40
10.99624546311075
 40
10.99624546311075
 40
10.99624546311075
 10
8.5349721319125909
 20
6.0587771380889262
 30
0.0
 10
8.5195199689727339
 20
6.0777051736931487
 30
0.0
 10
8.5061763721639831
 20
6.0996424011085812
 30
0.0
 10
8.4952493814482732
 20
6.1234606138095407
 30
0.0
 10
8.4831796706603395
 20
6.1594355946723551
 30
0.0
 10
8.4768643551135163
 20
6.1965054668603345
 30
0.0
 10
8.4754923251809977
 20
6.2078764361638914
 30
0.0
 10
8.4747024366020121
 20
6.219230516684358
 30
0.0
 10
8.4745226669790483
 20
6.2304941025102769
 30
0.0
  0
ELLIPSE
  5
350
100
AcDbEntity
  8
0
370
    35
390
0
 62
     7
 48
0.03937
100
AcDbEllipse
 10
8.567493
 20
6.171036
 30
0.0
 11
0.0442023318162914
 21
-0.1401402532706709
 31
0.0
210
0.0
220
0.0
230
1.0
 40
0.588204
 41
5.3702235566768879
 42
5.8578237510034041
  0
SPLINE
  5
351
100
AcDbEntity
  8
0
370
    35
390
0
 62
     7
 48
0.03937
100
AcDbSpline
210
0.0
220
0.0
230
1.0
 70
     8
 71
     5
 72
    21
 73
    15
 74
     0
 42
0.0
 43
0.0
 40
0.0
 40
0.0
 40
0.0
 40
0.0
 40
0.0
 40
0.0
 40
3.8593483622140203
 40
3.8593483622140203
 40
3.8593483622140203
 40
9.1816921358178902
 40
9.1816921358178902
 40
9.1816921358178902
 40
11.846591166498142
 40
11.846591166498142
 40
11.846591166498142
 40
13.18532107852503
 40
13.18532107852503
 40
13.18532107852503
 40
13.18532107852503
 40
13.18532107852503
 40
13.18532107852503
 10
8.5292896807471266
 20
6.0647795770880588
 30
0.0
 10
8.5232932455426536
 20
6.0714516871904749
 30
0.0
 10
8.5175974888677626
 20
6.078706113678944
 30
0.0
 10
8.5122198785112442
 20
6.0864861931053778
 30
0.0
 10
8.5002801407853852
 20
6.10605294660302
 30
0.0
 10
8.4904676464806226
 20
6.1279238438780954
 30
0.0
 10
8.4856469691085206
 20
6.1410876384961703
 30
0.0
 10
8.4797571003091168
 20
6.161218167480139
 30
0.0
 10
8.4759522837057588
 20
6.1817114415480034
 30
0.0
 10
8.4749218972411366
 20
6.1885593324572872
 30
0.0
 10
8.4737377029518033
 20
6.1988680608393434
 30
0.0
 10
8.4731183555627734
 20
6.2091226510243533
 30
0.0
 10
8.4729751199446355
 20
6.2125437876589844
 30
0.0
 10
8.4728965734465387
 20
6.2159515372861982
 30
0.0
 10
8.472883329981352
 20
6.21934397098536
 30
0.0
  0
POLYLINE
  5
352
100
AcDbEntity
  8
0
370
    35
390
0
 62
     7
 48
0.03937
100
AcDb2dPolyline
 66
     1
 10
0.0
 20
0.0
 30
0.0
 71
     2
  0
VERTEX
  5
353
100
AcDbEntity
  8
0
370
     0
390
0
100
AcDbVertex
100
AcDb2dVertex
 10
8.573742
 20
6.032657
 30
0.0
 42
0.041796
  0
VERTEX
  5
354
100
AcDbEntity
  8
0
370
     0
390
0
100
AcDbVertex
100
AcDb2dVertex
 10
8.585033
 20
6.029531
 30
0.0
  0
SEQEND
  5
355
100
AcDbEntity
  8
0
370
     0
390
0
  0
ELLIPSE
  5
356
100
AcDbEntity
  8
0
370
    35
390
0
 62
     7
 48
0.03937
100
AcDbEllipse
 10
8.52606
 20
6.153699
 30
0.0
 11
0.0444774275779788
 21
-0.1362262310118755
 31
0.0
210
0.0
220
0.0
230
1.0
 40
0.592967
 41
5.8469064138170781
 42
6.2833867413328344
  0
POLYLINE
  5
357
100
AcDbEntity
  8
0
370
    35
390
0
 62
     7
 48
0.03937
100
AcDb2dPolyline
 66
     1
 10
0.0
 20
0.0
 30
0.0
 71
     2
  0
VERTEX
  5
358
100
AcDbEntity
  8
0
370
     0
390
0
100
AcDbVertex
100
AcDb2dVertex
 10
8.570554
 20
6.017478
 30
0.0
 42
0.050749
  0
VERTEX
  5
359
100
AcDbEntity
  8
0
370
     0
390
0
100
AcDbVertex
100
AcDb2dVertex
 10
8.579988
 20
6.021667
 30
0.0
  0
SEQEND
  5
35A
100
AcDbEntity
  8
0
370
     0
390
0
  0
SPLINE
  5
35B
100
AcDbEntity
  8
0
370
    35
390
0
 62
     7
 48
0.03937
100
AcDbSpline
210
0.0
220
0.0
230
1.0
 70
     8
 71
     5
 72
    24
 73
    18
 74
     0
 42
0.0
 43
0.0
 40
0.0
 40
0.0
 40
0.0
 40
0.0
 40
0.0
 40
0.0
 40
5.2059709592945813
 40
5.2059709592945813
 40
5.2059709592945813
 40
8.8162684846882904
 40
8.8162684846882904
 40
8.8162684846882904
 40
14.428131319960752
 40
14.428131319960752
 40
14.428131319960752
 40
16.304788169643583
 40
16.304788169643583
 40
16.304788169643583
 40
18.226729287524051
 40
18.226729287524051
 40
18.226729287524051
 40
18.226729287524051
 40
18.226729287524051
 40
18.226729287524051
 10
8.5322371041485336
 20
6.0190881850092417
 30
0.0
 10
8.5230228931385987
 20
6.0224592986334233
 30
0.0
 10
8.5138209880782512
 20
6.0274849483340605
 30
0.0
 10
8.5047880478325055
 20
6.034047226837604
 30
0.0
 10
8.4901330542061597
 20
6.0474551626871493
 30
0.0
 10
8.4770507788748297
 20
6.0639057650692418
 30
0.0
 10
8.4719609553227642
 20
6.0711217538555005
 30
0.0
 10
8.4597895912623624
 20
6.0905124252641807
 30
0.0
 10
8.449714015871967
 20
6.1123235303560701
 30
0.0
 10
8.444537029726602
 20
6.1261669905701099
 30
0.0
 10
8.4389523229153607
 20
6.1450302524291205
 30
0.0
 10
8.4352000269557426
 20
6.1642122729794018
 30
0.0
 10
8.4343757348385804
 20
6.1690386083301547
 30
0.0
 10
8.432950403816891
 20
6.17881201159891
 30
0.0
 10
8.4320228970584132
 20
6.1885779701925143
 30
0.0
 10
8.4316831749846255
 20
6.1935122663833164
 30
0.0
 10
8.4314757353768837
 20
6.1984235780204404
 30
0.0
 10
8.4314022851129486
 20
6.2033061346372724
 30
0.0
  0
SPLINE
  5
35C
100
AcDbEntity
  8
0
370
    35
390
0
 62
     7
 48
0.03937
100
AcDbSpline
210
0.0
220
0.0
230
1.0
 70
     8
 71
     5
 72
    24
 73
    18
 74
     0
 42
0.0
 43
0.0
 40
0.0
 40
0.0
 40
0.0
 40
0.0
 40
0.0
 40
0.0
 40
4.6694706239718755
 40
4.6694706239718755
 40
4.6694706239718755
 40
7.8978672271364498
 40
7.8978672271364498
 40
7.8978672271364498
 40
11.196017358929623
 40
11.196017358929623
 40
11.196017358929623
 40
12.852335907196293
 40
12.852335907196293
 40
12.852335907196293
 40
16.188555783940007
 40
16.188555783940007
 40
16.188555783940007
 40
16.188555783940007
 40
16.188555783940007
 40
16.188555783940007
 10
8.5956238920519592
 20
6.054688662197238
 30
0.0
 10
8.5874945684936623
 20
6.0599332229939602
 30
0.0
 10
8.5795316836560183
 20
6.0663829948171992
 30
0.0
 10
8.5719137605313431
 20
6.0738903072265016
 30
0.0
 10
8.5598114191567749
 20
6.0879854495598558
 30
0.0
 10
8.5491154588843266
 20
6.1041600669244103
 30
0.0
 10
8.5450012941237166
 20
6.1110599766100169
 30
0.0
 10
8.5371454681557495
 20
6.1257138166483882
 30
0.0
 10
8.5304457589492202
 20
6.1413677888181644
 30
0.0
 10
8.527377880788805
 20
6.1494898313746829
 30
0.0
 10
8.5232955748498966
 20
6.1618498003387936
 30
0.0
 10
8.5200043365818008
 20
6.1743995242630163
 30
0.0
 10
8.5189931454481282
 20
6.1786121005343437
 30
0.0
 10
8.5162145652493866
 20
6.1913584884842621
 30
0.0
 10
8.5142601467537347
 20
6.2042171035046518
 30
0.0
 10
8.5133333818390131
 20
6.2128347288113464
 30
0.0
 10
8.5128021444437874
 20
6.2213968070395724
 30
0.0
 10
8.5126746451061166
 20
6.2298722396556618
 30
0.0
  0
POLYLINE
  5
35D
100
AcDbEntity
  8
0
370
    35
390
0
 62
     7
 48
0.03937
100
AcDb2dPolyline
 66
     1
 10
0.0
 20
0.0
 30
0.0
 71
     2
  0
VERTEX
  5
35E
100
AcDbEntity
  8
0
370
     0
390
0
100
AcDbVertex
100
AcDb2dVertex
 10
8.474913
 20
6.249175
 30
0.0
 42
0.01871
  0
VERTEX
  5
35F
100
AcDbEntity
  8
0
370
     0
390
0
100
AcDbVertex
100
AcDb2dVertex
 10
8.474523
 20
6.230494
 30
0.0
  0
SEQEND
  5
360
100
AcDbEntity
  8
0
370
     0
390
0
  0
ELLIPSE
  5
361
100
AcDbEntity
  8
0
370
    35
390
0
 62
     7
 48
0.03937
100
AcDbEllipse
 10
8.585384
 20
6.176968
 30
0.0
 11
0.050202842561309
 21
-0.1601216149143081
 31
0.0
210
0.0
220
0.0
230
1.0
 40
0.62878
 41
3.5683010839511313
 42
4.1153073913251141
  0
POLYLINE
  5
362
100
AcDbEntity
  8
0
370
    35
390
0
 62
     7
 48
0.03937
100
AcDb2dPolyline
 66
     1
 10
0.0
 20
0.0
 30
0.0
 71
     2
  0
VERTEX
  5
363
100
AcDbEntity
  8
0
370
     0
390
0
100
AcDbVertex
100
AcDb2dVertex
 10
8.473896
 20
6.240889
 30
0.0
 42
0.025991
  0
VERTEX
  5
364
100
AcDbEntity
  8
0
370
     0
390
0
100
AcDbVertex
100
AcDb2dVertex
 10
8.472885
 20
6.219344
 30
0.0
  0
SEQEND
  5
365
100
AcDbEntity
  8
0
370
     0
390
0
  0
ELLIPSE
  5
366
100
AcDbEntity
  8
0
370
    35
390
0
 62
     7
 48
0.03937
100
AcDbEllipse
 10
8.622726
 20
6.191962
 30
0.0
 11
0.0474672109445861
 21
-0.1580443936138416
 31
0.0
210
0.0
220
0.0
230
1.0
 40
0.628404
 41
3.8287461886253973
 42
4.2879004343780593
  0
SPLINE
  5
367
100
AcDbEntity
  8
0
370
    35
390
0
 62
     7
 48
0.03937
100
AcDbSpline
210
0.0
220
0.0
230
1.0
 70
     8
 71
     5
 72
    15
 73
     9
 74
     0
 42
0.0
 43
0.0
 40
0.0
 40
0.0
 40
0.0
 40
0.0
 40
0.0
 40
0.0
 40
7.6364613162434427
 40
7.6364613162434427
 40
7.6364613162434427
 40
10.996248817573845
 40
10.996248817573845
 40
10.996248817573845
 40
10.996248817573845
 40
10.996248817573845
 40
10.996248817573845
 10
8.5756083089189037
 20
6.0720601930945746
 30
0.0
 10
8.5601561487556239
 20
6.0909882272975358
 30
0.0
 10
8.5468125565815676
 20
6.1129254516430276
 30
0.0
 10
8.5358855701687499
 20
6.1367436597807092
 30
0.0
 10
8.5238158585820543
 20
6.1727186358320072
 30
0.0
 10
8.5175005382979627
 20
6.2097885084567963
 30
0.0
 10
8.5161285066207046
 20
6.2211594801954355
 30
0.0
 10
8.5153386166820617
 20
6.2325135642069229
 30
0.0
 10
8.5151588469756341
 20
6.2437771550194698
 30
0.0
  0
POLYLINE
  5
368
100
AcDbEntity
  8
0
370
    35
390
0
 62
     7
 48
0.03937
100
AcDb2dPolyline
 66
     1
 10
0.0
 20
0.0
 30
0.0
 71
     2
  0
VERTEX
  5
369
100
AcDbEntity
  8
0
370
     0
390
0
100
AcDbVertex
100
AcDb2dVertex
 10
8.569939
 20
6.078074
 30
0.0
 42
0.064338
  0
VERTEX
  5
36A
100
AcDbEntity
  8
0
370
     0
390
0
100
AcDbVertex
100
AcDb2dVertex
 10
8.595824
 20
6.055386
 30
0.0
  0
SEQEND
  5
36B
100
AcDbEntity
  8
0
370
     0
390
0
  0
SPLINE
  5
36C
100
AcDbEntity
  8
0
370
    35
390
0
 62
     7
 48
0.03937
100
AcDbSpline
210
0.0
220
0.0
230
1.0
 70
     8
 71
     5
 72
    21
 73
    15
 74
     0
 42
0.0
 43
0.0
 40
0.0
 40
0.0
 40
0.0
 40
0.0
 40
0.0
 40
0.0
 40
3.8593757670395932
 40
3.8593757670395932
 40
3.8593757670395932
 40
9.1817214698012748
 40
9.1817214698012748
 40
9.1817214698012748
 40
11.846634816662293
 40
11.846634816662293
 40
11.846634816662293
 40
13.185374003835602
 40
13.185374003835602
 40
13.185374003835602
 40
13.185374003835602
 40
13.185374003835602
 40
13.185374003835602
 10
8.5699258596108834
 20
6.0780626305463024
 30
0.0
 10
8.5639294096530563
 20
6.0847347575486967
 30
0.0
 10
8.558233621869622
 20
6.0919892240922664
 30
0.0
 10
8.552856006831961
 20
6.0997693210512809
 30
0.0
 10
8.5409162912632706
 20
6.1193360796070024
 30
0.0
 10
8.5311039156980772
 20
6.1412067384869005
 30
0.0
 10
8.5262832543818341
 20
6.1543704027738029
 30
0.0
 10
8.5203933546771182
 20
6.1745009371007962
 30
0.0
 10
8.5165885045817582
 20
6.1949942543485719
 30
0.0
 10
8.5155581037598544
 20
6.201842195739836
 30
0.0
 10
8.5143738944750815
 20
6.2121509830271169
 30
0.0
 10
8.5137545388113072
 20
6.2224056329098074
 30
0.0
 10
8.5136113011313785
 20
6.2258267931198752
 30
0.0
 10
8.5135327535353316
 20
6.2292345662920985
 30
0.0
 10
8.5135195099779359
 20
6.2326270234945538
 30
0.0
  0
SPLINE
  5
36D
100
AcDbEntity
  8
0
370
    35
390
0
 62
     7
 48
0.03937
100
AcDbSpline
210
0.0
220
0.0
230
1.0
 70
     8
 71
     5
 72
    21
 73
    15
 74
     0
 42
0.0
 43
0.0
 40
0.0
 40
0.0
 40
0.0
 40
0.0
 40
0.0
 40
0.0
 40
2.308122841128541
 40
2.308122841128541
 40
2.308122841128541
 40
7.042840107123042
 40
7.042840107123042
 40
7.042840107123042
 40
9.4204636307773413
 40
9.4204636307773413
 40
9.4204636307773413
 40
11.796171978696556
 40
11.796171978696556
 40
11.796171978696556
 40
11.796171978696556
 40
11.796171978696556
 40
11.796171978696556
 10
8.6007086961168771
 20
6.1019266337295219
 30
0.0
 10
8.5973578844727143
 20
6.1063196783679201
 30
0.0
 10
8.5941260545411229
 20
6.1108943814035701
 30
0.0
 10
8.5910274748948368
 20
6.115620801672744
 30
0.0
 10
8.5819033221459211
 20
6.130617616547168
 30
0.0
 10
8.5739929476075982
 20
6.1470416802377654
 30
0.0
 10
8.5693189385961119
 20
6.1585559556533251
 30
0.0
 10
8.5633446967090983
 20
6.1762932022756765
 30
0.0
 10
8.5590071291109187
 20
6.1943871666694834
 30
0.0
 10
8.557737924780314
 20
6.2004833093349907
 30
0.0
 10
8.5555814314068375
 20
6.212693298771871
 30
0.0
 10
8.5541942464320986
 20
6.2249285338684901
 30
0.0
 10
8.5536971359885712
 20
6.231040715398529
 30
0.0
 10
8.5534016168552629
 20
6.2371199717234589
 30
0.0
 10
8.5533108251027024
 20
6.243155292164853
 30
0.0
  0
POLYLINE
  5
36E
100
AcDbEntity
  8
0
370
    35
390
0
 62
     7
 48
0.03937
100
AcDb2dPolyline
 66
     1
 10
0.0
 20
0.0
 30
0.0
 71
     2
  0
VERTEX
  5
36F
100
AcDbEntity
  8
0
370
     0
390
0
100
AcDbVertex
100
AcDb2dVertex
 10
8.515549
 20
6.262458
 30
0.0
 42
0.01871
  0
VERTEX
  5
370
100
AcDbEntity
  8
0
370
     0
390
0
100
AcDbVertex
100
AcDb2dVertex
 10
8.515159
 20
6.243777
 30
0.0
  0
SEQEND
  5
371
100
AcDbEntity
  8
0
370
     0
390
0
  0
POLYLINE
  5
372
100
AcDbEntity
  8
0
370
    35
390
0
 62
     7
 48
0.03937
100
AcDb2dPolyline
 66
     1
 10
0.0
 20
0.0
 30
0.0
 71
     2
  0
VERTEX
  5
373
100
AcDbEntity
  8
0
370
     0
390
0
100
AcDbVertex
100
AcDb2dVertex
 10
8.523578
 20
6.294696
 30
0.0
 42
0.063606
  0
VERTEX
  5
374
100
AcDbEntity
  8
0
370
     0
390
0
100
AcDbVertex
100
AcDb2dVertex
 10
8.514551
 20
6.25417
 30
0.0
  0
SEQEND
  5
375
100
AcDbEntity
  8
0
370
     0
390
0
  0
POLYLINE
  5
376
100
AcDbEntity
  8
0
370
    35
390
0
 62
     7
 48
0.03937
100
AcDb2dPolyline
 66
     1
 10
0.0
 20
0.0
 30
0.0
 71
     2
  0
VERTEX
  5
377
100
AcDbEntity
  8
0
370
     0
390
0
100
AcDbVertex
100
AcDb2dVertex
 10
8.514532
 20
6.254172
 30
0.0
 42
0.025991
  0
VERTEX
  5
378
100
AcDbEntity
  8
0
370
     0
390
0
100
AcDbVertex
100
AcDb2dVertex
 10
8.513521
 20
6.232627
 30
0.0
  0
SEQEND
  5
379
100
AcDbEntity
  8
0
370
     0
390
0
  0
POLYLINE
  5
37A
100
AcDbEntity
  8
0
370
    35
390
0
 62
     7
 48
0.03937
100
AcDb2dPolyline
 66
     1
 10
0.0
 20
0.0
 30
0.0
 71
     2
  0
VERTEX
  5
37B
100
AcDbEntity
  8
0
370
     0
390
0
100
AcDbVertex
100
AcDb2dVertex
 10
8.553521
 20
6.25657
 30
0.0
 42
0.015563
  0
VERTEX
  5
37C
100
AcDbEntity
  8
0
370
     0
390
0
100
AcDbVertex
100
AcDb2dVertex
 10
8.553311
 20
6.243155
 30
0.0
  0
SEQEND
  5
37D
100
AcDbEntity
  8
0
370
     0
390
0
  0
SPLINE
  5
37E
100
AcDbEntity
  8
0
370
    35
390
0
 62
     7
 48
0.03937
100
AcDbSpline
210
0.0
220
0.0
230
1.0
 70
     8
 71
     5
 72
    15
 73
     9
 74
     0
 42
0.0
 43
0.0
 40
0.0
 40
0.0
 40
0.0
 40
0.0
 40
0.0
 40
0.0
 40
8.1754267219867049
 40
8.1754267219867049
 40
8.1754267219867049
 40
9.089838061388404
 40
9.089838061388404
 40
9.089838061388404
 40
9.089838061388404
 40
9.089838061388404
 40
9.089838061388404
 10
8.6005564120629838
 20
6.1071000594264557
 30
0.0
 10
8.5860568163930733
 20
6.1298192490873884
 30
0.0
 10
8.5741847523899377
 20
6.1551941519680513
 30
0.0
 10
8.5651962557748416
 20
6.1820931842270612
 30
0.0
 10
8.5586323714487662
 20
6.2128826864978386
 30
0.0
 10
8.5563294637938796
 20
6.2435439083695172
 30
0.0
 10
8.5561413705967357
 20
6.2466268277703163
 30
0.0
 10
8.5559975225082052
 20
6.2497046209184584
 30
0.0
 10
8.5558983993416202
 20
6.2527769485867131
 30
0.0
  0
SPLINE
  5
37F
100
AcDbEntity
  8
0
370
    35
390
0
 62
     7
 48
0.03937
100
AcDbSpline
210
0.0
220
0.0
230
1.0
 70
     8
 71
     5
 72
    21
 73
    15
 74
     0
 42
0.0
 43
0.0
 40
0.0
 40
0.0
 40
0.0
 40
0.0
 40
0.0
 40
0.0
 40
2.3243046202528483
 40
2.3243046202528483
 40
2.3243046202528483
 40
7.0895852608858885
 40
7.0895852608858885
 40
7.0895852608858885
 40
10.674452341963319
 40
10.674452341963319
 40
10.674452341963319
 40
11.869250591662899
 40
11.869250591662899
 40
11.869250591662899
 40
11.869250591662899
 40
11.869250591662899
 40
11.869250591662899
 10
8.6006756780744809
 20
6.1034016530462774
 30
0.0
 10
8.5973275979000476
 20
6.1078646910541146
 30
0.0
 10
8.594100413774596
 20
6.1125104223990698
 30
0.0
 10
8.5910100589088643
 20
6.1173060331913343
 30
0.0
 10
8.5819158868991607
 20
6.1325216193042946
 30
0.0
 10
8.5740657910235001
 20
6.1491562188694315
 30
0.0
 10
8.5694515739704169
 20
6.1607945252622018
 30
0.0
 10
8.5626107733670036
 20
6.1816718020962185
 30
0.0
 10
8.5580319733498484
 20
6.2030119805588475
 30
0.0
 10
8.5564862662907739
 20
6.2122393044136643
 30
0.0
 10
8.5550124555703899
 20
6.2245602715357045
 30
0.0
 10
8.5543467563989761
 20
6.2367917408862743
 30
0.0
 10
8.5542313452218455
 20
6.2398424746540426
 30
0.0
 10
8.5541675095877885
 20
6.242882375038949
 30
0.0
 10
8.5541556899745199
 20
6.2459100760037476
 30
0.0
  0
POLYLINE
  5
380
100
AcDbEntity
  8
0
370
    35
390
0
 62
     7
 48
0.03937
100
AcDb2dPolyline
 66
     1
 10
0.0
 20
0.0
 30
0.0
 71
     2
  0
VERTEX
  5
381
100
AcDbEntity
  8
0
370
     0
390
0
100
AcDbVertex
100
AcDb2dVertex
 10
8.554323
 20
6.255307
 30
0.0
 42
0.010924
  0
VERTEX
  5
382
100
AcDbEntity
  8
0
370
     0
390
0
100
AcDbVertex
100
AcDb2dVertex
 10
8.554156
 20
6.24591
 30
0.0
  0
SEQEND
  5
383
100
AcDbEntity
  8
0
370
     0
390
0
  0
ELLIPSE
  5
384
100
AcDbEntity
  8
0
370
    35
390
0
 62
     7
 48
0.03937
100
AcDbEllipse
 10
6.88934
 20
6.688903
 30
0.0
 11
0.0445358320714517
 21
-0.1366106081896576
 31
0.0
210
0.0
220
0.0
230
1.0
 40
0.592191
 41
5.8391786423248959
 42
6.1849144623667938
  0
SPLINE
  5
385
100
AcDbEntity
  8
0
370
    35
390
0
 62
     7
 48
0.03937
100
AcDbSpline
210
0.0
220
0.0
230
1.0
 70
     8
 71
     5
 72
    15
 73
     9
 74
     0
 42
0.0
 43
0.0
 40
0.0
 40
0.0
 40
0.0
 40
0.0
 40
0.0
 40
0.0
 40
7.2363634914493522
 40
7.2363634914493522
 40
7.2363634914493522
 40
12.169272188150575
 40
12.169272188150575
 40
12.169272188150575
 40
12.169272188150575
 40
12.169272188150575
 40
12.169272188150575
 10
6.8167077888728604
 20
6.5661241408787125
 30
0.0
 10
6.8020119810061086
 20
6.5839840941487928
 30
0.0
 10
6.7892032941439799
 20
6.6045674018704146
 30
0.0
 10
6.7785499123149213
 20
6.626905137869354
 30
0.0
 10
6.7644490836082998
 20
6.6663577357270425
 30
0.0
 10
6.7572898777837329
 20
6.707457776104869
 30
0.0
 10
6.7555883551500866
 20
6.7242181320150118
 30
0.0
 10
6.7551723818963074
 20
6.7408671767389254
 30
0.0
 10
6.7561327758003884
 20
6.7571513301234933
 30
0.0
  0
ELLIPSE
  5
386
100
AcDbEntity
  8
0
370
    35
390
0
 62
     7
 48
0.03937
100
AcDbEllipse
 10
6.868849
 20
6.682001
 30
0.0
 11
0.0529684085131262
 21
-0.1629363864727407
 31
0.0
210
0.0
220
0.0
230
1.0
 40
0.624994
 41
3.1468995991076221
 42
3.7691379877545481
  0
LINE
  5
387
100
AcDbEntity
  8
0
370
    35
390
0
 62
     7
 48
0.000045
100
AcDbLine
 10
6.937863
 20
6.566049
 30
0.0
 11
6.936155
 21
6.56663
 31
0.0
210
0.0
220
0.0
230
1.0
  0
SPLINE
  5
388
100
AcDbEntity
  8
0
370
    35
390
0
 62
     7
 48
0.03937
100
AcDbSpline
210
0.0
220
0.0
230
1.0
 70
     8
 71
     5
 72
    15
 73
     9
 74
     0
 42
0.0
 43
0.0
 40
0.0
 40
0.0
 40
0.0
 40
0.0
 40
0.0
 40
0.0
 40
7.2080238659519233
 40
7.2080238659519233
 40
7.2080238659519233
 40
12.118463738990453
 40
12.118463738990453
 40
12.118463738990453
 40
12.118463738990453
 40
12.118463738990453
 40
12.118463738990453
 10
6.8568280578580296
 20
6.5800366663916874
 30
0.0
 10
6.8422427812298237
 20
6.597902698542681
 30
0.0
 10
6.8295361054682511
 20
6.618449756686104
 30
0.0
 10
6.8189696071448802
 20
6.6407257546422924
 30
0.0
 10
6.8049918025328306
 20
6.6800384857829629
 30
0.0
 10
6.797902891999505
 20
6.7209698526947346
 30
0.0
 10
6.7962207743464624
 20
6.7376528451837281
 30
0.0
 10
6.7958129363542064
 20
6.7542244009457075
 30
0.0
 10
6.7967689557745921
 20
6.7704343819250985
 30
0.0
  0
ELLIPSE
  5
389
100
AcDbEntity
  8
0
370
    35
390
0
 62
     7
 48
0.03937
100
AcDbEllipse
 10
6.908897
 20
6.696195
 30
0.0
 11
0.0522377580387952
 21
-0.1620692567967994
 31
0.0
210
0.0
220
0.0
230
1.0
 40
0.626458
 41
3.3500118637372274
 42
3.7726824705255608
  0
SPLINE
  5
38A
100
AcDbEntity
  8
0
370
    35
390
0
 62
     7
 48
0.03937
100
AcDbSpline
210
0.0
220
0.0
230
1.0
 70
     8
 71
     5
 72
    18
 73
    12
 74
     0
 42
0.0
 43
0.0
 40
0.0
 40
0.0
 40
0.0
 40
0.0
 40
0.0
 40
0.0
 40
6.5977529721826462
 40
6.5977529721826462
 40
6.5977529721826462
 40
9.2218727494293553
 40
9.2218727494293553
 40
9.2218727494293553
 40
13.072305190812115
 40
13.072305190812115
 40
13.072305190812115
 40
13.072305190812115
 40
13.072305190812115
 40
13.072305190812115
 10
6.7947470917549078
 20
6.7393696662030109
 30
0.0
 10
6.7949058762817245
 20
6.7226290465521172
 30
0.0
 10
6.7966471884645969
 20
6.7055332909084546
 30
0.0
 10
6.799892193589149
 20
6.6883858286951732
 30
0.0
 10
6.8064398029487698
 20
6.66486930442806
 30
0.0
 10
6.8154575272016169
 20
6.6428051180812124
 30
0.0
 10
6.8182263834433137
 20
6.6366367205244305
 30
0.0
 10
6.8255244509566797
 20
6.6217852431832771
 30
0.0
 10
6.8339819303205367
 20
6.6078804788022385
 30
0.0
 10
6.8393928924075071
 20
6.6000376969337857
 30
0.0
 10
6.8451295118754887
 20
6.5927359405239505
 30
0.0
 10
6.8511220140068945
 20
6.5860653433618506
 30
0.0
  0
ELLIPSE
  5
38B
100
AcDbEntity
  8
0
370
    35
390
0
 62
     7
 48
0.03937
100
AcDbEllipse
 10
6.889374
 20
6.692405
 30
0.0
 11
0.0441718078625368
 21
-0.1402552671565828
 31
0.0
210
0.0
220
0.0
230
1.0
 40
0.588202
 41
5.370505998064699
 42
5.8496858918965033
  0
SPLINE
  5
38C
100
AcDbEntity
  8
0
370
    35
390
0
 62
     7
 48
0.03937
100
AcDbSpline
210
0.0
220
0.0
230
1.0
 70
     8
 71
     5
 72
    21
 73
    15
 74
     0
 42
0.0
 43
0.0
 40
0.0
 40
0.0
 40
0.0
 40
0.0
 40
0.0
 40
0.0
 40
7.5939247909942562
 40
7.5939247909942562
 40
7.5939247909942562
 40
13.205043574248723
 40
13.205043574248723
 40
13.205043574248723
 40
15.018268046628457
 40
15.018268046628457
 40
15.018268046628457
 40
18.441675274659005
 40
18.441675274659005
 40
18.441675274659005
 40
18.441675274659005
 40
18.441675274659005
 40
18.441675274659005
 10
6.7938787909309122
 20
6.7390858382093386
 30
0.0
 10
6.7940615497817376
 20
6.7198176105072216
 30
0.0
 10
6.7963409417491603
 20
6.7000781919924224
 30
0.0
 10
6.8005949709102511
 20
6.6804336644094278
 30
0.0
 10
6.8111353084888675
 20
6.6473076498887158
 30
0.0
 10
6.8266299585643244
 20
6.6174394017146563
 30
0.0
 10
6.834093986621915
 20
6.6054197217280626
 30
0.0
 10
6.8450002033130319
 20
6.590905310634799
 30
0.0
 10
6.8568383180712216
 20
6.5787623658908556
 30
0.0
 10
6.8597815068835679
 20
6.57594381656655
 30
0.0
 10
6.86840865861664
 20
6.5682541939671504
 30
0.0
 10
6.8774040705746566
 20
6.5618888383107894
 30
0.0
 10
6.8834006784189281
 20
6.5583496219578663
 30
0.0
 10
6.8894597137326263
 20
6.5554889839908901
 30
0.0
 10
6.8955192113138501
 20
6.5533469966451827
 30
0.0
  0
ELLIPSE
  5
38D
100
AcDbEntity
  8
0
370
    35
390
0
 62
     7
 48
0.03937
100
AcDbEllipse
 10
6.908479
 20
6.695239
 30
0.0
 11
0.0528038929577002
 21
-0.1627058896955184
 31
0.0
210
0.0
220
0.0
230
1.0
 40
0.625389
 41
3.3439656196968111
 42
3.7699524646002636
  0
SPLINE
  5
38E
100
AcDbEntity
  8
0
370
    35
390
0
 62
     7
 48
0.03937
100
AcDbSpline
210
0.0
220
0.0
230
1.0
 70
     8
 71
     5
 72
    21
 73
    15
 74
     0
 42
0.0
 43
0.0
 40
0.0
 40
0.0
 40
0.0
 40
0.0
 40
0.0
 40
0.0
 40
7.5939190772047693
 40
7.5939190772047693
 40
7.5939190772047693
 40
13.205041175952037
 40
13.205041175952037
 40
13.205041175952037
 40
15.018266542744785
 40
15.018266542744785
 40
15.018266542744785
 40
18.441675158724351
 40
18.441675158724351
 40
18.441675158724351
 40
18.441675158724351
 40
18.441675158724351
 40
18.441675158724351
 10
6.8345149709275024
 20
6.7523688907185351
 30
0.0
 10
6.8346977296408449
 20
6.7331006775179567
 30
0.0
 10
6.8369771183039747
 20
6.7133612741413504
 30
0.0
 10
6.8412311412952542
 20
6.6937167631653072
 30
0.0
 10
6.8517714704368755
 20
6.6605907532480684
 30
0.0
 10
6.8672661090161613
 20
6.6307225079071355
 30
0.0
 10
6.8747301407418293
 20
6.6187028135677215
 30
0.0
 10
6.8856363670783995
 20
6.6041883848716196
 30
0.0
 10
6.8974744877847574
 20
6.5920454307011331
 30
0.0
 10
6.9004176774901014
 20
6.5892268797954872
 30
0.0
 10
6.9090448309826096
 20
6.5815372535909598
 30
0.0
 10
6.9180402450105349
 20
6.5751718948188866
 30
0.0
 10
6.9240368542263733
 20
6.57163267676001
 30
0.0
 10
6.9300958912723845
 20
6.5687720373674701
 30
0.0
 10
6.9361553913104341
 20
6.5666300491543765
 30
0.0
  0
POLYLINE
  5
38F
100
AcDbEntity
  8
0
370
    35
390
0
 62
     7
 48
0.03937
100
AcDb2dPolyline
 66
     1
 10
0.0
 20
0.0
 30
0.0
 71
     2
  0
VERTEX
  5
390
100
AcDbEntity
  8
0
370
     0
390
0
100
AcDbVertex
100
AcDb2dVertex
 10
6.856935
 20
6.840124
 30
0.0
 42
0.048932
  0
VERTEX
  5
391
100
AcDbEntity
  8
0
370
     0
390
0
100
AcDbVertex
100
AcDb2dVertex
 10
6.846589
 20
6.820736
 30
0.0
  0
SEQEND
  5
392
100
AcDbEntity
  8
0
370
     0
390
0
  0
LINE
  5
393
100
AcDbEntity
  8
0
370
    35
390
0
 62
     7
 48
0.000072
100
AcDbLine
 10
6.938147
 20
6.566527
 30
0.0
 11
6.935442
 21
6.567492
 31
0.0
210
0.0
220
0.0
230
1.0
  0
SPLINE
  5
394
100
AcDbEntity
  8
0
370
    35
390
0
 62
     7
 48
0.03937
100
AcDbSpline
210
0.0
220
0.0
230
1.0
 70
     8
 71
     5
 72
    15
 73
     9
 74
     0
 42
0.0
 43
0.0
 40
0.0
 40
0.0
 40
0.0
 40
0.0
 40
0.0
 40
0.0
 40
8.0105375959746681
 40
8.0105375959746681
 40
8.0105375959746681
 40
8.8628522714133702
 40
8.8628522714133702
 40
8.8628522714133702
 40
8.8628522714133702
 40
8.8628522714133702
 40
8.8628522714133702
 10
6.742955970820022
 20
6.6061144423145128
 30
0.0
 10
6.7315079223579772
 20
6.6306314954250594
 30
0.0
 10
6.7227692237407837
 20
6.6569109281562051
 30
0.0
 10
6.7169356031009571
 20
6.6841079323811838
 30
0.0
 10
6.7140103168744485
 20
6.7144411028723772
 30
0.0
 10
6.7154660000381394
 20
6.7437728005469566
 30
0.0
 10
6.7156470503365613
 20
6.7465840960721453
 30
0.0
 10
6.7158694920568784
 20
6.7493823211284099
 30
0.0
 10
6.7161338648832247
 20
6.7521671594486463
 30
0.0
  0
ELLIPSE
  5
395
100
AcDbEntity
  8
0
370
    35
390
0
 62
     7
 48
0.03937
100
AcDbEllipse
 10
6.888531
 20
6.688414
 30
0.0
 11
0.0444833049010981
 21
-0.1364035218260615
 31
0.0
210
0.0
220
0.0
230
1.0
 40
0.592666
 41
5.855960535262728
 42
6.1929457887409258
  0
SPLINE
  5
396
100
AcDbEntity
  8
0
370
    35
390
0
 62
     7
 48
0.03937
100
AcDbSpline
210
0.0
220
0.0
230
1.0
 70
     8
 71
     5
 72
    15
 73
     9
 74
     0
 42
0.0
 43
0.0
 40
0.0
 40
0.0
 40
0.0
 40
0.0
 40
0.0
 40
0.0
 40
7.2080236917734837
 40
7.2080236917734837
 40
7.2080236917734837
 40
12.118463432464386
 40
12.118463432464386
 40
12.118463432464386
 40
12.118463432464386
 40
12.118463432464386
 40
12.118463432464386
 10
6.8974642335288312
 20
6.5933197245673867
 30
0.0
 10
6.8828789572619273
 20
6.611185756612473
 30
0.0
 10
6.8701722820741127
 20
6.6317328138284903
 30
0.0
 10
6.8596057847509355
 20
6.6540088103996409
 30
0.0
 10
6.845627981728569
 20
6.6933215397295642
 30
0.0
 10
6.8385390720148935
 20
6.7342529053052989
 30
0.0
 10
6.836856954354178
 20
6.7509358980290637
 30
0.0
 10
6.8364491163853609
 20
6.7675074533991282
 30
0.0
 10
6.8374051357373427
 20
6.7837174338657187
 30
0.0
  0
POLYLINE
  5
397
100
AcDbEntity
  8
0
370
    35
390
0
 62
     7
 48
0.03937
100
AcDb2dPolyline
 66
     1
 10
0.0
 20
0.0
 30
0.0
 71
     2
  0
VERTEX
  5
398
100
AcDbEntity
  8
0
370
     0
390
0
100
AcDbVertex
100
AcDb2dVertex
 10
6.857409
 20
6.839817
 30
0.0
 42
0.047151
  0
VERTEX
  5
399
100
AcDbEntity
  8
0
370
     0
390
0
100
AcDbVertex
100
AcDb2dVertex
 10
6.847456
 20
6.82102
 30
0.0
  0
SEQEND
  5
39A
100
AcDbEntity
  8
0
370
     0
390
0
  0
SPLINE
  5
39B
100
AcDbEntity
  8
0
370
    35
390
0
 62
     7
 48
0.03937
100
AcDbSpline
210
0.0
220
0.0
230
1.0
 70
     8
 71
     5
 72
    18
 73
    12
 74
     0
 42
0.0
 43
0.0
 40
0.0
 40
0.0
 40
0.0
 40
0.0
 40
0.0
 40
0.0
 40
6.5977576162096598
 40
6.5977576162096598
 40
6.5977576162096598
 40
9.2218797767004634
 40
9.2218797767004634
 40
9.2218797767004634
 40
13.07231275329082
 40
13.07231275329082
 40
13.07231275329082
 40
13.07231275329082
 40
13.07231275329082
 40
13.07231275329082
 10
6.8353832717515113
 20
6.7526527187122118
 30
0.0
 10
6.8355420563905289
 20
6.7359120872760121
 30
0.0
 10
6.8372833709183913
 20
6.7188163193185568
 30
0.0
 10
6.8405283802335672
 20
6.7016688489886302
 30
0.0
 10
6.8470759954056311
 20
6.6781523153423574
 30
0.0
 10
6.856093731366359
 20
6.6560881150891085
 30
0.0
 10
6.8588625919056341
 20
6.649919712687768
 30
0.0
 10
6.8661606639355712
 20
6.6350682385030542
 30
0.0
 10
6.8746181358222707
 20
6.6211634965916222
 30
0.0
 10
6.8800290875560295
 20
6.6133207330427561
 30
0.0
 10
6.8857656962279368
 20
6.6060189902230206
 30
0.0
 10
6.8917581919225892
 20
6.5993483997550673
 30
0.0
  0
ELLIPSE
  5
39C
100
AcDbEntity
  8
0
370
    35
390
0
 62
     7
 48
0.03937
100
AcDbEllipse
 10
6.93001
 20
6.705688
 30
0.0
 11
0.0441718142061786
 21
-0.1402553018623114
 31
0.0
210
0.0
220
0.0
230
1.0
 40
0.588202
 41
5.3705061286288007
 42
5.8496860247301958
  0
ELLIPSE
  5
39D
100
AcDbEntity
  8
0
370
    35
390
0
 62
     7
 48
0.03937
100
AcDbEllipse
 10
6.868086
 20
6.681578
 30
0.0
 11
0.053105218261571
 21
-0.1630655064208816
 31
0.0
210
0.0
220
0.0
230
1.0
 40
0.62478
 41
3.1422659413317962
 42
3.7684974231305706
  0
POLYLINE
  5
39E
100
AcDbEntity
  8
0
370
    35
390
0
 62
     7
 48
0.03937
100
AcDb2dPolyline
 66
     1
 10
0.0
 20
0.0
 30
0.0
 71
     2
  0
VERTEX
  5
39F
100
AcDbEntity
  8
0
370
     0
390
0
100
AcDbVertex
100
AcDb2dVertex
 10
6.843684
 20
6.84762
 30
0.0
 42
0.104093
  0
VERTEX
  5
3A0
100
AcDbEntity
  8
0
370
     0
390
0
100
AcDbVertex
100
AcDb2dVertex
 10
6.81491
 20
6.844629
 30
0.0
  0
SEQEND
  5
3A1
100
AcDbEntity
  8
0
370
     0
390
0
  0
SPLINE
  5
3A2
100
AcDbEntity
  8
0
370
    35
390
0
 62
     7
 48
0.03937
100
AcDbSpline
210
0.0
220
0.0
230
1.0
 70
     8
 71
     5
 72
    21
 73
    15
 74
     0
 42
0.0
 43
0.0
 40
0.0
 40
0.0
 40
0.0
 40
0.0
 40
0.0
 40
0.0
 40
6.2299770641168344
 40
6.2299770641168344
 40
6.2299770641168344
 40
9.3354438270255056
 40
9.3354438270255056
 40
9.3354438270255056
 40
13.905845300974502
 40
13.905845300974502
 40
13.905845300974502
 40
15.330296562706312
 40
15.330296562706312
 40
15.330296562706312
 40
15.330296562706312
 40
15.330296562706312
 40
15.330296562706312
 10
6.875151150924097
 20
6.7656519432277316
 30
0.0
 10
6.8753010843877593
 20
6.7498444892546088
 30
0.0
 10
6.8768621339696017
 20
6.7337199053386554
 30
0.0
 10
6.8797686230830539
 20
6.7175235267120934
 30
0.0
 10
6.8860667133522311
 20
6.6936220808058398
 30
0.0
 10
6.8949384560041924
 20
6.6711070258036678
 30
0.0
 10
6.8981637460777403
 20
6.6637922612006051
 30
0.0
 10
6.9068142707498188
 20
6.6461702832299574
 30
0.0
 10
6.9170864043597104
 20
6.6299082444846151
 30
0.0
 10
6.9237198023761106
 20
6.6208790768868786
 30
0.0
 10
6.9329594152688436
 20
6.6101276281511003
 30
0.0
 10
6.9427381343468122
 20
6.6010126924672967
 30
0.0
 10
6.9450916535903993
 20
6.5989405709808286
 30
0.0
 10
6.9474725388251546
 20
6.596965979810216
 30
0.0
 10
6.9498784902988122
 20
6.5950922319323775
 30
0.0
  0
SPLINE
  5
3A3
100
AcDbEntity
  8
0
370
    35
390
0
 62
     7
 48
0.03937
100
AcDbSpline
210
0.0
220
0.0
230
1.0
 70
     8
 71
     5
 72
    15
 73
     9
 74
     0
 42
0.0
 43
0.0
 40
0.0
 40
0.0
 40
0.0
 40
0.0
 40
0.0
 40
0.0
 40
7.2080234950173132
 40
7.2080234950173132
 40
7.2080234950173132
 40
12.118463402045766
 40
12.118463402045766
 40
12.118463402045766
 40
12.118463402045766
 40
12.118463402045766
 40
12.118463402045766
 10
6.9381004070098271
 20
6.6066027844473423
 30
0.0
 10
6.9235151329805538
 20
6.624468815026118
 30
0.0
 10
6.9108084596576171
 20
6.6450158698457722
 30
0.0
 10
6.9002419637318173
 20
6.6672918638177752
 30
0.0
 10
6.8862641618894695
 20
6.7066045906504508
 30
0.0
 10
6.8791752523072756
 20
6.7475359551934595
 30
0.0
 10
6.8774931344088843
 20
6.764218948931239
 30
0.0
 10
6.8770852963616296
 20
6.7807905049284765
 30
0.0
 10
6.8780413157005116
 20
6.7970004859594377
 30
0.0
  0
SPLINE
  5
3A4
100
AcDbEntity
  8
0
370
    35
390
0
 62
     7
 48
0.03937
100
AcDbSpline
210
0.0
220
0.0
230
1.0
 70
     8
 71
     5
 72
    18
 73
    12
 74
     0
 42
0.0
 43
0.0
 40
0.0
 40
0.0
 40
0.0
 40
0.0
 40
0.0
 40
0.0
 40
6.5977603098948476
 40
6.5977603098948476
 40
6.5977603098948476
 40
9.2218844284442589
 40
9.2218844284442589
 40
9.2218844284442589
 40
13.072318366910284
 40
13.072318366910284
 40
13.072318366910284
 40
13.072318366910284
 40
13.072318366910284
 40
13.072318366910284
 10
6.8760194517480704
 20
6.7659357712213968
 30
0.0
 10
6.8761782364511435
 20
6.7491951329551139
 30
0.0
 10
6.8779195523191055
 20
6.7320993579621398
 30
0.0
 10
6.881164563828877
 20
6.7149518867365998
 30
0.0
 10
6.8877121795015688
 20
6.6914353533602426
 30
0.0
 10
6.8967299216585776
 20
6.6693711438858392
 30
0.0
 10
6.8994987845808344
 20
6.663202738394693
 30
0.0
 10
6.9067968596546301
 20
6.6483512640171565
 30
0.0
 10
6.9152543273700768
 20
6.6344465340678846
 30
0.0
 10
6.9206652729809566
 20
6.6266037808395035
 30
0.0
 10
6.9264018752996313
 20
6.6193020454951386
 30
0.0
 10
6.9323943673926056
 20
6.6126314583199886
 30
0.0
  0
POLYLINE
  5
3A5
100
AcDbEntity
  8
0
370
    35
390
0
 62
     7
 48
0.03937
100
AcDb2dPolyline
 66
     1
 10
0.0
 20
0.0
 30
0.0
 71
     2
  0
VERTEX
  5
3A6
100
AcDbEntity
  8
0
370
     0
390
0
100
AcDbVertex
100
AcDb2dVertex
 10
6.932398
 20
6.612635
 30
0.0
 42
0.042536
  0
VERTEX
  5
3A7
100
AcDbEntity
  8
0
370
     0
390
0
100
AcDbVertex
100
AcDb2dVertex
 10
6.950088
 20
6.595885
 30
0.0
  0
SEQEND
  5
3A8
100
AcDbEntity
  8
0
370
     0
390
0
  0
SPLINE
  5
3A9
100
AcDbEntity
  8
0
370
    35
390
0
 62
     7
 48
0.03937
100
AcDbSpline
210
0.0
220
0.0
230
1.0
 70
     8
 71
     5
 72
    15
 73
     9
 74
     0
 42
0.0
 43
0.0
 40
0.0
 40
0.0
 40
0.0
 40
0.0
 40
0.0
 40
0.0
 40
6.7512846114430749
 40
6.7512846114430749
 40
6.7512846114430749
 40
9.6062062734620888
 40
9.6062062734620888
 40
9.6062062734620888
 40
9.6062062734620888
 40
9.6062062734620888
 40
9.6062062734620888
 10
6.9160250552944884
 20
6.7705139151658491
 30
0.0
 10
6.9168322992153604
 20
6.7532482886825838
 30
0.0
 10
6.9192756222102112
 20
6.7356692908135365
 30
0.0
 10
6.923281409908169
 20
6.7182349773577279
 30
0.0
 10
6.9309926158520394
 20
6.6941776885536299
 30
0.0
 10
6.9413286181250662
 20
6.6718296967645339
 30
0.0
 10
6.9446386130014197
 20
6.6653297148433372
 30
0.0
 10
6.948172606245266
 20
6.6590223546032252
 30
0.0
 10
6.9519173623144184
 20
6.652940634960923
 30
0.0
  0
POLYLINE
  5
3AA
100
AcDbEntity
  8
0
370
    35
390
0
 62
     7
 48
0.03937
100
AcDb2dPolyline
 66
     1
 10
0.0
 20
0.0
 30
0.0
 71
     2
  0
VERTEX
  5
3AB
100
AcDbEntity
  8
0
370
     0
390
0
100
AcDbVertex
100
AcDb2dVertex
 10
6.920363
 20
6.762207
 30
0.0
 42
0.086911
  0
VERTEX
  5
3AC
100
AcDbEntity
  8
0
370
     0
390
0
100
AcDbVertex
100
AcDb2dVertex
 10
6.950783
 20
6.663012
 30
0.0
  0
SEQEND
  5
3AD
100
AcDbEntity
  8
0
370
     0
390
0
  0
SPLINE
  5
3AE
100
AcDbEntity
  8
0
370
    35
390
0
 62
     7
 48
0.03937
100
AcDbSpline
210
0.0
220
0.0
230
1.0
 70
     8
 71
     5
 72
    15
 73
     9
 74
     0
 42
0.0
 43
0.0
 40
0.0
 40
0.0
 40
0.0
 40
0.0
 40
0.0
 40
0.0
 40
6.5184195116508672
 40
6.5184195116508672
 40
6.5184195116508672
 40
9.2751784787876801
 40
9.2751784787876801
 40
9.2751784787876801
 40
9.2751784787876801
 40
9.2751784787876801
 40
9.2751784787876801
 10
6.9170009932259884
 20
6.7686993890851248
 30
0.0
 10
6.9179336237716944
 20
6.7519992353826765
 30
0.0
 10
6.9203875019815362
 20
6.7350195645177386
 30
0.0
 10
6.9242982283435417
 20
6.7181903385749937
 30
0.0
 10
6.9317362211379274
 20
6.6949609280232885
 30
0.0
 10
6.9416221491620096
 20
6.6733204360411449
 30
0.0
 10
6.9447817611503844
 20
6.6670206588311709
 30
0.0
 10
6.948151544055821
 20
6.6608952419375722
 30
0.0
 10
6.9517204708544931
 20
6.6549735134919201
 30
0.0
  0
LINE
  5
3AF
100
AcDbEntity
  8
0
370
    35
390
0
 62
     7
 48
0.017635
100
AcDbLine
 10
7.693013
 20
7.559982
 30
0.0
 11
7.022516
 21
7.340811
 31
0.0
210
0.0
220
0.0
230
1.0
  0
LINE
  5
3B0
100
AcDbEntity
  8
0
370
    35
390
0
 62
     7
 48
0.017635
100
AcDbLine
 10
9.074502
 20
3.333373
 30
0.0
 11
8.404005
 21
3.114203
 31
0.0
210
0.0
220
0.0
230
1.0
  0
LINE
  5
3B1
100
AcDbEntity
  8
0
370
    35
390
0
 62
     7
 48
0.000735
100
AcDbLine
 10
8.173757
 20
3.818638
 30
0.0
 11
8.14582
 21
3.809506
 31
0.0
210
0.0
220
0.0
230
1.0
  0
LINE
  5
3B2
100
AcDbEntity
  8
0
370
    35
390
0
 62
     7
 48
0.000735
100
AcDbLine
 10
7.252765
 20
6.636377
 30
0.0
 11
7.224827
 21
6.627244
 31
0.0
210
0.0
220
0.0
230
1.0
  0
INSERT
  5
578
100
AcDbEntity
  8
0
370
     0
390
0
100
AcDbBlockReference
  2
BLOCK1
 10
0.0
 20
0.0
 30
0.0
210
0.0
220
0.0
230
1.0
  0
INSERT
  5
579
100
AcDbEntity
  8
0
370
     0
390
0
100
AcDbBlockReference
  2
BLOCK2
 10
0.0
 20
0.0
 30
0.0
210
0.0
220
0.0
230
1.0
  0
INSERT
  5
57A
100
AcDbEntity
  8
0
370
     0
390
0
100
AcDbBlockReference
  2
BLOCK3
 10
0.0
 20
0.0
 30
0.0
210
0.0
220
0.0
230
1.0
  0
INSERT
  5
57B
100
AcDbEntity
  8
0
370
     0
390
0
100
AcDbBlockReference
  2
BLOCK4
 10
0.0
 20
0.0
 30
0.0
210
0.0
220
0.0
230
1.0
  0
INSERT
  5
57C
100
AcDbEntity
  8
0
370
     0
390
0
100
AcDbBlockReference
  2
BLOCK5
 10
0.0
 20
0.0
 30
0.0
210
0.0
220
0.0
230
1.0
  0
INSERT
  5
57D
100
AcDbEntity
  8
0
370
     0
390
0
100
AcDbBlockReference
  2
BLOCK6
 10
3.283566
 20
5.713163
 30
0.0
 41
0.592887
 42
0.592887
 43
0.592887
210
0.0
220
0.0
230
1.0
  0
INSERT
  5
57E
100
AcDbEntity
  8
0
370
     0
390
0
100
AcDbBlockReference
  2
BLOCK7
 10
3.283566
 20
5.713163
 30
0.0
 41
0.592887
 42
0.592887
 43
0.592887
210
0.0
220
0.0
230
1.0
  0
INSERT
  5
57F
100
AcDbEntity
  8
0
370
     0
390
0
100
AcDbBlockReference
  2
BLOCK8
 10
3.283566
 20
5.713163
 30
0.0
 41
0.592887
 42
0.592887
 43
0.592887
210
0.0
220
0.0
230
1.0
  0
INSERT
  5
580
100
AcDbEntity
  8
0
370
     0
390
0
100
AcDbBlockReference
  2
BLOCK9
 10
3.283566
 20
5.713163
 30
0.0
 41
0.592887
 42
0.592887
 43
0.592887
210
0.0
220
0.0
230
1.0
  0
INSERT
  5
581
100
AcDbEntity
  8
0
370
     0
390
0
100
AcDbBlockReference
  2
BLOCK10
 10
3.283566
 20
5.713163
 30
0.0
 41
0.592887
 42
0.592887
 43
0.592887
210
0.0
220
0.0
230
1.0
  0
INSERT
  5
582
100
AcDbEntity
  8
0
370
     0
390
0
100
AcDbBlockReference
  2
BLOCK11
 10
3.283566
 20
5.713163
 30
0.0
 41
0.592887
 42
0.592887
 43
0.592887
210
0.0
220
0.0
230
1.0
  0
INSERT
  5
583
100
AcDbEntity
  8
0
370
     0
390
0
100
AcDbBlockReference
  2
BLOCK12
 10
3.283566
 20
5.713163
 30
0.0
 41
0.592887
 42
0.592887
 43
0.592887
210
0.0
220
0.0
230
1.0
  0
INSERT
  5
584
100
AcDbEntity
  8
0
370
     0
390
0
100
AcDbBlockReference
  2
BLOCK13
 10
3.283566
 20
5.713163
 30
0.0
 41
0.592887
 42
0.592887
 43
0.592887
210
0.0
220
0.0
230
1.0
  0
INSERT
  5
585
100
AcDbEntity
  8
0
370
     0
390
0
100
AcDbBlockReference
  2
BLOCK14
 10
3.283566
 20
2.415895
 30
0.0
 41
0.592887
 42
0.592887
 43
0.592887
210
0.0
220
0.0
230
1.0
  0
INSERT
  5
586
100
AcDbEntity
  8
0
370
     0
390
0
100
AcDbBlockReference
  2
BLOCK15
 10
3.283566
 20
2.415895
 30
0.0
 41
0.592887
 42
0.592887
 43
0.592887
210
0.0
220
0.0
230
1.0
  0
INSERT
  5
587
100
AcDbEntity
  8
0
370
     0
390
0
100
AcDbBlockReference
  2
BLOCK16
 10
3.283566
 20
2.415895
 30
0.0
 41
0.592887
 42
0.592887
 43
0.592887
210
0.0
220
0.0
230
1.0
  0
INSERT
  5
588
100
AcDbEntity
  8
0
370
     0
390
0
100
AcDbBlockReference
  2
BLOCK17
 10
3.283566
 20
2.415895
 30
0.0
 41
0.592887
 42
0.592887
 43
0.592887
210
0.0
220
0.0
230
1.0
  0
INSERT
  5
589
100
AcDbEntity
  8
0
370
     0
390
0
100
AcDbBlockReference
  2
BLOCK18
 10
3.283566
 20
2.415895
 30
0.0
 41
0.592887
 42
0.592887
 43
0.592887
210
0.0
220
0.0
230
1.0
  0
INSERT
  5
58A
100
AcDbEntity
  8
0
370
     0
390
0
100
AcDbBlockReference
  2
BLOCK19
 10
3.283566
 20
2.415895
 30
0.0
 41
0.592887
 42
0.592887
 43
0.592887
210
0.0
220
0.0
230
1.0
  0
ENDSEC
  0
SECTION
  2
OBJECTS
  0
DICTIONARY
  5
19
100
AcDbDictionary
280
     0
281
     1
  3
ACAD_GROUP
350
1A
  3
ACAD_MLINESTYLE
350
1B
  3
ACAD_LAYOUT
350
1E
  3
ACAD_PLOTSETTINGS
350
22
  3
ACAD_PLOTSTYLENAME
350
1F
  3
ACAD_WIPEOUT_VARS
350
23
  0
DICTIONARY
  5
1A
102
{ACAD_REACTORS
330
19
102
}
100
AcDbDictionary
280
     0
281
     1
  0
DICTIONARY
  5
1B
102
{ACAD_REACTORS
330
19
102
}
100
AcDbDictionary
280
     0
281
     1
  3
Standard
350
1C
  0
MLINESTYLE
  5
1C
102
{ACAD_REACTORS
330
1B
102
}
100
AcDbMlineStyle
  2
Standard
 70
     0
  3

 62
     0
 51
90.0
 52
90.0
 71
     2
 49
0.5
 62
   256
  6
ByLayer
 49
-0.5
 62
   256
  6
ByLayer
  0
ACDBDICTIONARYWDFLT
  5
1F
102
{ACAD_REACTORS
330
19
102
}
100
AcDbDictionary
281
     1
  3
Normal
350
1D
100
AcDbDictionaryWithDefault
340
1D
  0
ACDBPLACEHOLDER
  5
1D
102
{ACAD_REACTORS
330
1F
102
}
  0
LAYOUT
  5
20
102
{ACAD_REACTORS
330
1E
102
}
100
AcDbPlotSettings
  1

  2

  4

  6

 40
0.0
 41
0.0
 42
0.0
 43
0.0
 44
0.0
 45
0.0
 46
0.0
 47
0.0
 48
0.0
 49
0.0
140
0.0
141
0.0
142
1.0
143
1.0
 70
  1024
 72
     0
 73
     0
 74
     0
  7

 75
     0
147
1.0
148
0.0
149
0.0
100
AcDbLayout
  1
Model
 70
     0
 71
     0
 10
0.0
 20
0.0
 11
0.0
 21
0.0
 12
0.0
 22
0.0
 32
0.0
 14
0.0
 24
0.0
 34
0.0
 15
0.0
 25
0.0
 35
0.0
146
0.0
 13
0.0
 23
0.0
 33
0.0
 16
0.0
 26
0.0
 36
0.0
 17
0.0
 27
0.0
 37
0.0
 76
     0
330
A
331
0
345
0
346
0
  0
LAYOUT
  5
21
102
{ACAD_REACTORS
330
1E
102
}
100
AcDbPlotSettings
  1

  2

  4

  6

 40
0.0
 41
0.0
 42
0.0
 43
0.0
 44
0.0
 45
0.0
 46
0.0
 47
0.0
 48
0.0
 49
0.0
140
0.0
141
0.0
142
1.0
143
1.0
 70
     0
 72
     0
 73
     0
 74
     0
  7

 75
     0
147
1.0
148
0.0
149
0.0
100
AcDbLayout
  1
Layout1
 70
     0
 71
     0
 10
0.0
 20
0.0
 11
0.0
 21
0.0
 12
0.0
 22
0.0
 32
0.0
 14
0.0
 24
0.0
 34
0.0
 15
0.0
 25
0.0
 35
0.0
146
0.0
 13
0.0
 23
0.0
 33
0.0
 16
0.0
 26
0.0
 36
0.0
 17
0.0
 27
0.0
 37
0.0
 76
     0
330
B
331
0
345
0
346
0
  0
DICTIONARY
  5
1E
102
{ACAD_REACTORS
330
19
102
}
100
AcDbDictionary
280
     0
281
     1
  3
Layout1
350
21
  3
Model
350
20
  0
DICTIONARY
  5
22
102
{ACAD_REACTORS
330
19
102
}
100
AcDbDictionary
280
     0
281
     1
  0
WIPEOUTVARIABLES
  5
23
100
AcDbWipeoutVariables
 70
     1
  0
ENDSEC
  0
EOF
