  0
SECTION
  2
HEADER
  9
$ACADVER
  1
AC1015
  9
$ACADMAINTVER
 70
     6
  9
$DWGCODEPAGE
  3
ANSI_1252
  9
$INSBASE
 10
0.0
 20
0.0
 30
0.0
  9
$EXTMIN
 10
0.0
 20
0.0
 30
0.0
  9
$EXTMAX
 10
248.209015
 20
5.367482
 30
2.0
  9
$LIMMIN
 10
0.0
 20
0.0
  9
$LIMMAX
 10
17.0
 20
11.0
  9
$ORTHOMODE
 70
     0
  9
$REGENMODE
 70
     1
  9
$FILLMODE
 70
     1
  9
$QTEXTMODE
 70
     0
  9
$MIRRTEXT
 70
     1
  9
$LTSCALE
 40
1.0
  9
$ATTMODE
 70
     1
  9
$TEXTSIZE
 40
0.2
  9
$TRACEWID
 40
0.05
  9
$TEXTSTYLE
  7
STANDARD
  9
$CLAYER
  8
0
  9
$CELTYPE
  6
ByLayer
  9
$CECOLOR
 62
   256
  9
$CELTSCALE
 40
1.0
  9
$DISPSILH
 70
     0
  9
$DIMSCALE
 40
1.0
  9
$DIMASZ
 40
0.18
  9
$DIMEXO
 40
0.0625
  9
$DIMDLI
 40
0.38
  9
$DIMRND
 40
0.0
  9
$DIMDLE
 40
0.0
  9
$DIMEXE
 40
0.18
  9
$DIMTP
 40
0.0
  9
$DIMTM
 40
0.0
  9
$DIMTXT
 40
0.18
  9
$DIMCEN
 40
0.09
  9
$DIMTSZ
 40
0.0
  9
$DIMTOL
 70
     0
  9
$DIMLIM
 70
     0
  9
$DIMTIH
 70
     1
  9
$DIMTOH
 70
     1
  9
$DIMSE1
 70
     0
  9
$DIMSE2
 70
     0
  9
$DIMTAD
 70
     0
  9
$DIMZIN
 70
     0
  9
$DIMBLK
  1

  9
$DIMASO
 70
     1
  9
$DIMSHO
 70
     1
  9
$DIMPOST
  1

  9
$DIMAPOST
  1

  9
$DIMALT
 70
     0
  9
$DIMALTD
 70
     2
  9
$DIMALTF
 40
25.4
  9
$DIMLFAC
 40
1.0
  9
$DIMTOFL
 70
     0
  9
$DIMTVP
 40
0.0
  9
$DIMTIX
 70
     0
  9
$DIMSOXD
 70
     0
  9
$DIMSAH
 70
     0
  9
$DIMBLK1
  1

  9
$DIMBLK2
  1

  9
$DIMSTYLE
  2
STANDARD
  9
$DIMCLRD
 70
     0
  9
$DIMCLRE
 70
     0
  9
$DIMCLRT
 70
     0
  9
$DIMTFAC
 40
1.0
  9
$DIMGAP
 40
0.09
  9
$DIMJUST
 70
     0
  9
$DIMSD1
 70
     0
  9
$DIMSD2
 70
     0
  9
$DIMTOLJ
 70
     1
  9
$DIMTZIN
 70
     0
  9
$DIMALTZ
 70
     0
  9
$DIMALTTZ
 70
     0
  9
$DIMUPT
 70
     0
  9
$DIMDEC
 70
     4
  9
$DIMTDEC
 70
     4
  9
$DIMALTU
 70
     2
  9
$DIMALTTD
 70
     2
  9
$DIMTXSTY
  7
STANDARD
  9
$DIMAUNIT
 70
     0
  9
$DIMADEC
 70
     0
  9
$DIMALTRND
 40
0.0
  9
$DIMAZIN
 70
     0
  9
$DIMDSEP
 70
    46
  9
$DIMATFIT
 70
     0
  9
$DIMFRAC
 70
     0
  9
$DIMLDRBLK
  1

  9
$DIMLUNIT
 70
     2
  9
$DIMLWD
 70
    -2
  9
$DIMLWE
 70
    -2
  9
$DIMTMOVE
 70
     0
  9
$LUNITS
 70
     2
  9
$LUPREC
 70
     4
  9
$SKETCHINC
 40
0.1
  9
$FILLETRAD
 40
0.125
  9
$AUNITS
 70
     0
  9
$AUPREC
 70
     0
  9
$MENU
  1
.
  9
$ELEVATION
 40
0.0
  9
$PELEVATION
 40
0.0
  9
$THICKNESS
 40
0.0
  9
$LIMCHECK
 70
     0
  9
$CHAMFERA
 40
0.125
  9
$CHAMFERB
 40
0.125
  9
$CHAMFERC
 40
0.0
  9
$CHAMFERD
 40
0.0
  9
$SKPOLY
 70
     0
  9
$TDCREATE
 40
0.000000000
  9
$TDUCREATE
 40
0.000000000
  9
$TDUPDATE
 40
0.000000000
  9
$TDUUPDATE
 40
0.000000000
  9
$TDINDWG
 40
0.0000000000
  9
$TDUSRTIMER
 40
0.0000000000
  9
$USRTIMER
 70
     1
  9
$ANGBASE
 50
0.0
  9
$ANGDIR
 70
     0
  9
$PDMODE
 70
     0
  9
$PDSIZE
 40
0.0
  9
$PLINEWID
 40
0.0
  9
$SPLFRAME
 70
     0
  9
$SPLINETYPE
 70
     6
  9
$SPLINESEGS
 70
     8
  9
$HANDSEED
  5
6F2
  9
$SURFTAB1
 70
     6
  9
$SURFTAB2
 70
     6
  9
$SURFTYPE
 70
     6
  9
$SURFU
 70
     6
  9
$SURFV
 70
     6
  9
$UCSBASE
  2

  9
$UCSNAME
  2

  9
$UCSORG
 10
0.0
 20
0.0
 30
0.0
  9
$UCSXDIR
 10
1.0
 20
0.0
 30
0.0
  9
$UCSYDIR
 10
0.0
 20
1.0
 30
0.0
  9
$UCSORTHOREF
  2

  9
$UCSORTHOVIEW
 70
     1
  9
$UCSORGTOP
 10
0.0
 20
0.0
 30
0.0
  9
$UCSORGBOTTOM
 10
0.0
 20
0.0
 30
0.0
  9
$UCSORGLEFT
 10
0.0
 20
0.0
 30
0.0
  9
$UCSORGRIGHT
 10
0.0
 20
0.0
 30
0.0
  9
$UCSORGFRONT
 10
0.0
 20
0.0
 30
0.0
  9
$UCSORGBACK
 10
0.0
 20
0.0
 30
0.0
  9
$PUCSBASE
  2

  9
$PUCSNAME
  2

  9
$PUCSORG
 10
0.0
 20
0.0
 30
0.0
  9
$PUCSXDIR
 10
1.0
 20
0.0
 30
0.0
  9
$PUCSYDIR
 10
0.0
 20
1.0
 30
0.0
  9
$PUCSORTHOREF
  2

  9
$PUCSORTHOVIEW
 70
     0
  9
$PUCSORGTOP
 10
0.0
 20
0.0
 30
0.0
  9
$PUCSORGBOTTOM
 10
0.0
 20
0.0
 30
0.0
  9
$PUCSORGLEFT
 10
0.0
 20
0.0
 30
0.0
  9
$PUCSORGRIGHT
 10
0.0
 20
0.0
 30
0.0
  9
$PUCSORGFRONT
 10
0.0
 20
0.0
 30
0.0
  9
$PUCSORGBACK
 10
0.0
 20
0.0
 30
0.0
  9
$USERI1
 70
     0
  9
$USERI2
 70
     0
  9
$USERI3
 70
     0
  9
$USERI4
 70
     0
  9
$USERI5
 70
     0
  9
$USERR1
 40
0.0
  9
$USERR2
 40
0.0
  9
$USERR3
 40
0.0
  9
$USERR4
 40
0.0
  9
$USERR5
 40
0.0
  9
$WORLDVIEW
 70
     1
  9
$SHADEDGE
 70
     3
  9
$SHADEDIF
 70
    70
  9
$TILEMODE
 70
     1
  9
$MAXACTVP
 70
    48
  9
$PINSBASE
 10
0.0
 20
0.0
 30
0.0
  9
$PLIMCHECK
 70
     0
  9
$PEXTMIN
 10
0.0
 20
0.0
 30
0.0
  9
$PEXTMAX
 10
248.209015
 20
5.367482
 30
2.0
  9
$PLIMMIN
 10
0.0
 20
0.0
  9
$PLIMMAX
 10
12.0
 20
9.0
  9
$UNITMODE
 70
     0
  9
$VISRETAIN
 70
     0
  9
$PLINEGEN
 70
     0
  9
$PSLTSCALE
 70
     1
  9
$TREEDEPTH
 70
  3020
  9
$CMLSTYLE
  2
Standard
  9
$CMLJUST
 70
     0
  9
$CMLSCALE
 40
1.0
  9
$PROXYGRAPHICS
 70
     1
  9
$MEASUREMENT
 70
     0
  9
$CELWEIGHT
370
    -1
  9
$ENDCAPS
280
     0
  9
$JOINSTYLE
280
     0
  9
$LWDISPLAY
290
     0
  9
$INSUNITS
 70
     0
  9
$HYPERLINKBASE
  1

  9
$STYLESHEET
  1

  9
$XEDIT
290
     1
  9
$CEPSNTYPE
380
     0
  9
$PSTYLEMODE
290
     0
  9
$FINGERPRINTGUID
  2

  9
$VERSIONGUID
  2

  9
$EXTNAMES
290
     0
  9
$PSVPSCALE
 40
0.0
  0
ENDSEC
  0
SECTION
  2
CLASSES
  0
CLASS
  1
LWPOLYLINE
  2
AcDbPolyline
  3
AutoCAD 2000
 90
        0
280
     0
281
     1
  0
CLASS
  1
IMAGE
  2
AcDbRasterImage
  3
ISM
 90
      127
280
     0
281
     1
  0
CLASS
  1
OLE2FRAME
  2
AcDbOle2Frame
  3
AutoCAD 2000
 90
        0
280
     0
281
     1
  0
CLASS
  1
HATCH
  2
AcDbHatch
  3
AutoCAD 2000
 90
        0
280
     0
281
     1
  0
CLASS
  1
DICTIONARYVAR
  2
AcDbDictionaryVar
  3
AutoCAD 2000
 90
        0
280
     0
281
     0
  0
CLASS
  1
RASTERVARIABLES
  2
AcDbRasterVariables
  3
ISM
 90
        0
280
     0
281
     0
  0
CLASS
  1
IMAGEDEF
  2
AcDbRasterImageDef
  3
ISM
 90
        0
280
     0
281
     0
  0
CLASS
  1
IMAGEDEF_REACTOR
  2
AcDbRasterImageDefReactor
  3
ISM
 90
        1
280
     0
281
     0
  0
CLASS
  1
IDBUFFER
  2
AcDbIdBuffer
  3
AutoCAD 2000
 90
        0
280
     0
281
     0
  0
CLASS
  1
SPATIAL_FILTER
  2
AcDbSpatialFilter
  3
AutoCAD 2000
 90
        0
280
     0
281
     0
  0
CLASS
  1
XRECORD
  2
AcDbXrecord
  3
AutoCAD 2000
 90
        0
280
     0
281
     0
  0
CLASS
  1
SORTENTSTABLE
  2
AcDbSortentsTable
  3
AutoCAD 2000
 90
        0
280
     0
281
     0
  0
CLASS
  1
LAYER_INDEX
  2
AcDbLayerIndex
  3
AutoCAD 2000
 90
        0
280
     0
281
     0
  0
CLASS
  1
SPATIAL_INDEX
  2
AcDbSpatialIndex
  3
AutoCAD 2000
 90
        0
280
     0
281
     0
  0
CLASS
  1
OBJECT_PTR
  2
CAseDLPNTableRecord
  3
"ASE-LPNTableRecord"
 90
        1
280
     0
281
     0
  0
CLASS
  1
LAYOUT
  2
AcDbLayout
  3
AutoCAD 2000
 90
        0
280
     0
281
     0
  0
CLASS
  1
PLOTSETTINGS
  2
AcDbPlotSettings
  3
AutoCAD 2000
 90
        0
280
     0
281
     0
  0
CLASS
  1
ACDBDICTIONARYWDFLT
  2
AcDbDictionaryWithDefault
  3
AutoCAD 2000
 90
        0
280
     0
281
     0
  0
CLASS
  1
ACDBPLACEHOLDER
  2
AcDbPlaceHolder
  3
AutoCAD 2000
 90
        0
280
     0
281
     0
  0
CLASS
  1
VBA_PROJECT
  2
AcDbVbaProject
  3
acadvba
 90
        0
280
     0
281
     0
  0
CLASS
  1
WIPEOUT
  2
AcDbWipeout
  3
WipeOut|AutoCAD Express Tool|expresstools@autodesk.com
 90
      127
280
     0
281
     1
  0
CLASS
  1
WIPEOUTVARIABLES
  2
AcDbWipeoutVariables
  3
WipeOut|AutoCAD Express Tool|expresstools@autodesk.com
 90
        0
280
     0
281
     0
  0
CLASS
  1
RTEXT
  2
RText
  3
RText|AutoCAD Express Tool|expresstools@autodesk.com
 90
        0
280
     0
281
     1
  0
CLASS
  1
ARCALIGNEDTEXT
  2
AcDbArcAlignedText
  3
ATEXT|AutoCAD Express Tool|expresstools@autodesk.com
 90
        0
280
     0
281
     1
  0
ENDSEC
  0
SECTION
  2
TABLES
  0
TABLE
  2
VPORT
  5
7
100
AcDbSymbolTable
 70
     1
  0
VPORT
  5
15
100
AcDbSymbolTableRecord
100
AcDbViewportTableRecord
  2
*ACTIVE
 70
     0
 10
0.0
 20
0.0
 11
1.0
 21
1.0
 12
6.591288
 22
4.579184
 13
0.0
 23
0.0
 14
1.0
 24
1.0
 15
0.0
 25
0.0
 16
0.0
 26
0.0
 36
1.0
 17
0.0
 27
0.0
 37
0.0
 40
9.158369
 41
0.688564
 42
50.0
 43
0.0
 44
0.0
 50
0.0
 51
0.0
 71
     0
 72
   100
 73
     1
 74
     1
 75
     0
 76
     0
 77
     0
 78
     0
281
     0
 65
     0
110
0.0
120
0.0
130
0.0
111
1.0
121
0.0
131
0.0
112
0.0
122
1.0
132
0.0
345
0
346
0
 79
     0
146
0.0
  0
ENDTAB
  0
TABLE
  2
LTYPE
  5
4
100
AcDbSymbolTable
 70
     4
  0
LTYPE
  5
11
100
AcDbSymbolTableRecord
100
AcDbLinetypeTableRecord
  2
ByBlock
 70
    64
  3

 72
    65
 73
     0
 40
0.0
  0
LTYPE
  5
12
100
AcDbSymbolTableRecord
100
AcDbLinetypeTableRecord
  2
ByLayer
 70
    64
  3

 72
    65
 73
     0
 40
0.0
  0
LTYPE
  5
13
100
AcDbSymbolTableRecord
100
AcDbLinetypeTableRecord
  2
Continuous
 70
    64
  3
Solid line
 72
    65
 73
     0
 40
0.0
  0
LTYPE
  5
24
100
AcDbSymbolTableRecord
100
AcDbLinetypeTableRecord
  2
DASHDOT
 70
     0
  3
 __ . __ . __ . __ . __ . __ . __ . 
 72
    65
 73
     4
 40
18.5
 49
12.0
 74
     0
 49
-3.0
 74
     0
 49
0.5
 74
     0
 49
-3.0
 74
     0
  0
ENDTAB
  0
TABLE
  2
LAYER
  5
2
100
AcDbSymbolTable
 70
     2
  0
LAYER
  5
14
100
AcDbSymbolTableRecord
100
AcDbLayerTableRecord
  2
0
 70
     0
 62
     7
  6
Continuous
290
     1
370
    13
390
1D
  0
LAYER
  5
25
100
AcDbSymbolTableRecord
100
AcDbLayerTableRecord
  2
1
 70
     0
 62
     7
  6
Continuous
290
     1
370
    13
390
1D
  0
ENDTAB
  0
TABLE
  2
STYLE
  5
3
100
AcDbSymbolTable
 70
     2
  0
STYLE
  5
17
100
AcDbSymbolTableRecord
100
AcDbTextStyleTableRecord
  2
STANDARD
 70
     0
 40
0.0
 41
1.0
 50
0.0
 71
     0
 42
0.0
  3
isocp.shx
  4

  0
STYLE
  5
26
100
AcDbSymbolTableRecord
100
AcDbTextStyleTableRecord
  2
GDT
 70
     0
 40
0.0
 41
1.0
 50
0.0
 71
     0
 42
0.0
  3
gdt.shx
  4

  0
ENDTAB
  0
TABLE
  2
VIEW
  5
5
100
AcDbSymbolTable
 70
     0
  0
ENDTAB
  0
TABLE
  2
UCS
  5
6
100
AcDbSymbolTable
 70
     0
  0
ENDTAB
  0
TABLE
  2
APPID
  5
8
100
AcDbSymbolTable
 70
     1
  0
APPID
  5
16
100
AcDbSymbolTableRecord
100
AcDbRegAppTableRecord
  2
ACAD
 70
     0
  0
ENDTAB
  0
TABLE
  2
DIMSTYLE
  5
9
100
AcDbSymbolTable
 70
     1
100
AcDbDimStyleTable
 71
     0
  0
DIMSTYLE
105
18
100
AcDbSymbolTableRecord
100
AcDbDimStyleTableRecord
  2
STANDARD
 70
     0
  3

  4

 40
1.0
 41
0.18
 42
0.0625
 43
0.38
 44
0.18
 45
0.0
 46
0.0
 47
0.0
 48
0.0
 71
     0
 72
     0
 73
     1
 74
     1
 75
     0
 76
     0
 77
     0
 78
     0
 79
     0
140
0.18
141
0.09
142
0.0
143
25.4
144
1.0
145
0.0
146
1.0
147
0.09
148
0.0
170
     0
171
     2
172
     0
173
     0
174
     0
175
     0
176
     0
177
     0
178
     0
179
     0
271
     4
272
     4
273
     2
274
     2
275
     0
276
     0
277
     2
278
    46
279
     0
280
     0
281
     0
282
     0
283
     1
284
     0
285
     0
286
     0
288
     0
289
     0
340
0
341
0
342
0
343
0
344
0
371
    -2
372
    -2
  0
ENDTAB
  0
TABLE
  2
BLOCK_RECORD
  5
1
100
AcDbSymbolTable
 70
    26
  0
BLOCK_RECORD
  5
A
100
AcDbSymbolTableRecord
100
AcDbBlockTableRecord
  2
*MODEL_SPACE
340
20
  0
BLOCK_RECORD
  5
B
100
AcDbSymbolTableRecord
100
AcDbBlockTableRecord
  2
*PAPER_SPACE
340
21
  0
BLOCK_RECORD
  5
458
100
AcDbSymbolTableRecord
100
AcDbBlockTableRecord
  2
BLOCK1
340
0
102
{BLKREFS
331
6D8
102
}
  0
BLOCK_RECORD
  5
459
100
AcDbSymbolTableRecord
100
AcDbBlockTableRecord
  2
BLOCK2
340
0
102
{BLKREFS
331
6D9
102
}
  0
BLOCK_RECORD
  5
45A
100
AcDbSymbolTableRecord
100
AcDbBlockTableRecord
  2
BLOCK3
340
0
102
{BLKREFS
331
6DA
102
}
  0
BLOCK_RECORD
  5
45B
100
AcDbSymbolTableRecord
100
AcDbBlockTableRecord
  2
BLOCK4
340
0
102
{BLKREFS
331
6DB
102
}
  0
BLOCK_RECORD
  5
45C
100
AcDbSymbolTableRecord
100
AcDbBlockTableRecord
  2
BLOCK5
340
0
102
{BLKREFS
331
6DC
102
}
  0
BLOCK_RECORD
  5
45D
100
AcDbSymbolTableRecord
100
AcDbBlockTableRecord
  2
BLOCK6
340
0
102
{BLKREFS
331
6DD
102
}
  0
BLOCK_RECORD
  5
45E
100
AcDbSymbolTableRecord
100
AcDbBlockTableRecord
  2
BLOCK7
340
0
102
{BLKREFS
331
6DE
102
}
  0
BLOCK_RECORD
  5
45F
100
AcDbSymbolTableRecord
100
AcDbBlockTableRecord
  2
BLOCK8
340
0
102
{BLKREFS
331
6DF
102
}
  0
BLOCK_RECORD
  5
460
100
AcDbSymbolTableRecord
100
AcDbBlockTableRecord
  2
BLOCK9
340
0
102
{BLKREFS
331
6E0
102
}
  0
BLOCK_RECORD
  5
461
100
AcDbSymbolTableRecord
100
AcDbBlockTableRecord
  2
BLOCK10
340
0
102
{BLKREFS
331
6E1
102
}
  0
BLOCK_RECORD
  5
462
100
AcDbSymbolTableRecord
100
AcDbBlockTableRecord
  2
BLOCK11
340
0
102
{BLKREFS
331
6E2
102
}
  0
BLOCK_RECORD
  5
463
100
AcDbSymbolTableRecord
100
AcDbBlockTableRecord
  2
BLOCK12
340
0
102
{BLKREFS
331
6E3
102
}
  0
BLOCK_RECORD
  5
464
100
AcDbSymbolTableRecord
100
AcDbBlockTableRecord
  2
BLOCK13
340
0
102
{BLKREFS
331
6E4
102
}
  0
BLOCK_RECORD
  5
465
100
AcDbSymbolTableRecord
100
AcDbBlockTableRecord
  2
BLOCK14
340
0
102
{BLKREFS
331
6E5
102
}
  0
BLOCK_RECORD
  5
466
100
AcDbSymbolTableRecord
100
AcDbBlockTableRecord
  2
BLOCK15
340
0
102
{BLKREFS
331
6E6
102
}
  0
BLOCK_RECORD
  5
467
100
AcDbSymbolTableRecord
100
AcDbBlockTableRecord
  2
BLOCK16
340
0
102
{BLKREFS
331
6E7
102
}
  0
BLOCK_RECORD
  5
468
100
AcDbSymbolTableRecord
100
AcDbBlockTableRecord
  2
BLOCK17
340
0
102
{BLKREFS
331
6E8
102
}
  0
BLOCK_RECORD
  5
469
100
AcDbSymbolTableRecord
100
AcDbBlockTableRecord
  2
BLOCK18
340
0
102
{BLKREFS
331
6E9
102
}
  0
BLOCK_RECORD
  5
46A
100
AcDbSymbolTableRecord
100
AcDbBlockTableRecord
  2
BLOCK19
340
0
102
{BLKREFS
331
6EA
102
}
  0
BLOCK_RECORD
  5
46B
100
AcDbSymbolTableRecord
100
AcDbBlockTableRecord
  2
BLOCK20
340
0
102
{BLKREFS
331
6EB
102
}
  0
BLOCK_RECORD
  5
46C
100
AcDbSymbolTableRecord
100
AcDbBlockTableRecord
  2
BLOCK21
340
0
102
{BLKREFS
331
6EC
102
}
  0
BLOCK_RECORD
  5
46D
100
AcDbSymbolTableRecord
100
AcDbBlockTableRecord
  2
BLOCK22
340
0
102
{BLKREFS
331
6ED
102
}
  0
BLOCK_RECORD
  5
46E
100
AcDbSymbolTableRecord
100
AcDbBlockTableRecord
  2
BLOCK23
340
0
102
{BLKREFS
331
6EE
102
}
  0
BLOCK_RECORD
  5
46F
100
AcDbSymbolTableRecord
100
AcDbBlockTableRecord
  2
BLOCK24
340
0
102
{BLKREFS
331
6EF
102
}
  0
BLOCK_RECORD
  5
470
100
AcDbSymbolTableRecord
100
AcDbBlockTableRecord
  2
BLOCK25
340
0
102
{BLKREFS
331
6F0
102
}
  0
BLOCK_RECORD
  5
471
100
AcDbSymbolTableRecord
100
AcDbBlockTableRecord
  2
BLOCK26
340
0
102
{BLKREFS
331
6F1
102
}
  0
ENDTAB
  0
ENDSEC
  0
SECTION
  2
BLOCKS
  0
BLOCK
  5
D
100
AcDbEntity
  8
0
390
0
100
AcDbBlockBegin
  2
*MODEL_SPACE
 70
     0
 10
0.0
 20
0.0
 30
0.0
  3
*MODEL_SPACE
  1

  0
ENDBLK
  5
E
100
AcDbEntity
  8
0
390
0
100
AcDbBlockEnd
  0
BLOCK
  5
F
100
AcDbEntity
 67
     1
  8
0
390
0
100
AcDbBlockBegin
  2
*PAPER_SPACE
 70
     0
 10
0.0
 20
0.0
 30
0.0
  3
*PAPER_SPACE
  1

  0
ENDBLK
  5
10
100
AcDbEntity
 67
     1
  8
0
390
0
100
AcDbBlockEnd
  0
BLOCK
  5
472
100
AcDbEntity
  8
0
370
     0
390
0
100
AcDbBlockBegin
  2
BLOCK1
 70
     0
 10
0.0
 20
0.0
 30
0.0
  3
BLOCK1
  1

  0
TEXT
  5
473
100
AcDbEntity
  8
0
370
    13
390
0
 62
     7
 48
0.03937
100
AcDbText
 10
8.157205
 20
0.85583
 30
0.0
 40
0.098425
  1
1500-EB-RF
 72
     5
 11
8.942888
 21
0.85583
 31
0.0
100
AcDbText
  0
TEXT
  5
474
100
AcDbEntity
  8
0
370
    13
390
0
 62
     7
 48
0.03937
100
AcDbText
 10
8.944387
 20
0.85583
 30
0.0
 40
0.098425
  1
-
 72
     5
 11
8.991324
 21
0.85583
 31
0.0
100
AcDbText
  0
TEXT
  5
475
100
AcDbEntity
  8
0
370
    13
390
0
 62
     7
 48
0.03937
100
AcDbText
 10
8.992824
 20
0.85583
 30
0.0
 40
0.098425
  1
STD-CONN-FLANGE
 72
     5
 11
10.441132
 21
0.85583
 31
0.0
100
AcDbText
  0
ENDBLK
  5
476
100
AcDbEntity
  8
0
390
0
100
AcDbBlockEnd
  0
BLOCK
  5
477
100
AcDbEntity
  8
0
370
     0
390
0
100
AcDbBlockBegin
  2
BLOCK2
 70
     0
 10
0.0
 20
0.0
 30
0.0
  3
BLOCK2
  1

  0
TEXT
  5
478
100
AcDbEntity
  8
0
370
    13
390
0
 62
     7
 48
0.03937
100
AcDbText
 10
8.431334
 20
1.043137
 30
0.0
 40
0.098425
  1
NOM. PIPE SIZE 
 72
     5
 11
9.61139
 21
1.043137
 31
0.0
100
AcDbText
  0
TEXT
  5
479
100
AcDbEntity
  8
0
370
    13
390
0
 62
     7
 48
0.03937
100
AcDbText
 10
9.61289
 20
1.043137
 30
0.0
 40
0.098425
  1
2.5
 72
     5
 11
9.793681
 21
1.043137
 31
0.0
100
AcDbText
  0
TEXT
  5
47A
100
AcDbEntity
  8
0
370
    13
390
0
 62
     7
 48
0.03937
100
AcDbText
 10
9.795181
 20
1.043137
 30
0.0
 40
0.098425
  1
 INCH
 72
     5
 11
10.217497
 21
1.043137
 31
0.0
100
AcDbText
  0
ENDBLK
  5
47B
100
AcDbEntity
  8
0
390
0
100
AcDbBlockEnd
  0
BLOCK
  5
47C
100
AcDbEntity
  8
0
370
     0
390
0
100
AcDbBlockBegin
  2
BLOCK3
 70
     0
 10
0.0
 20
0.0
 30
0.0
  3
BLOCK3
  1

  0
TEXT
  5
47D
100
AcDbEntity
  8
0
370
    13
390
0
 62
     7
 48
0.03937
100
AcDbText
 10
10.093103
 20
0.689966
 30
0.0
 40
0.06
  1
PO Box 2889
 72
     5
 11
10.730818
 21
0.689966
 31
0.0
100
AcDbText
  0
TEXT
  5
47E
100
AcDbEntity
  8
0
370
    13
390
0
 62
     7
 48
0.03937
100
AcDbText
 10
9.686702
 20
0.589966
 30
0.0
 40
0.06
  1
Pearland, TX 77588
 72
     5
 11
10.730818
 21
0.589966
 31
0.0
100
AcDbText
  0
TEXT
  5
47F
100
AcDbEntity
  8
0
370
    13
390
0
 62
     7
 48
0.03937
100
AcDbText
 10
9.802816
 20
0.489966
 30
0.0
 40
0.06
  1
PH: 800-826-3801
 72
     5
 11
10.730818
 21
0.489966
 31
0.0
100
AcDbText
  0
TEXT
  5
480
100
AcDbEntity
  8
0
370
    13
390
0
 62
     7
 48
0.03937
100
AcDbText
 10
9.744759
 20
0.389966
 30
0.0
 40
0.06
  1
FAX: 281-484-8730
 72
     5
 11
10.730818
 21
0.389966
 31
0.0
100
AcDbText
  0
TEXT
  5
481
100
AcDbEntity
  8
0
370
    13
390
0
 62
     7
 48
0.03937
100
AcDbText
 10
9.628644
 20
0.289966
 30
0.0
 40
0.06
  1
www.texasflange.com
 72
     5
 11
10.730818
 21
0.289966
 31
0.0
100
AcDbText
  0
ENDBLK
  5
482
100
AcDbEntity
  8
0
390
0
100
AcDbBlockEnd
  0
BLOCK
  5
483
100
AcDbEntity
  8
0
370
     0
390
0
100
AcDbBlockBegin
  2
BLOCK4
 70
     0
 10
0.0
 20
0.0
 30
0.0
  3
BLOCK4
  1

  0
TEXT
  5
484
100
AcDbEntity
  8
0
370
    13
390
0
 62
     7
 48
0.03937
100
AcDbText
 10
8.289209
 20
0.587871
 30
0.0
 40
0.2
  1
Texas
 72
     5
 11
9.383692
 21
0.587871
 31
0.0
100
AcDbText
  0
TEXT
  5
485
100
AcDbEntity
  8
0
370
    13
390
0
 62
     7
 48
0.03937
100
AcDbText
 10
8.289209
 20
0.327871
 30
0.0
 40
0.2
  1
Flange
 72
     5
 11
9.608945
 21
0.327871
 31
0.0
100
AcDbText
  0
ENDBLK
  5
486
100
AcDbEntity
  8
0
390
0
100
AcDbBlockEnd
  0
BLOCK
  5
487
100
AcDbEntity
  8
0
370
     0
390
0
100
AcDbBlockBegin
  2
BLOCK5
 70
     0
 10
0.0
 20
0.0
 30
0.0
  3
BLOCK5
  1

  0
LINE
  5
488
100
AcDbEntity
  8
0
370
     5
390
0
 62
     7
 48
0.00324
100
AcDbLine
 10
8.029831
 20
0.605292
 30
0.0
 11
7.900255
 21
0.604209
 31
0.0
210
0.0
220
0.0
230
1.0
  0
LINE
  5
489
100
AcDbEntity
  8
0
370
     5
390
0
 62
     7
 48
0.000103
100
AcDbLine
 10
7.900255
 20
0.604209
 30
0.0
 11
7.902151
 21
0.600546
 31
0.0
210
0.0
220
0.0
230
1.0
  0
LINE
  5
48A
100
AcDbEntity
  8
0
370
     5
390
0
 62
     7
 48
0.0001
100
AcDbLine
 10
7.902151
 20
0.600546
 30
0.0
 11
7.903945
 21
0.596951
 31
0.0
210
0.0
220
0.0
230
1.0
  0
LINE
  5
48B
100
AcDbEntity
  8
0
370
     5
390
0
 62
     7
 48
0.000098
100
AcDbLine
 10
7.903945
 20
0.596951
 30
0.0
 11
7.905638
 21
0.593424
 31
0.0
210
0.0
220
0.0
230
1.0
  0
LINE
  5
48C
100
AcDbEntity
  8
0
370
     5
390
0
 62
     7
 48
0.000095
100
AcDbLine
 10
7.905638
 20
0.593424
 30
0.0
 11
7.907229
 21
0.589967
 31
0.0
210
0.0
220
0.0
230
1.0
  0
LINE
  5
48D
100
AcDbEntity
  8
0
370
     5
390
0
 62
     7
 48
0.000093
100
AcDbLine
 10
7.907229
 20
0.589967
 30
0.0
 11
7.908719
 21
0.58658
 31
0.0
210
0.0
220
0.0
230
1.0
  0
LINE
  5
48E
100
AcDbEntity
  8
0
370
     5
390
0
 62
     7
 48
0.00009
100
AcDbLine
 10
7.908719
 20
0.58658
 30
0.0
 11
7.910106
 21
0.583262
 31
0.0
210
0.0
220
0.0
230
1.0
  0
LINE
  5
48F
100
AcDbEntity
  8
0
370
     5
390
0
 62
     7
 48
0.000087
100
AcDbLine
 10
7.910106
 20
0.583262
 30
0.0
 11
7.911392
 21
0.580013
 31
0.0
210
0.0
220
0.0
230
1.0
  0
LINE
  5
490
100
AcDbEntity
  8
0
370
     5
390
0
 62
     7
 48
0.000085
100
AcDbLine
 10
7.911392
 20
0.580013
 30
0.0
 11
7.912577
 21
0.576833
 31
0.0
210
0.0
220
0.0
230
1.0
  0
LINE
  5
491
100
AcDbEntity
  8
0
370
     5
390
0
 62
     7
 48
0.000082
100
AcDbLine
 10
7.912577
 20
0.576833
 30
0.0
 11
7.913659
 21
0.573722
 31
0.0
210
0.0
220
0.0
230
1.0
  0
LINE
  5
492
100
AcDbEntity
  8
0
370
     5
390
0
 62
     7
 48
0.000095
100
AcDbLine
 10
7.913659
 20
0.573722
 30
0.0
 11
7.915938
 21
0.570681
 31
0.0
210
0.0
220
0.0
230
1.0
  0
LINE
  5
493
100
AcDbEntity
  8
0
370
     5
390
0
 62
     7
 48
0.000066
100
AcDbLine
 10
7.915938
 20
0.570681
 30
0.0
 11
7.916123
 21
0.573306
 31
0.0
210
0.0
220
0.0
230
1.0
  0
LINE
  5
494
100
AcDbEntity
  8
0
370
     5
390
0
 62
     7
 48
0.000062
100
AcDbLine
 10
7.916123
 20
0.573306
 30
0.0
 11
7.916418
 21
0.575775
 31
0.0
210
0.0
220
0.0
230
1.0
  0
LINE
  5
495
100
AcDbEntity
  8
0
370
     5
390
0
 62
     7
 48
0.000059
100
AcDbLine
 10
7.916418
 20
0.575775
 30
0.0
 11
7.916824
 21
0.578087
 31
0.0
210
0.0
220
0.0
230
1.0
  0
LINE
  5
496
100
AcDbEntity
  8
0
370
     5
390
0
 62
     7
 48
0.000055
100
AcDbLine
 10
7.916824
 20
0.578087
 30
0.0
 11
7.917339
 21
0.580242
 31
0.0
210
0.0
220
0.0
230
1.0
  0
LINE
  5
497
100
AcDbEntity
  8
0
370
     5
390
0
 62
     7
 48
0.000052
100
AcDbLine
 10
7.917339
 20
0.580242
 30
0.0
 11
7.917966
 21
0.58224
 31
0.0
210
0.0
220
0.0
230
1.0
  0
LINE
  5
498
100
AcDbEntity
  8
0
370
     5
390
0
 62
     7
 48
0.00005
100
AcDbLine
 10
7.917966
 20
0.58224
 30
0.0
 11
7.918703
 21
0.584081
 31
0.0
210
0.0
220
0.0
230
1.0
  0
LINE
  5
499
100
AcDbEntity
  8
0
370
     5
390
0
 62
     7
 48
0.000047
100
AcDbLine
 10
7.918703
 20
0.584081
 30
0.0
 11
7.919549
 21
0.585767
 31
0.0
210
0.0
220
0.0
230
1.0
  0
LINE
  5
49A
100
AcDbEntity
  8
0
370
     5
390
0
 62
     7
 48
0.000045
100
AcDbLine
 10
7.919549
 20
0.585767
 30
0.0
 11
7.920506
 21
0.587294
 31
0.0
210
0.0
220
0.0
230
1.0
  0
LINE
  5
49B
100
AcDbEntity
  8
0
370
     5
390
0
 62
     7
 48
0.000043
100
AcDbLine
 10
7.920506
 20
0.587294
 30
0.0
 11
7.921574
 21
0.588665
 31
0.0
210
0.0
220
0.0
230
1.0
  0
LINE
  5
49C
100
AcDbEntity
  8
0
370
     5
390
0
 62
     7
 48
0.000042
100
AcDbLine
 10
7.921574
 20
0.588665
 30
0.0
 11
7.922751
 21
0.58988
 31
0.0
210
0.0
220
0.0
230
1.0
  0
LINE
  5
49D
100
AcDbEntity
  8
0
370
     5
390
0
 62
     7
 48
0.000042
100
AcDbLine
 10
7.922751
 20
0.58988
 30
0.0
 11
7.924063
 21
0.590958
 31
0.0
210
0.0
220
0.0
230
1.0
  0
LINE
  5
49E
100
AcDbEntity
  8
0
370
     5
390
0
 62
     7
 48
0.000044
100
AcDbLine
 10
7.924063
 20
0.590958
 30
0.0
 11
7.92553
 21
0.591923
 31
0.0
210
0.0
220
0.0
230
1.0
  0
LINE
  5
49F
100
AcDbEntity
  8
0
370
     5
390
0
 62
     7
 48
0.000046
100
AcDbLine
 10
7.92553
 20
0.591923
 30
0.0
 11
7.927152
 21
0.592775
 31
0.0
210
0.0
220
0.0
230
1.0
  0
LINE
  5
4A0
100
AcDbEntity
  8
0
370
     5
390
0
 62
     7
 48
0.000048
100
AcDbLine
 10
7.927152
 20
0.592775
 30
0.0
 11
7.92893
 21
0.593513
 31
0.0
210
0.0
220
0.0
230
1.0
  0
LINE
  5
4A1
100
AcDbEntity
  8
0
370
     5
390
0
 62
     7
 48
0.000051
100
AcDbLine
 10
7.92893
 20
0.593513
 30
0.0
 11
7.930864
 21
0.594138
 31
0.0
210
0.0
220
0.0
230
1.0
  0
LINE
  5
4A2
100
AcDbEntity
  8
0
370
     5
390
0
 62
     7
 48
0.000054
100
AcDbLine
 10
7.930864
 20
0.594138
 30
0.0
 11
7.932953
 21
0.594648
 31
0.0
210
0.0
220
0.0
230
1.0
  0
LINE
  5
4A3
100
AcDbEntity
  8
0
370
     5
390
0
 62
     7
 48
0.000057
100
AcDbLine
 10
7.932953
 20
0.594648
 30
0.0
 11
7.9352
 21
0.595046
 31
0.0
210
0.0
220
0.0
230
1.0
  0
LINE
  5
4A4
100
AcDbEntity
  8
0
370
     5
390
0
 62
     7
 48
0.00006
100
AcDbLine
 10
7.9352
 20
0.595046
 30
0.0
 11
7.9376
 21
0.595331
 31
0.0
210
0.0
220
0.0
230
1.0
  0
LINE
  5
4A5
100
AcDbEntity
  8
0
370
     5
390
0
 62
     7
 48
0.000064
100
AcDbLine
 10
7.9376
 20
0.595331
 30
0.0
 11
7.940158
 21
0.5955
 31
0.0
210
0.0
220
0.0
230
1.0
  0
LINE
  5
4A6
100
AcDbEntity
  8
0
370
     5
390
0
 62
     7
 48
0.000068
100
AcDbLine
 10
7.940158
 20
0.5955
 30
0.0
 11
7.94287
 21
0.595557
 31
0.0
210
0.0
220
0.0
230
1.0
  0
LINE
  5
4A7
100
AcDbEntity
  8
0
370
     5
390
0
 62
     7
 48
0.00005
100
AcDbLine
 10
7.94287
 20
0.595557
 30
0.0
 11
7.944881
 21
0.595532
 31
0.0
210
0.0
220
0.0
230
1.0
  0
LINE
  5
4A8
100
AcDbEntity
  8
0
370
     5
390
0
 62
     7
 48
0.000051
100
AcDbLine
 10
7.944881
 20
0.595532
 30
0.0
 11
7.946936
 21
0.595454
 31
0.0
210
0.0
220
0.0
230
1.0
  0
LINE
  5
4A9
100
AcDbEntity
  8
0
370
     5
390
0
 62
     7
 48
0.000053
100
AcDbLine
 10
7.946936
 20
0.595454
 30
0.0
 11
7.949034
 21
0.595323
 31
0.0
210
0.0
220
0.0
230
1.0
  0
LINE
  5
4AA
100
AcDbEntity
  8
0
370
     5
390
0
 62
     7
 48
0.000054
100
AcDbLine
 10
7.949034
 20
0.595323
 30
0.0
 11
7.951177
 21
0.595142
 31
0.0
210
0.0
220
0.0
230
1.0
  0
LINE
  5
4AB
100
AcDbEntity
  8
0
370
     5
390
0
 62
     7
 48
0.000055
100
AcDbLine
 10
7.951177
 20
0.595142
 30
0.0
 11
7.953361
 21
0.594908
 31
0.0
210
0.0
220
0.0
230
1.0
  0
LINE
  5
4AC
100
AcDbEntity
  8
0
370
     5
390
0
 62
     7
 48
0.000136
100
AcDbLine
 10
7.953361
 20
0.594908
 30
0.0
 11
7.952171
 21
0.589608
 31
0.0
210
0.0
220
0.0
230
1.0
  0
LINE
  5
4AD
100
AcDbEntity
  8
0
370
     5
390
0
 62
     7
 48
0.000162
100
AcDbLine
 10
7.952171
 20
0.589608
 30
0.0
 11
7.945682
 21
0.589716
 31
0.0
210
0.0
220
0.0
230
1.0
  0
LINE
  5
4AE
100
AcDbEntity
  8
0
370
     5
390
0
 62
     7
 48
0.00006
100
AcDbLine
 10
7.945682
 20
0.589716
 30
0.0
 11
7.943286
 21
0.589667
 31
0.0
210
0.0
220
0.0
230
1.0
  0
LINE
  5
4AF
100
AcDbEntity
  8
0
370
     5
390
0
 62
     7
 48
0.000057
100
AcDbLine
 10
7.943286
 20
0.589667
 30
0.0
 11
7.941029
 21
0.589518
 31
0.0
210
0.0
220
0.0
230
1.0
  0
LINE
  5
4B0
100
AcDbEntity
  8
0
370
     5
390
0
 62
     7
 48
0.000053
100
AcDbLine
 10
7.941029
 20
0.589518
 30
0.0
 11
7.938912
 21
0.589269
 31
0.0
210
0.0
220
0.0
230
1.0
  0
LINE
  5
4B1
100
AcDbEntity
  8
0
370
     5
390
0
 62
     7
 48
0.00005
100
AcDbLine
 10
7.938912
 20
0.589269
 30
0.0
 11
7.936934
 21
0.588921
 31
0.0
210
0.0
220
0.0
230
1.0
  0
LINE
  5
4B2
100
AcDbEntity
  8
0
370
     5
390
0
 62
     7
 48
0.000047
100
AcDbLine
 10
7.936934
 20
0.588921
 30
0.0
 11
7.935095
 21
0.588473
 31
0.0
210
0.0
220
0.0
230
1.0
  0
LINE
  5
4B3
100
AcDbEntity
  8
0
370
     5
390
0
 62
     7
 48
0.000045
100
AcDbLine
 10
7.935095
 20
0.588473
 30
0.0
 11
7.933397
 21
0.587925
 31
0.0
210
0.0
220
0.0
230
1.0
  0
LINE
  5
4B4
100
AcDbEntity
  8
0
370
     5
390
0
 62
     7
 48
0.000042
100
AcDbLine
 10
7.933397
 20
0.587925
 30
0.0
 11
7.931839
 21
0.587279
 31
0.0
210
0.0
220
0.0
230
1.0
  0
LINE
  5
4B5
100
AcDbEntity
  8
0
370
     5
390
0
 62
     7
 48
0.00004
100
AcDbLine
 10
7.931839
 20
0.587279
 30
0.0
 11
7.930418
 21
0.586532
 31
0.0
210
0.0
220
0.0
230
1.0
  0
LINE
  5
4B6
100
AcDbEntity
  8
0
370
     5
390
0
 62
     7
 48
0.000038
100
AcDbLine
 10
7.930418
 20
0.586532
 30
0.0
 11
7.929138
 21
0.585687
 31
0.0
210
0.0
220
0.0
230
1.0
  0
LINE
  5
4B7
100
AcDbEntity
  8
0
370
     5
390
0
 62
     7
 48
0.000074
100
AcDbLine
 10
7.929138
 20
0.585687
 30
0.0
 11
7.926968
 21
0.58367
 31
0.0
210
0.0
220
0.0
230
1.0
  0
LINE
  5
4B8
100
AcDbEntity
  8
0
370
     5
390
0
 62
     7
 48
0.000039
100
AcDbLine
 10
7.926968
 20
0.58367
 30
0.0
 11
7.926023
 21
0.582444
 31
0.0
210
0.0
220
0.0
230
1.0
  0
LINE
  5
4B9
100
AcDbEntity
  8
0
370
     5
390
0
 62
     7
 48
0.000041
100
AcDbLine
 10
7.926023
 20
0.582444
 30
0.0
 11
7.92516
 21
0.581064
 31
0.0
210
0.0
220
0.0
230
1.0
  0
LINE
  5
4BA
100
AcDbEntity
  8
0
370
     5
390
0
 62
     7
 48
0.000043
100
AcDbLine
 10
7.92516
 20
0.581064
 30
0.0
 11
7.924381
 21
0.579533
 31
0.0
210
0.0
220
0.0
230
1.0
  0
LINE
  5
4BB
100
AcDbEntity
  8
0
370
     5
390
0
 62
     7
 48
0.000046
100
AcDbLine
 10
7.924381
 20
0.579533
 30
0.0
 11
7.923684
 21
0.577847
 31
0.0
210
0.0
220
0.0
230
1.0
  0
LINE
  5
4BC
100
AcDbEntity
  8
0
370
     5
390
0
 62
     7
 48
0.000048
100
AcDbLine
 10
7.923684
 20
0.577847
 30
0.0
 11
7.923073
 21
0.576006
 31
0.0
210
0.0
220
0.0
230
1.0
  0
LINE
  5
4BD
100
AcDbEntity
  8
0
370
     5
390
0
 62
     7
 48
0.000052
100
AcDbLine
 10
7.923073
 20
0.576006
 30
0.0
 11
7.922543
 21
0.574013
 31
0.0
210
0.0
220
0.0
230
1.0
  0
LINE
  5
4BE
100
AcDbEntity
  8
0
370
     5
390
0
 62
     7
 48
0.000055
100
AcDbLine
 10
7.922543
 20
0.574013
 30
0.0
 11
7.922096
 21
0.571866
 31
0.0
210
0.0
220
0.0
230
1.0
  0
LINE
  5
4BF
100
AcDbEntity
  8
0
370
     5
390
0
 62
     7
 48
0.000058
100
AcDbLine
 10
7.922096
 20
0.571866
 30
0.0
 11
7.921734
 21
0.569565
 31
0.0
210
0.0
220
0.0
230
1.0
  0
LINE
  5
4C0
100
AcDbEntity
  8
0
370
     5
390
0
 62
     7
 48
0.000062
100
AcDbLine
 10
7.921734
 20
0.569565
 30
0.0
 11
7.921454
 21
0.567111
 31
0.0
210
0.0
220
0.0
230
1.0
  0
LINE
  5
4C1
100
AcDbEntity
  8
0
370
     5
390
0
 62
     7
 48
0.00007
100
AcDbLine
 10
7.921454
 20
0.567111
 30
0.0
 11
7.924266
 21
0.567111
 31
0.0
210
0.0
220
0.0
230
1.0
  0
LINE
  5
4C2
100
AcDbEntity
  8
0
370
     5
390
0
 62
     7
 48
0.000054
100
AcDbLine
 10
7.924266
 20
0.567111
 30
0.0
 11
7.924478
 21
0.569252
 31
0.0
210
0.0
220
0.0
230
1.0
  0
LINE
  5
4C3
100
AcDbEntity
  8
0
370
     5
390
0
 62
     7
 48
0.000051
100
AcDbLine
 10
7.924478
 20
0.569252
 30
0.0
 11
7.924766
 21
0.571259
 31
0.0
210
0.0
220
0.0
230
1.0
  0
LINE
  5
4C4
100
AcDbEntity
  8
0
370
     5
390
0
 62
     7
 48
0.000048
100
AcDbLine
 10
7.924766
 20
0.571259
 30
0.0
 11
7.92513
 21
0.573132
 31
0.0
210
0.0
220
0.0
230
1.0
  0
LINE
  5
4C5
100
AcDbEntity
  8
0
370
     5
390
0
 62
     7
 48
0.000045
100
AcDbLine
 10
7.92513
 20
0.573132
 30
0.0
 11
7.925573
 21
0.574872
 31
0.0
210
0.0
220
0.0
230
1.0
  0
LINE
  5
4C6
100
AcDbEntity
  8
0
370
     5
390
0
 62
     7
 48
0.000042
100
AcDbLine
 10
7.925573
 20
0.574872
 30
0.0
 11
7.926092
 21
0.57648
 31
0.0
210
0.0
220
0.0
230
1.0
  0
LINE
  5
4C7
100
AcDbEntity
  8
0
370
     5
390
0
 62
     7
 48
0.000077
100
AcDbLine
 10
7.926092
 20
0.57648
 30
0.0
 11
7.92736
 21
0.579297
 31
0.0
210
0.0
220
0.0
230
1.0
  0
LINE
  5
4C8
100
AcDbEntity
  8
0
370
     5
390
0
 62
     7
 48
0.000069
100
AcDbLine
 10
7.92736
 20
0.579297
 30
0.0
 11
7.928935
 21
0.581582
 31
0.0
210
0.0
220
0.0
230
1.0
  0
LINE
  5
4C9
100
AcDbEntity
  8
0
370
     5
390
0
 62
     7
 48
0.000065
100
AcDbLine
 10
7.928935
 20
0.581582
 30
0.0
 11
7.930843
 21
0.583356
 31
0.0
210
0.0
220
0.0
230
1.0
  0
LINE
  5
4CA
100
AcDbEntity
  8
0
370
     5
390
0
 62
     7
 48
0.000069
100
AcDbLine
 10
7.930843
 20
0.583356
 30
0.0
 11
7.93324
 21
0.584759
 31
0.0
210
0.0
220
0.0
230
1.0
  0
LINE
  5
4CB
100
AcDbEntity
  8
0
370
     5
390
0
 62
     7
 48
0.000038
100
AcDbLine
 10
7.93324
 20
0.584759
 30
0.0
 11
7.93463
 21
0.585327
 31
0.0
210
0.0
220
0.0
230
1.0
  0
LINE
  5
4CC
100
AcDbEntity
  8
0
370
     5
390
0
 62
     7
 48
0.00004
100
AcDbLine
 10
7.93463
 20
0.585327
 30
0.0
 11
7.936151
 21
0.585809
 31
0.0
210
0.0
220
0.0
230
1.0
  0
LINE
  5
4CD
100
AcDbEntity
  8
0
370
     5
390
0
 62
     7
 48
0.000042
100
AcDbLine
 10
7.936151
 20
0.585809
 30
0.0
 11
7.937799
 21
0.586203
 31
0.0
210
0.0
220
0.0
230
1.0
  0
LINE
  5
4CE
100
AcDbEntity
  8
0
370
     5
390
0
 62
     7
 48
0.000045
100
AcDbLine
 10
7.937799
 20
0.586203
 30
0.0
 11
7.939577
 21
0.586511
 31
0.0
210
0.0
220
0.0
230
1.0
  0
LINE
  5
4CF
100
AcDbEntity
  8
0
370
     5
390
0
 62
     7
 48
0.000048
100
AcDbLine
 10
7.939577
 20
0.586511
 30
0.0
 11
7.941484
 21
0.58673
 31
0.0
210
0.0
220
0.0
230
1.0
  0
LINE
  5
4D0
100
AcDbEntity
  8
0
370
     5
390
0
 62
     7
 48
0.000051
100
AcDbLine
 10
7.941484
 20
0.58673
 30
0.0
 11
7.943519
 21
0.58686
 31
0.0
210
0.0
220
0.0
230
1.0
  0
LINE
  5
4D1
100
AcDbEntity
  8
0
370
     5
390
0
 62
     7
 48
0.000054
100
AcDbLine
 10
7.943519
 20
0.58686
 30
0.0
 11
7.945682
 21
0.586905
 31
0.0
210
0.0
220
0.0
230
1.0
  0
LINE
  5
4D2
100
AcDbEntity
  8
0
370
     5
390
0
 62
     7
 48
0.000192
100
AcDbLine
 10
7.945682
 20
0.586905
 30
0.0
 11
7.953361
 21
0.586796
 31
0.0
210
0.0
220
0.0
230
1.0
  0
LINE
  5
4D3
100
AcDbEntity
  8
0
370
     5
390
0
 62
     7
 48
0.00269
100
AcDbLine
 10
7.953361
 20
0.586796
 30
0.0
 11
7.953361
 21
0.479178
 31
0.0
210
0.0
220
0.0
230
1.0
  0
LINE
  5
4D4
100
AcDbEntity
  8
0
370
     5
390
0
 62
     7
 48
0.000493
100
AcDbLine
 10
7.953361
 20
0.479178
 30
0.0
 11
7.93822
 21
0.466523
 31
0.0
210
0.0
220
0.0
230
1.0
  0
LINE
  5
4D5
100
AcDbEntity
  8
0
370
     5
390
0
 62
     7
 48
0.001236
100
AcDbLine
 10
7.93822
 20
0.466523
 30
0.0
 11
7.987647
 21
0.466523
 31
0.0
210
0.0
220
0.0
230
1.0
  0
LINE
  5
4D6
100
AcDbEntity
  8
0
370
     5
390
0
 62
     7
 48
0.000434
100
AcDbLine
 10
7.987647
 20
0.466523
 30
0.0
 11
7.974885
 21
0.478313
 31
0.0
210
0.0
220
0.0
230
1.0
  0
LINE
  5
4D7
100
AcDbEntity
  8
0
370
     5
390
0
 62
     7
 48
0.002931
100
AcDbLine
 10
7.974885
 20
0.478313
 30
0.0
 11
7.976183
 21
0.595557
 31
0.0
210
0.0
220
0.0
230
1.0
  0
LINE
  5
4D8
100
AcDbEntity
  8
0
370
     5
390
0
 62
     7
 48
0.000049
100
AcDbLine
 10
7.976183
 20
0.595557
 30
0.0
 11
7.97813
 21
0.595713
 31
0.0
210
0.0
220
0.0
230
1.0
  0
LINE
  5
4D9
100
AcDbEntity
  8
0
370
     5
390
0
 62
     7
 48
0.000049
100
AcDbLine
 10
7.97813
 20
0.595713
 30
0.0
 11
7.980077
 21
0.595835
 31
0.0
210
0.0
220
0.0
230
1.0
  0
LINE
  5
4DA
100
AcDbEntity
  8
0
370
     5
390
0
 62
     7
 48
0.000049
100
AcDbLine
 10
7.980077
 20
0.595835
 30
0.0
 11
7.982024
 21
0.59592
 31
0.0
210
0.0
220
0.0
230
1.0
  0
LINE
  5
4DB
100
AcDbEntity
  8
0
370
     5
390
0
 62
     7
 48
0.000049
100
AcDbLine
 10
7.982024
 20
0.59592
 30
0.0
 11
7.983971
 21
0.595973
 31
0.0
210
0.0
220
0.0
230
1.0
  0
LINE
  5
4DC
100
AcDbEntity
  8
0
370
     5
390
0
 62
     7
 48
0.000049
100
AcDbLine
 10
7.983971
 20
0.595973
 30
0.0
 11
7.985918
 21
0.595991
 31
0.0
210
0.0
220
0.0
230
1.0
  0
LINE
  5
4DD
100
AcDbEntity
  8
0
370
     5
390
0
 62
     7
 48
0.000058
100
AcDbLine
 10
7.985918
 20
0.595991
 30
0.0
 11
7.988236
 21
0.595943
 31
0.0
210
0.0
220
0.0
230
1.0
  0
LINE
  5
4DE
100
AcDbEntity
  8
0
370
     5
390
0
 62
     7
 48
0.000055
100
AcDbLine
 10
7.988236
 20
0.595943
 30
0.0
 11
7.990431
 21
0.595799
 31
0.0
210
0.0
220
0.0
230
1.0
  0
LINE
  5
4DF
100
AcDbEntity
  8
0
370
     5
390
0
 62
     7
 48
0.000052
100
AcDbLine
 10
7.990431
 20
0.595799
 30
0.0
 11
7.992506
 21
0.595562
 31
0.0
210
0.0
220
0.0
230
1.0
  0
LINE
  5
4E0
100
AcDbEntity
  8
0
370
     5
390
0
 62
     7
 48
0.000049
100
AcDbLine
 10
7.992506
 20
0.595562
 30
0.0
 11
7.994457
 21
0.595229
 31
0.0
210
0.0
220
0.0
230
1.0
  0
LINE
  5
4E1
100
AcDbEntity
  8
0
370
     5
390
0
 62
     7
 48
0.000047
100
AcDbLine
 10
7.994457
 20
0.595229
 30
0.0
 11
7.996287
 21
0.5948
 31
0.0
210
0.0
220
0.0
230
1.0
  0
LINE
  5
4E2
100
AcDbEntity
  8
0
370
     5
390
0
 62
     7
 48
0.000045
100
AcDbLine
 10
7.996287
 20
0.5948
 30
0.0
 11
7.997995
 21
0.594276
 31
0.0
210
0.0
220
0.0
230
1.0
  0
LINE
  5
4E3
100
AcDbEntity
  8
0
370
     5
390
0
 62
     7
 48
0.000043
100
AcDbLine
 10
7.997995
 20
0.594276
 30
0.0
 11
7.99958
 21
0.593658
 31
0.0
210
0.0
220
0.0
230
1.0
  0
LINE
  5
4E4
100
AcDbEntity
  8
0
370
     5
390
0
 62
     7
 48
0.000041
100
AcDbLine
 10
7.99958
 20
0.593658
 30
0.0
 11
8.001043
 21
0.592944
 31
0.0
210
0.0
220
0.0
230
1.0
  0
LINE
  5
4E5
100
AcDbEntity
  8
0
370
     5
390
0
 62
     7
 48
0.000039
100
AcDbLine
 10
8.001043
 20
0.592944
 30
0.0
 11
8.002384
 21
0.592136
 31
0.0
210
0.0
220
0.0
230
1.0
  0
LINE
  5
4E6
100
AcDbEntity
  8
0
370
     5
390
0
 62
     7
 48
0.000038
100
AcDbLine
 10
8.002384
 20
0.592136
 30
0.0
 11
8.003601
 21
0.591231
 31
0.0
210
0.0
220
0.0
230
1.0
  0
LINE
  5
4E7
100
AcDbEntity
  8
0
370
     5
390
0
 62
     7
 48
0.000038
100
AcDbLine
 10
8.003601
 20
0.591231
 30
0.0
 11
8.004733
 21
0.590204
 31
0.0
210
0.0
220
0.0
230
1.0
  0
LINE
  5
4E8
100
AcDbEntity
  8
0
370
     5
390
0
 62
     7
 48
0.00004
100
AcDbLine
 10
8.004733
 20
0.590204
 30
0.0
 11
8.00581
 21
0.589025
 31
0.0
210
0.0
220
0.0
230
1.0
  0
LINE
  5
4E9
100
AcDbEntity
  8
0
370
     5
390
0
 62
     7
 48
0.000042
100
AcDbLine
 10
8.00581
 20
0.589025
 30
0.0
 11
8.006836
 21
0.587694
 31
0.0
210
0.0
220
0.0
230
1.0
  0
LINE
  5
4EA
100
AcDbEntity
  8
0
370
     5
390
0
 62
     7
 48
0.000044
100
AcDbLine
 10
8.006836
 20
0.587694
 30
0.0
 11
8.007806
 21
0.586212
 31
0.0
210
0.0
220
0.0
230
1.0
  0
LINE
  5
4EB
100
AcDbEntity
  8
0
370
     5
390
0
 62
     7
 48
0.000047
100
AcDbLine
 10
8.007806
 20
0.586212
 30
0.0
 11
8.008726
 21
0.584579
 31
0.0
210
0.0
220
0.0
230
1.0
  0
LINE
  5
4EC
100
AcDbEntity
  8
0
370
     5
390
0
 62
     7
 48
0.00005
100
AcDbLine
 10
8.008726
 20
0.584579
 30
0.0
 11
8.009591
 21
0.582795
 31
0.0
210
0.0
220
0.0
230
1.0
  0
LINE
  5
4ED
100
AcDbEntity
  8
0
370
     5
390
0
 62
     7
 48
0.000053
100
AcDbLine
 10
8.009591
 20
0.582795
 30
0.0
 11
8.010404
 21
0.580859
 31
0.0
210
0.0
220
0.0
230
1.0
  0
LINE
  5
4EE
100
AcDbEntity
  8
0
370
     5
390
0
 62
     7
 48
0.000056
100
AcDbLine
 10
8.010404
 20
0.580859
 30
0.0
 11
8.011163
 21
0.578771
 31
0.0
210
0.0
220
0.0
230
1.0
  0
LINE
  5
4EF
100
AcDbEntity
  8
0
370
     5
390
0
 62
     7
 48
0.000059
100
AcDbLine
 10
8.011163
 20
0.578771
 30
0.0
 11
8.011871
 21
0.576531
 31
0.0
210
0.0
220
0.0
230
1.0
  0
LINE
  5
4F0
100
AcDbEntity
  8
0
370
     5
390
0
 62
     7
 48
0.000062
100
AcDbLine
 10
8.011871
 20
0.576531
 30
0.0
 11
8.012525
 21
0.574142
 31
0.0
210
0.0
220
0.0
230
1.0
  0
LINE
  5
4F1
100
AcDbEntity
  8
0
370
     5
390
0
 62
     7
 48
0.000057
100
AcDbLine
 10
8.012525
 20
0.574142
 30
0.0
 11
8.014147
 21
0.572519
 31
0.0
210
0.0
220
0.0
230
1.0
  0
LINE
  5
4F2
100
AcDbEntity
  8
0
370
     5
390
0
 62
     7
 48
0.000054
100
AcDbLine
 10
8.014147
 20
0.572519
 30
0.0
 11
8.014802
 21
0.574562
 31
0.0
210
0.0
220
0.0
230
1.0
  0
LINE
  5
4F3
100
AcDbEntity
  8
0
370
     5
390
0
 62
     7
 48
0.000052
100
AcDbLine
 10
8.014802
 20
0.574562
 30
0.0
 11
8.015467
 21
0.576534
 31
0.0
210
0.0
220
0.0
230
1.0
  0
LINE
  5
4F4
100
AcDbEntity
  8
0
370
     5
390
0
 62
     7
 48
0.000051
100
AcDbLine
 10
8.015467
 20
0.576534
 30
0.0
 11
8.016143
 21
0.578438
 31
0.0
210
0.0
220
0.0
230
1.0
  0
LINE
  5
4F5
100
AcDbEntity
  8
0
370
     5
390
0
 62
     7
 48
0.000049
100
AcDbLine
 10
8.016143
 20
0.578438
 30
0.0
 11
8.01683
 21
0.580272
 31
0.0
210
0.0
220
0.0
230
1.0
  0
LINE
  5
4F6
100
AcDbEntity
  8
0
370
     5
390
0
 62
     7
 48
0.000047
100
AcDbLine
 10
8.01683
 20
0.580272
 30
0.0
 11
8.017528
 21
0.582038
 31
0.0
210
0.0
220
0.0
230
1.0
  0
LINE
  5
4F7
100
AcDbEntity
  8
0
370
     5
390
0
 62
     7
 48
0.000046
100
AcDbLine
 10
8.017528
 20
0.582038
 30
0.0
 11
8.018235
 21
0.583734
 31
0.0
210
0.0
220
0.0
230
1.0
  0
LINE
  5
4F8
100
AcDbEntity
  8
0
370
     5
390
0
 62
     7
 48
0.000044
100
AcDbLine
 10
8.018235
 20
0.583734
 30
0.0
 11
8.018954
 21
0.58536
 31
0.0
210
0.0
220
0.0
230
1.0
  0
LINE
  5
4F9
100
AcDbEntity
  8
0
370
     5
390
0
 62
     7
 48
0.000043
100
AcDbLine
 10
8.018954
 20
0.58536
 30
0.0
 11
8.019684
 21
0.586917
 31
0.0
210
0.0
220
0.0
230
1.0
  0
LINE
  5
4FA
100
AcDbEntity
  8
0
370
     5
390
0
 62
     7
 48
0.000042
100
AcDbLine
 10
8.019684
 20
0.586917
 30
0.0
 11
8.020426
 21
0.588405
 31
0.0
210
0.0
220
0.0
230
1.0
  0
LINE
  5
4FB
100
AcDbEntity
  8
0
370
     5
390
0
 62
     7
 48
0.00004
100
AcDbLine
 10
8.020426
 20
0.588405
 30
0.0
 11
8.021177
 21
0.589826
 31
0.0
210
0.0
220
0.0
230
1.0
  0
LINE
  5
4FC
100
AcDbEntity
  8
0
370
     5
390
0
 62
     7
 48
0.0004
100
AcDbLine
 10
8.021177
 20
0.589826
 30
0.0
 11
8.029019
 21
0.60375
 31
0.0
210
0.0
220
0.0
230
1.0
  0
LINE
  5
4FD
100
AcDbEntity
  8
0
370
     5
390
0
 62
     7
 48
0.000044
100
AcDbLine
 10
8.029019
 20
0.60375
 30
0.0
 11
8.029831
 21
0.605292
 31
0.0
210
0.0
220
0.0
230
1.0
  0
ENDBLK
  5
4FE
100
AcDbEntity
  8
0
390
0
100
AcDbBlockEnd
  0
BLOCK
  5
4FF
100
AcDbEntity
  8
0
370
     0
390
0
100
AcDbBlockBegin
  2
BLOCK6
 70
     0
 10
0.0
 20
0.0
 30
0.0
  3
BLOCK6
  1

  0
LINE
  5
500
100
AcDbEntity
  8
0
370
     5
390
0
 62
     7
 48
0.000505
100
AcDbLine
 10
8.03978
 20
0.605292
 30
0.0
 11
8.054382
 21
0.591339
 31
0.0
210
0.0
220
0.0
230
1.0
  0
LINE
  5
501
100
AcDbEntity
  8
0
370
     5
390
0
 62
     7
 48
0.001141
100
AcDbLine
 10
8.054382
 20
0.591339
 30
0.0
 11
8.054382
 21
0.545696
 31
0.0
210
0.0
220
0.0
230
1.0
  0
LINE
  5
502
100
AcDbEntity
  8
0
370
     5
390
0
 62
     7
 48
0.00008
100
AcDbLine
 10
8.054382
 20
0.545696
 30
0.0
 11
8.051189
 21
0.545309
 31
0.0
210
0.0
220
0.0
230
1.0
  0
LINE
  5
503
100
AcDbEntity
  8
0
370
     5
390
0
 62
     7
 48
0.000076
100
AcDbLine
 10
8.051189
 20
0.545309
 30
0.0
 11
8.048231
 21
0.544665
 31
0.0
210
0.0
220
0.0
230
1.0
  0
LINE
  5
504
100
AcDbEntity
  8
0
370
     5
390
0
 62
     7
 48
0.000072
100
AcDbLine
 10
8.048231
 20
0.544665
 30
0.0
 11
8.045504
 21
0.543768
 31
0.0
210
0.0
220
0.0
230
1.0
  0
LINE
  5
505
100
AcDbEntity
  8
0
370
     5
390
0
 62
     7
 48
0.000069
100
AcDbLine
 10
8.045504
 20
0.543768
 30
0.0
 11
8.043013
 21
0.542615
 31
0.0
210
0.0
220
0.0
230
1.0
  0
LINE
  5
506
100
AcDbEntity
  8
0
370
     5
390
0
 62
     7
 48
0.000067
100
AcDbLine
 10
8.043013
 20
0.542615
 30
0.0
 11
8.040755
 21
0.541208
 31
0.0
210
0.0
220
0.0
230
1.0
  0
LINE
  5
507
100
AcDbEntity
  8
0
370
     5
390
0
 62
     7
 48
0.000066
100
AcDbLine
 10
8.040755
 20
0.541208
 30
0.0
 11
8.03873
 21
0.539544
 31
0.0
210
0.0
220
0.0
230
1.0
  0
LINE
  5
508
100
AcDbEntity
  8
0
370
     5
390
0
 62
     7
 48
0.000066
100
AcDbLine
 10
8.03873
 20
0.539544
 30
0.0
 11
8.036938
 21
0.537626
 31
0.0
210
0.0
220
0.0
230
1.0
  0
LINE
  5
509
100
AcDbEntity
  8
0
370
     5
390
0
 62
     7
 48
0.000067
100
AcDbLine
 10
8.036938
 20
0.537626
 30
0.0
 11
8.03538
 21
0.535451
 31
0.0
210
0.0
220
0.0
230
1.0
  0
LINE
  5
50A
100
AcDbEntity
  8
0
370
     5
390
0
 62
     7
 48
0.000069
100
AcDbLine
 10
8.03538
 20
0.535451
 30
0.0
 11
8.034058
 21
0.533022
 31
0.0
210
0.0
220
0.0
230
1.0
  0
LINE
  5
50B
100
AcDbEntity
  8
0
370
     5
390
0
 62
     7
 48
0.000072
100
AcDbLine
 10
8.034058
 20
0.533022
 30
0.0
 11
8.032967
 21
0.530337
 31
0.0
210
0.0
220
0.0
230
1.0
  0
LINE
  5
50C
100
AcDbEntity
  8
0
370
     5
390
0
 62
     7
 48
0.000047
100
AcDbLine
 10
8.032967
 20
0.530337
 30
0.0
 11
8.033725
 21
0.528606
 31
0.0
210
0.0
220
0.0
230
1.0
  0
LINE
  5
50D
100
AcDbEntity
  8
0
370
     5
390
0
 62
     7
 48
0.000054
100
AcDbLine
 10
8.033725
 20
0.528606
 30
0.0
 11
8.035222
 21
0.530168
 31
0.0
210
0.0
220
0.0
230
1.0
  0
LINE
  5
50E
100
AcDbEntity
  8
0
370
     5
390
0
 62
     7
 48
0.000052
100
AcDbLine
 10
8.035222
 20
0.530168
 30
0.0
 11
8.036774
 21
0.531566
 31
0.0
210
0.0
220
0.0
230
1.0
  0
LINE
  5
50F
100
AcDbEntity
  8
0
370
     5
390
0
 62
     7
 48
0.000051
100
AcDbLine
 10
8.036774
 20
0.531566
 30
0.0
 11
8.038381
 21
0.532799
 31
0.0
210
0.0
220
0.0
230
1.0
  0
LINE
  5
510
100
AcDbEntity
  8
0
370
     5
390
0
 62
     7
 48
0.000049
100
AcDbLine
 10
8.038381
 20
0.532799
 30
0.0
 11
8.04004
 21
0.533868
 31
0.0
210
0.0
220
0.0
230
1.0
  0
LINE
  5
511
100
AcDbEntity
  8
0
370
     5
390
0
 62
     7
 48
0.000048
100
AcDbLine
 10
8.04004
 20
0.533868
 30
0.0
 11
8.041754
 21
0.534771
 31
0.0
210
0.0
220
0.0
230
1.0
  0
LINE
  5
512
100
AcDbEntity
  8
0
370
     5
390
0
 62
     7
 48
0.000048
100
AcDbLine
 10
8.041754
 20
0.534771
 30
0.0
 11
8.043522
 21
0.535512
 31
0.0
210
0.0
220
0.0
230
1.0
  0
LINE
  5
513
100
AcDbEntity
  8
0
370
     5
390
0
 62
     7
 48
0.000048
100
AcDbLine
 10
8.043522
 20
0.535512
 30
0.0
 11
8.045345
 21
0.536087
 31
0.0
210
0.0
220
0.0
230
1.0
  0
LINE
  5
514
100
AcDbEntity
  8
0
370
     5
390
0
 62
     7
 48
0.000048
100
AcDbLine
 10
8.045345
 20
0.536087
 30
0.0
 11
8.047222
 21
0.536498
 31
0.0
210
0.0
220
0.0
230
1.0
  0
LINE
  5
515
100
AcDbEntity
  8
0
370
     5
390
0
 62
     7
 48
0.000049
100
AcDbLine
 10
8.047222
 20
0.536498
 30
0.0
 11
8.049152
 21
0.536744
 31
0.0
210
0.0
220
0.0
230
1.0
  0
LINE
  5
516
100
AcDbEntity
  8
0
370
     5
390
0
 62
     7
 48
0.00005
100
AcDbLine
 10
8.049152
 20
0.536744
 30
0.0
 11
8.051138
 21
0.536826
 31
0.0
210
0.0
220
0.0
230
1.0
  0
LINE
  5
517
100
AcDbEntity
  8
0
370
     5
390
0
 62
     7
 48
0.000041
100
AcDbLine
 10
8.051138
 20
0.536826
 30
0.0
 11
8.052773
 21
0.536748
 31
0.0
210
0.0
220
0.0
230
1.0
  0
LINE
  5
518
100
AcDbEntity
  8
0
370
     5
390
0
 62
     7
 48
0.00004
100
AcDbLine
 10
8.052773
 20
0.536748
 30
0.0
 11
8.054382
 21
0.53661
 31
0.0
210
0.0
220
0.0
230
1.0
  0
LINE
  5
519
100
AcDbEntity
  8
0
370
     5
390
0
 62
     7
 48
0.000127
100
AcDbLine
 10
8.054382
 20
0.53661
 30
0.0
 11
8.054382
 21
0.531527
 31
0.0
210
0.0
220
0.0
230
1.0
  0
LINE
  5
51A
100
AcDbEntity
  8
0
370
     5
390
0
 62
     7
 48
0.000051
100
AcDbLine
 10
8.054382
 20
0.531527
 30
0.0
 11
8.052347
 21
0.531458
 31
0.0
210
0.0
220
0.0
230
1.0
  0
LINE
  5
51B
100
AcDbEntity
  8
0
370
     5
390
0
 62
     7
 48
0.000049
100
AcDbLine
 10
8.052347
 20
0.531458
 30
0.0
 11
8.050394
 21
0.531249
 31
0.0
210
0.0
220
0.0
230
1.0
  0
LINE
  5
51C
100
AcDbEntity
  8
0
370
     5
390
0
 62
     7
 48
0.000048
100
AcDbLine
 10
8.050394
 20
0.531249
 30
0.0
 11
8.048522
 21
0.530904
 31
0.0
210
0.0
220
0.0
230
1.0
  0
LINE
  5
51D
100
AcDbEntity
  8
0
370
     5
390
0
 62
     7
 48
0.000046
100
AcDbLine
 10
8.048522
 20
0.530904
 30
0.0
 11
8.046733
 21
0.53042
 31
0.0
210
0.0
220
0.0
230
1.0
  0
LINE
  5
51E
100
AcDbEntity
  8
0
370
     5
390
0
 62
     7
 48
0.000045
100
AcDbLine
 10
8.046733
 20
0.53042
 30
0.0
 11
8.045027
 21
0.529796
 31
0.0
210
0.0
220
0.0
230
1.0
  0
LINE
  5
51F
100
AcDbEntity
  8
0
370
     5
390
0
 62
     7
 48
0.000045
100
AcDbLine
 10
8.045027
 20
0.529796
 30
0.0
 11
8.043403
 21
0.529035
 31
0.0
210
0.0
220
0.0
230
1.0
  0
LINE
  5
520
100
AcDbEntity
  8
0
370
     5
390
0
 62
     7
 48
0.000045
100
AcDbLine
 10
8.043403
 20
0.529035
 30
0.0
 11
8.041859
 21
0.528135
 31
0.0
210
0.0
220
0.0
230
1.0
  0
LINE
  5
521
100
AcDbEntity
  8
0
370
     5
390
0
 62
     7
 48
0.000045
100
AcDbLine
 10
8.041859
 20
0.528135
 30
0.0
 11
8.0404
 21
0.527097
 31
0.0
210
0.0
220
0.0
230
1.0
  0
LINE
  5
522
100
AcDbEntity
  8
0
370
     5
390
0
 62
     7
 48
0.000045
100
AcDbLine
 10
8.0404
 20
0.527097
 30
0.0
 11
8.039021
 21
0.52592
 31
0.0
210
0.0
220
0.0
230
1.0
  0
LINE
  5
523
100
AcDbEntity
  8
0
370
     5
390
0
 62
     7
 48
0.000046
100
AcDbLine
 10
8.039021
 20
0.52592
 30
0.0
 11
8.037725
 21
0.524604
 31
0.0
210
0.0
220
0.0
230
1.0
  0
LINE
  5
524
100
AcDbEntity
  8
0
370
     5
390
0
 62
     7
 48
0.000077
100
AcDbLine
 10
8.037725
 20
0.524604
 30
0.0
 11
8.03978
 21
0.522333
 31
0.0
210
0.0
220
0.0
230
1.0
  0
LINE
  5
525
100
AcDbEntity
  8
0
370
     5
390
0
 62
     7
 48
0.000044
100
AcDbLine
 10
8.03978
 20
0.522333
 30
0.0
 11
8.041057
 21
0.523526
 31
0.0
210
0.0
220
0.0
230
1.0
  0
LINE
  5
526
100
AcDbEntity
  8
0
370
     5
390
0
 62
     7
 48
0.000042
100
AcDbLine
 10
8.041057
 20
0.523526
 30
0.0
 11
8.042372
 21
0.524592
 31
0.0
210
0.0
220
0.0
230
1.0
  0
LINE
  5
527
100
AcDbEntity
  8
0
370
     5
390
0
 62
     7
 48
0.000041
100
AcDbLine
 10
8.042372
 20
0.524592
 30
0.0
 11
8.04373
 21
0.525533
 31
0.0
210
0.0
220
0.0
230
1.0
  0
LINE
  5
528
100
AcDbEntity
  8
0
370
     5
390
0
 62
     7
 48
0.000041
100
AcDbLine
 10
8.04373
 20
0.525533
 30
0.0
 11
8.045129
 21
0.526349
 31
0.0
210
0.0
220
0.0
230
1.0
  0
LINE
  5
529
100
AcDbEntity
  8
0
370
     5
390
0
 62
     7
 48
0.00004
100
AcDbLine
 10
8.045129
 20
0.526349
 30
0.0
 11
8.046567
 21
0.527039
 31
0.0
210
0.0
220
0.0
230
1.0
  0
LINE
  5
52A
100
AcDbEntity
  8
0
370
     5
390
0
 62
     7
 48
0.00004
100
AcDbLine
 10
8.046567
 20
0.527039
 30
0.0
 11
8.048048
 21
0.527603
 31
0.0
210
0.0
220
0.0
230
1.0
  0
LINE
  5
52B
100
AcDbEntity
  8
0
370
     5
390
0
 62
     7
 48
0.00004
100
AcDbLine
 10
8.048048
 20
0.527603
 30
0.0
 11
8.049571
 21
0.528042
 31
0.0
210
0.0
220
0.0
230
1.0
  0
LINE
  5
52C
100
AcDbEntity
  8
0
370
     5
390
0
 62
     7
 48
0.00004
100
AcDbLine
 10
8.049571
 20
0.528042
 30
0.0
 11
8.051134
 21
0.528356
 31
0.0
210
0.0
220
0.0
230
1.0
  0
LINE
  5
52D
100
AcDbEntity
  8
0
370
     5
390
0
 62
     7
 48
0.00004
100
AcDbLine
 10
8.051134
 20
0.528356
 30
0.0
 11
8.052737
 21
0.528543
 31
0.0
210
0.0
220
0.0
230
1.0
  0
LINE
  5
52E
100
AcDbEntity
  8
0
370
     5
390
0
 62
     7
 48
0.000041
100
AcDbLine
 10
8.052737
 20
0.528543
 30
0.0
 11
8.054382
 21
0.528606
 31
0.0
210
0.0
220
0.0
230
1.0
  0
LINE
  5
52F
100
AcDbEntity
  8
0
370
     5
390
0
 62
     7
 48
0.001163
100
AcDbLine
 10
8.054382
 20
0.528606
 30
0.0
 11
8.054382
 21
0.482097
 31
0.0
210
0.0
220
0.0
230
1.0
  0
LINE
  5
530
100
AcDbEntity
  8
0
370
     5
390
0
 62
     7
 48
0.000564
100
AcDbLine
 10
8.054382
 20
0.482097
 30
0.0
 11
8.036753
 21
0.468038
 31
0.0
210
0.0
220
0.0
230
1.0
  0
LINE
  5
531
100
AcDbEntity
  8
0
370
     5
390
0
 62
     7
 48
0.001328
100
AcDbLine
 10
8.036753
 20
0.468038
 30
0.0
 11
8.089859
 21
0.468038
 31
0.0
210
0.0
220
0.0
230
1.0
  0
LINE
  5
532
100
AcDbEntity
  8
0
370
     5
390
0
 62
     7
 48
0.000493
100
AcDbLine
 10
8.089859
 20
0.468038
 30
0.0
 11
8.076014
 21
0.482097
 31
0.0
210
0.0
220
0.0
230
1.0
  0
LINE
  5
533
100
AcDbEntity
  8
0
370
     5
390
0
 62
     7
 48
0.001363
100
AcDbLine
 10
8.076014
 20
0.482097
 30
0.0
 11
8.076014
 21
0.53661
 31
0.0
210
0.0
220
0.0
230
1.0
  0
LINE
  5
534
100
AcDbEntity
  8
0
370
     5
390
0
 62
     7
 48
0.000619
100
AcDbLine
 10
8.076014
 20
0.53661
 30
0.0
 11
8.100782
 21
0.53661
 31
0.0
210
0.0
220
0.0
230
1.0
  0
LINE
  5
535
100
AcDbEntity
  8
0
370
     5
390
0
 62
     7
 48
0.000639
100
AcDbLine
 10
8.100782
 20
0.53661
 30
0.0
 11
8.118953
 21
0.518655
 31
0.0
210
0.0
220
0.0
230
1.0
  0
LINE
  5
536
100
AcDbEntity
  8
0
370
     5
390
0
 62
     7
 48
0.001133
100
AcDbLine
 10
8.118953
 20
0.518655
 30
0.0
 11
8.118953
 21
0.563975
 31
0.0
210
0.0
220
0.0
230
1.0
  0
LINE
  5
537
100
AcDbEntity
  8
0
370
     5
390
0
 62
     7
 48
0.000629
100
AcDbLine
 10
8.118953
 20
0.563975
 30
0.0
 11
8.101647
 21
0.545696
 31
0.0
210
0.0
220
0.0
230
1.0
  0
LINE
  5
538
100
AcDbEntity
  8
0
370
     5
390
0
 62
     7
 48
0.000408
100
AcDbLine
 10
8.101647
 20
0.545696
 30
0.0
 11
8.085316
 21
0.545696
 31
0.0
210
0.0
220
0.0
230
1.0
  0
LINE
  5
539
100
AcDbEntity
  8
0
370
     5
390
0
 62
     7
 48
0.001044
100
AcDbLine
 10
8.085316
 20
0.545696
 30
0.0
 11
8.085316
 21
0.587445
 31
0.0
210
0.0
220
0.0
230
1.0
  0
LINE
  5
53A
100
AcDbEntity
  8
0
370
     5
390
0
 62
     7
 48
0.000067
100
AcDbLine
 10
8.085316
 20
0.587445
 30
0.0
 11
8.087994
 21
0.58764
 31
0.0
210
0.0
220
0.0
230
1.0
  0
LINE
  5
53B
100
AcDbEntity
  8
0
370
     5
390
0
 62
     7
 48
0.000063
100
AcDbLine
 10
8.087994
 20
0.58764
 30
0.0
 11
8.090491
 21
0.587792
 31
0.0
210
0.0
220
0.0
230
1.0
  0
LINE
  5
53C
100
AcDbEntity
  8
0
370
     5
390
0
 62
     7
 48
0.000058
100
AcDbLine
 10
8.090491
 20
0.587792
 30
0.0
 11
8.092805
 21
0.5879
 31
0.0
210
0.0
220
0.0
230
1.0
  0
LINE
  5
53D
100
AcDbEntity
  8
0
370
     5
390
0
 62
     7
 48
0.000053
100
AcDbLine
 10
8.092805
 20
0.5879
 30
0.0
 11
8.094938
 21
0.587964
 31
0.0
210
0.0
220
0.0
230
1.0
  0
LINE
  5
53E
100
AcDbEntity
  8
0
370
     5
390
0
 62
     7
 48
0.000049
100
AcDbLine
 10
8.094938
 20
0.587964
 30
0.0
 11
8.09689
 21
0.587987
 31
0.0
210
0.0
220
0.0
230
1.0
  0
LINE
  5
53F
100
AcDbEntity
  8
0
370
     5
390
0
 62
     7
 48
0.000063
100
AcDbLine
 10
8.09689
 20
0.587987
 30
0.0
 11
8.099417
 21
0.587969
 31
0.0
210
0.0
220
0.0
230
1.0
  0
LINE
  5
540
100
AcDbEntity
  8
0
370
     5
390
0
 62
     7
 48
0.00006
100
AcDbLine
 10
8.099417
 20
0.587969
 30
0.0
 11
8.101811
 21
0.587915
 31
0.0
210
0.0
220
0.0
230
1.0
  0
LINE
  5
541
100
AcDbEntity
  8
0
370
     5
390
0
 62
     7
 48
0.000056
100
AcDbLine
 10
8.101811
 20
0.587915
 30
0.0
 11
8.104068
 21
0.587826
 31
0.0
210
0.0
220
0.0
230
1.0
  0
LINE
  5
542
100
AcDbEntity
  8
0
370
     5
390
0
 62
     7
 48
0.000053
100
AcDbLine
 10
8.104068
 20
0.587826
 30
0.0
 11
8.106191
 21
0.5877
 31
0.0
210
0.0
220
0.0
230
1.0
  0
LINE
  5
543
100
AcDbEntity
  8
0
370
     5
390
0
 62
     7
 48
0.00005
100
AcDbLine
 10
8.106191
 20
0.5877
 30
0.0
 11
8.108179
 21
0.58754
 31
0.0
210
0.0
220
0.0
230
1.0
  0
LINE
  5
544
100
AcDbEntity
  8
0
370
     5
390
0
 62
     7
 48
0.000047
100
AcDbLine
 10
8.108179
 20
0.58754
 30
0.0
 11
8.110031
 21
0.587343
 31
0.0
210
0.0
220
0.0
230
1.0
  0
LINE
  5
545
100
AcDbEntity
  8
0
370
     5
390
0
 62
     7
 48
0.000043
100
AcDbLine
 10
8.110031
 20
0.587343
 30
0.0
 11
8.111747
 21
0.587112
 31
0.0
210
0.0
220
0.0
230
1.0
  0
LINE
  5
546
100
AcDbEntity
  8
0
370
     5
390
0
 62
     7
 48
0.00004
100
AcDbLine
 10
8.111747
 20
0.587112
 30
0.0
 11
8.113329
 21
0.586844
 31
0.0
210
0.0
220
0.0
230
1.0
  0
LINE
  5
547
100
AcDbEntity
  8
0
370
     5
390
0
 62
     7
 48
0.000071
100
AcDbLine
 10
8.113329
 20
0.586844
 30
0.0
 11
8.116087
 21
0.586202
 31
0.0
210
0.0
220
0.0
230
1.0
  0
LINE
  5
548
100
AcDbEntity
  8
0
370
     5
390
0
 62
     7
 48
0.000065
100
AcDbLine
 10
8.116087
 20
0.586202
 30
0.0
 11
8.118538
 21
0.585356
 31
0.0
210
0.0
220
0.0
230
1.0
  0
LINE
  5
549
100
AcDbEntity
  8
0
370
     5
390
0
 62
     7
 48
0.000066
100
AcDbLine
 10
8.118538
 20
0.585356
 30
0.0
 11
8.120915
 21
0.584246
 31
0.0
210
0.0
220
0.0
230
1.0
  0
LINE
  5
54A
100
AcDbEntity
  8
0
370
     5
390
0
 62
     7
 48
0.000067
100
AcDbLine
 10
8.120915
 20
0.584246
 30
0.0
 11
8.123219
 21
0.582873
 31
0.0
210
0.0
220
0.0
230
1.0
  0
LINE
  5
54B
100
AcDbEntity
  8
0
370
     5
390
0
 62
     7
 48
0.000069
100
AcDbLine
 10
8.123219
 20
0.582873
 30
0.0
 11
8.125449
 21
0.581235
 31
0.0
210
0.0
220
0.0
230
1.0
  0
LINE
  5
54C
100
AcDbEntity
  8
0
370
     5
390
0
 62
     7
 48
0.000072
100
AcDbLine
 10
8.125449
 20
0.581235
 30
0.0
 11
8.127607
 21
0.579333
 31
0.0
210
0.0
220
0.0
230
1.0
  0
LINE
  5
54D
100
AcDbEntity
  8
0
370
     5
390
0
 62
     7
 48
0.000063
100
AcDbLine
 10
8.127607
 20
0.579333
 30
0.0
 11
8.126338
 21
0.581511
 31
0.0
210
0.0
220
0.0
230
1.0
  0
LINE
  5
54E
100
AcDbEntity
  8
0
370
     5
390
0
 62
     7
 48
0.000063
100
AcDbLine
 10
8.126338
 20
0.581511
 30
0.0
 11
8.124737
 21
0.583461
 31
0.0
210
0.0
220
0.0
230
1.0
  0
LINE
  5
54F
100
AcDbEntity
  8
0
370
     5
390
0
 62
     7
 48
0.000065
100
AcDbLine
 10
8.124737
 20
0.583461
 30
0.0
 11
8.122807
 21
0.58518
 31
0.0
210
0.0
220
0.0
230
1.0
  0
LINE
  5
550
100
AcDbEntity
  8
0
370
     5
390
0
 62
     7
 48
0.000068
100
AcDbLine
 10
8.122807
 20
0.58518
 30
0.0
 11
8.120546
 21
0.586671
 31
0.0
210
0.0
220
0.0
230
1.0
  0
LINE
  5
551
100
AcDbEntity
  8
0
370
     5
390
0
 62
     7
 48
0.000072
100
AcDbLine
 10
8.120546
 20
0.586671
 30
0.0
 11
8.117954
 21
0.587933
 31
0.0
210
0.0
220
0.0
230
1.0
  0
LINE
  5
552
100
AcDbEntity
  8
0
370
     5
390
0
 62
     7
 48
0.000078
100
AcDbLine
 10
8.117954
 20
0.587933
 30
0.0
 11
8.115029
 21
0.588965
 31
0.0
210
0.0
220
0.0
230
1.0
  0
LINE
  5
553
100
AcDbEntity
  8
0
370
     5
390
0
 62
     7
 48
0.000084
100
AcDbLine
 10
8.115029
 20
0.588965
 30
0.0
 11
8.111775
 21
0.589767
 31
0.0
210
0.0
220
0.0
230
1.0
  0
LINE
  5
554
100
AcDbEntity
  8
0
370
     5
390
0
 62
     7
 48
0.000091
100
AcDbLine
 10
8.111775
 20
0.589767
 30
0.0
 11
8.108189
 21
0.59034
 31
0.0
210
0.0
220
0.0
230
1.0
  0
LINE
  5
555
100
AcDbEntity
  8
0
370
     5
390
0
 62
     7
 48
0.000098
100
AcDbLine
 10
8.108189
 20
0.59034
 30
0.0
 11
8.104273
 21
0.590684
 31
0.0
210
0.0
220
0.0
230
1.0
  0
LINE
  5
556
100
AcDbEntity
  8
0
370
     5
390
0
 62
     7
 48
0.000106
100
AcDbLine
 10
8.104273
 20
0.590684
 30
0.0
 11
8.100026
 21
0.590798
 31
0.0
210
0.0
220
0.0
230
1.0
  0
LINE
  5
557
100
AcDbEntity
  8
0
370
     5
390
0
 62
     7
 48
0.000075
100
AcDbLine
 10
8.100026
 20
0.590798
 30
0.0
 11
8.097032
 21
0.590786
 31
0.0
210
0.0
220
0.0
230
1.0
  0
LINE
  5
558
100
AcDbEntity
  8
0
370
     5
390
0
 62
     7
 48
0.000073
100
AcDbLine
 10
8.097032
 20
0.590786
 30
0.0
 11
8.094107
 21
0.590747
 31
0.0
210
0.0
220
0.0
230
1.0
  0
LINE
  5
559
100
AcDbEntity
  8
0
370
     5
390
0
 62
     7
 48
0.000071
100
AcDbLine
 10
8.094107
 20
0.590747
 30
0.0
 11
8.091251
 21
0.590682
 31
0.0
210
0.0
220
0.0
230
1.0
  0
LINE
  5
55A
100
AcDbEntity
  8
0
370
     5
390
0
 62
     7
 48
0.00007
100
AcDbLine
 10
8.091251
 20
0.590682
 30
0.0
 11
8.088465
 21
0.590591
 31
0.0
210
0.0
220
0.0
230
1.0
  0
LINE
  5
55B
100
AcDbEntity
  8
0
370
     5
390
0
 62
     7
 48
0.000068
100
AcDbLine
 10
8.088465
 20
0.590591
 30
0.0
 11
8.085749
 21
0.590474
 31
0.0
210
0.0
220
0.0
230
1.0
  0
LINE
  5
55C
100
AcDbEntity
  8
0
370
     5
390
0
 62
     7
 48
0.000078
100
AcDbLine
 10
8.085749
 20
0.590474
 30
0.0
 11
8.082612
 21
0.590366
 31
0.0
210
0.0
220
0.0
230
1.0
  0
LINE
  5
55D
100
AcDbEntity
  8
0
370
     5
390
0
 62
     7
 48
0.001117
100
AcDbLine
 10
8.082612
 20
0.590366
 30
0.0
 11
8.082612
 21
0.545696
 31
0.0
210
0.0
220
0.0
230
1.0
  0
LINE
  5
55E
100
AcDbEntity
  8
0
370
     5
390
0
 62
     7
 48
0.000165
100
AcDbLine
 10
8.082612
 20
0.545696
 30
0.0
 11
8.076014
 21
0.545696
 31
0.0
210
0.0
220
0.0
230
1.0
  0
LINE
  5
55F
100
AcDbEntity
  8
0
370
     5
390
0
 62
     7
 48
0.001265
100
AcDbLine
 10
8.076014
 20
0.545696
 30
0.0
 11
8.076014
 21
0.596315
 31
0.0
210
0.0
220
0.0
230
1.0
  0
LINE
  5
560
100
AcDbEntity
  8
0
370
     5
390
0
 62
     7
 48
0.0001
100
AcDbLine
 10
8.076014
 20
0.596315
 30
0.0
 11
8.080016
 21
0.596207
 31
0.0
210
0.0
220
0.0
230
1.0
  0
LINE
  5
561
100
AcDbEntity
  8
0
370
     5
390
0
 62
     7
 48
0.000262
100
AcDbLine
 10
8.080016
 20
0.596207
 30
0.0
 11
8.090507
 21
0.596099
 31
0.0
210
0.0
220
0.0
230
1.0
  0
LINE
  5
562
100
AcDbEntity
  8
0
370
     5
390
0
 62
     7
 48
0.000154
100
AcDbLine
 10
8.090507
 20
0.596099
 30
0.0
 11
8.096672
 21
0.596207
 31
0.0
210
0.0
220
0.0
230
1.0
  0
LINE
  5
563
100
AcDbEntity
  8
0
370
     5
390
0
 62
     7
 48
0.00008
100
AcDbLine
 10
8.096672
 20
0.596207
 30
0.0
 11
8.099887
 21
0.596163
 31
0.0
210
0.0
220
0.0
230
1.0
  0
LINE
  5
564
100
AcDbEntity
  8
0
370
     5
390
0
 62
     7
 48
0.000076
100
AcDbLine
 10
8.099887
 20
0.596163
 30
0.0
 11
8.102909
 21
0.596033
 31
0.0
210
0.0
220
0.0
230
1.0
  0
LINE
  5
565
100
AcDbEntity
  8
0
370
     5
390
0
 62
     7
 48
0.000071
100
AcDbLine
 10
8.102909
 20
0.596033
 30
0.0
 11
8.10574
 21
0.595817
 31
0.0
210
0.0
220
0.0
230
1.0
  0
LINE
  5
566
100
AcDbEntity
  8
0
370
     5
390
0
 62
     7
 48
0.000066
100
AcDbLine
 10
8.10574
 20
0.595817
 30
0.0
 11
8.108379
 21
0.595514
 31
0.0
210
0.0
220
0.0
230
1.0
  0
LINE
  5
567
100
AcDbEntity
  8
0
370
     5
390
0
 62
     7
 48
0.000062
100
AcDbLine
 10
8.108379
 20
0.595514
 30
0.0
 11
8.110827
 21
0.595125
 31
0.0
210
0.0
220
0.0
230
1.0
  0
LINE
  5
568
100
AcDbEntity
  8
0
370
     5
390
0
 62
     7
 48
0.000058
100
AcDbLine
 10
8.110827
 20
0.595125
 30
0.0
 11
8.113085
 21
0.594648
 31
0.0
210
0.0
220
0.0
230
1.0
  0
LINE
  5
569
100
AcDbEntity
  8
0
370
     5
390
0
 62
     7
 48
0.000054
100
AcDbLine
 10
8.113085
 20
0.594648
 30
0.0
 11
8.11515
 21
0.594086
 31
0.0
210
0.0
220
0.0
230
1.0
  0
LINE
  5
56A
100
AcDbEntity
  8
0
370
     5
390
0
 62
     7
 48
0.00005
100
AcDbLine
 10
8.11515
 20
0.594086
 30
0.0
 11
8.117024
 21
0.593438
 31
0.0
210
0.0
220
0.0
230
1.0
  0
LINE
  5
56B
100
AcDbEntity
  8
0
370
     5
390
0
 62
     7
 48
0.000046
100
AcDbLine
 10
8.117024
 20
0.593438
 30
0.0
 11
8.118707
 21
0.592701
 31
0.0
210
0.0
220
0.0
230
1.0
  0
LINE
  5
56C
100
AcDbEntity
  8
0
370
     5
390
0
 62
     7
 48
0.000043
100
AcDbLine
 10
8.118707
 20
0.592701
 30
0.0
 11
8.120198
 21
0.591881
 31
0.0
210
0.0
220
0.0
230
1.0
  0
LINE
  5
56D
100
AcDbEntity
  8
0
370
     5
390
0
 62
     7
 48
0.000043
100
AcDbLine
 10
8.120198
 20
0.591881
 30
0.0
 11
8.121594
 21
0.59091
 31
0.0
210
0.0
220
0.0
230
1.0
  0
LINE
  5
56E
100
AcDbEntity
  8
0
370
     5
390
0
 62
     7
 48
0.000046
100
AcDbLine
 10
8.121594
 20
0.59091
 30
0.0
 11
8.122994
 21
0.589734
 31
0.0
210
0.0
220
0.0
230
1.0
  0
LINE
  5
56F
100
AcDbEntity
  8
0
370
     5
390
0
 62
     7
 48
0.000049
100
AcDbLine
 10
8.122994
 20
0.589734
 30
0.0
 11
8.124398
 21
0.58835
 31
0.0
210
0.0
220
0.0
230
1.0
  0
LINE
  5
570
100
AcDbEntity
  8
0
370
     5
390
0
 62
     7
 48
0.000053
100
AcDbLine
 10
8.124398
 20
0.58835
 30
0.0
 11
8.125804
 21
0.586758
 31
0.0
210
0.0
220
0.0
230
1.0
  0
LINE
  5
571
100
AcDbEntity
  8
0
370
     5
390
0
 62
     7
 48
0.000057
100
AcDbLine
 10
8.125804
 20
0.586758
 30
0.0
 11
8.127215
 21
0.584958
 31
0.0
210
0.0
220
0.0
230
1.0
  0
LINE
  5
572
100
AcDbEntity
  8
0
370
     5
390
0
 62
     7
 48
0.000061
100
AcDbLine
 10
8.127215
 20
0.584958
 30
0.0
 11
8.128628
 21
0.582951
 31
0.0
210
0.0
220
0.0
230
1.0
  0
LINE
  5
573
100
AcDbEntity
  8
0
370
     5
390
0
 62
     7
 48
0.000066
100
AcDbLine
 10
8.128628
 20
0.582951
 30
0.0
 11
8.130044
 21
0.580736
 31
0.0
210
0.0
220
0.0
230
1.0
  0
LINE
  5
574
100
AcDbEntity
  8
0
370
     5
390
0
 62
     7
 48
0.00007
100
AcDbLine
 10
8.130044
 20
0.580736
 30
0.0
 11
8.131463
 21
0.578313
 31
0.0
210
0.0
220
0.0
230
1.0
  0
LINE
  5
575
100
AcDbEntity
  8
0
370
     5
390
0
 62
     7
 48
0.000075
100
AcDbLine
 10
8.131463
 20
0.578313
 30
0.0
 11
8.132887
 21
0.575682
 31
0.0
210
0.0
220
0.0
230
1.0
  0
LINE
  5
576
100
AcDbEntity
  8
0
370
     5
390
0
 62
     7
 48
0.000079
100
AcDbLine
 10
8.132887
 20
0.575682
 30
0.0
 11
8.134311
 21
0.572844
 31
0.0
210
0.0
220
0.0
230
1.0
  0
LINE
  5
577
100
AcDbEntity
  8
0
370
     5
390
0
 62
     7
 48
0.000058
100
AcDbLine
 10
8.134311
 20
0.572844
 30
0.0
 11
8.135177
 21
0.575007
 31
0.0
210
0.0
220
0.0
230
1.0
  0
LINE
  5
578
100
AcDbEntity
  8
0
370
     5
390
0
 62
     7
 48
0.000059
100
AcDbLine
 10
8.135177
 20
0.575007
 30
0.0
 11
8.136049
 21
0.577196
 31
0.0
210
0.0
220
0.0
230
1.0
  0
LINE
  5
579
100
AcDbEntity
  8
0
370
     5
390
0
 62
     7
 48
0.000056
100
AcDbLine
 10
8.136049
 20
0.577196
 30
0.0
 11
8.136889
 21
0.57926
 31
0.0
210
0.0
220
0.0
230
1.0
  0
LINE
  5
57A
100
AcDbEntity
  8
0
370
     5
390
0
 62
     7
 48
0.000053
100
AcDbLine
 10
8.136889
 20
0.57926
 30
0.0
 11
8.137697
 21
0.581201
 31
0.0
210
0.0
220
0.0
230
1.0
  0
LINE
  5
57B
100
AcDbEntity
  8
0
370
     5
390
0
 62
     7
 48
0.000049
100
AcDbLine
 10
8.137697
 20
0.581201
 30
0.0
 11
8.138474
 21
0.583019
 31
0.0
210
0.0
220
0.0
230
1.0
  0
LINE
  5
57C
100
AcDbEntity
  8
0
370
     5
390
0
 62
     7
 48
0.000046
100
AcDbLine
 10
8.138474
 20
0.583019
 30
0.0
 11
8.13922
 21
0.584714
 31
0.0
210
0.0
220
0.0
230
1.0
  0
LINE
  5
57D
100
AcDbEntity
  8
0
370
     5
390
0
 62
     7
 48
0.000043
100
AcDbLine
 10
8.13922
 20
0.584714
 30
0.0
 11
8.139935
 21
0.586286
 31
0.0
210
0.0
220
0.0
230
1.0
  0
LINE
  5
57E
100
AcDbEntity
  8
0
370
     5
390
0
 62
     7
 48
0.00004
100
AcDbLine
 10
8.139935
 20
0.586286
 30
0.0
 11
8.140617
 21
0.587735
 31
0.0
210
0.0
220
0.0
230
1.0
  0
LINE
  5
57F
100
AcDbEntity
  8
0
370
     5
390
0
 62
     7
 48
0.000071
100
AcDbLine
 10
8.140617
 20
0.587735
 30
0.0
 11
8.14189
 21
0.590261
 31
0.0
210
0.0
220
0.0
230
1.0
  0
LINE
  5
580
100
AcDbEntity
  8
0
370
     5
390
0
 62
     7
 48
0.000061
100
AcDbLine
 10
8.14189
 20
0.590261
 30
0.0
 11
8.143089
 21
0.592394
 31
0.0
210
0.0
220
0.0
230
1.0
  0
LINE
  5
581
100
AcDbEntity
  8
0
370
     5
390
0
 62
     7
 48
0.000069
100
AcDbLine
 10
8.143089
 20
0.592394
 30
0.0
 11
8.144543
 21
0.594729
 31
0.0
210
0.0
220
0.0
230
1.0
  0
LINE
  5
582
100
AcDbEntity
  8
0
370
     5
390
0
 62
     7
 48
0.000038
100
AcDbLine
 10
8.144543
 20
0.594729
 30
0.0
 11
8.145386
 21
0.596012
 31
0.0
210
0.0
220
0.0
230
1.0
  0
LINE
  5
583
100
AcDbEntity
  8
0
370
     5
390
0
 62
     7
 48
0.000041
100
AcDbLine
 10
8.145386
 20
0.596012
 30
0.0
 11
8.146304
 21
0.597369
 31
0.0
210
0.0
220
0.0
230
1.0
  0
LINE
  5
584
100
AcDbEntity
  8
0
370
     5
390
0
 62
     7
 48
0.000044
100
AcDbLine
 10
8.146304
 20
0.597369
 30
0.0
 11
8.1473
 21
0.598802
 31
0.0
210
0.0
220
0.0
230
1.0
  0
LINE
  5
585
100
AcDbEntity
  8
0
370
     5
390
0
 62
     7
 48
0.000046
100
AcDbLine
 10
8.1473
 20
0.598802
 30
0.0
 11
8.148372
 21
0.600311
 31
0.0
210
0.0
220
0.0
230
1.0
  0
LINE
  5
586
100
AcDbEntity
  8
0
370
     5
390
0
 62
     7
 48
0.000049
100
AcDbLine
 10
8.148372
 20
0.600311
 30
0.0
 11
8.149522
 21
0.601895
 31
0.0
210
0.0
220
0.0
230
1.0
  0
LINE
  5
587
100
AcDbEntity
  8
0
370
     5
390
0
 62
     7
 48
0.000052
100
AcDbLine
 10
8.149522
 20
0.601895
 30
0.0
 11
8.150747
 21
0.603555
 31
0.0
210
0.0
220
0.0
230
1.0
  0
LINE
  5
588
100
AcDbEntity
  8
0
370
     5
390
0
 62
     7
 48
0.000054
100
AcDbLine
 10
8.150747
 20
0.603555
 30
0.0
 11
8.152051
 21
0.605292
 31
0.0
210
0.0
220
0.0
230
1.0
  0
LINE
  5
589
100
AcDbEntity
  8
0
370
     5
390
0
 62
     7
 48
0.002807
100
AcDbLine
 10
8.152051
 20
0.605292
 30
0.0
 11
8.03978
 21
0.605292
 31
0.0
210
0.0
220
0.0
230
1.0
  0
ENDBLK
  5
58A
100
AcDbEntity
  8
0
390
0
100
AcDbBlockEnd
  0
BLOCK
  5
58B
100
AcDbEntity
  8
0
370
     0
390
0
100
AcDbBlockBegin
  2
BLOCK7
 70
     0
 10
0.0
 20
0.0
 30
0.0
  3
BLOCK7
  1

  0
TEXT
  5
58C
100
AcDbEntity
  8
0
370
    13
390
0
 62
     7
 48
0.03937
100
AcDbText
 10
6.259191
 20
2.04418
 30
0.0
 40
0.343456
  1
8
 72
     5
 11
6.507353
 21
2.04418
 31
0.0
100
AcDbText
  0
TEXT
  5
58D
100
AcDbEntity
  8
0
370
    13
390
0
 62
     7
 48
0.03937
100
AcDbText
 10
6.507353
 20
2.04418
 30
0.0
 40
0.343456
  1
X
 72
     5
 11
6.889026
 21
2.04418
 31
0.0
100
AcDbText
  0
ENDBLK
  5
58E
100
AcDbEntity
  8
0
390
0
100
AcDbBlockEnd
  0
BLOCK
  5
58F
100
AcDbEntity
  8
0
370
     0
390
0
100
AcDbBlockBegin
  2
BLOCK8
 70
     0
 10
0.0
 20
0.0
 30
0.0
  3
BLOCK8
  1

  0
SOLID
  5
590
100
AcDbEntity
  8
0
370
    13
390
0
 62
     7
 48
0.03937
100
AcDbTrace
 10
-4.054239
 20
-3.730089
 30
0.0
 11
-3.607717
 21
-3.18127
 31
0.0
 12
-4.054239
 22
-3.730089
 32
0.0
 13
-4.208098
 23
-3.555605
 33
0.0
  0
TEXT
  5
591
100
AcDbEntity
  8
0
370
    13
390
0
 62
     7
 48
0.03937
100
AcDbText
 10
-6.658919
 20
-4.286279
 30
0.0
 40
0.343456
  1
9.62
 72
     5
 11
-5.790351
 21
-4.286279
 31
0.0
100
AcDbText
  0
TEXT
  5
592
100
AcDbEntity
  8
0
370
    13
390
0
 62
     7
 48
0.03937
100
AcDbText
 10
-5.790351
 20
-4.286279
 30
0.0
 40
0.343456
  1
"
 72
     5
 11
-5.538483
 21
-4.286279
 31
0.0
100
AcDbText
  0
TEXT
  5
593
100
AcDbEntity
  8
0
370
    13
390
0
 62
     7
 48
0.03937
100
AcDbText
 10
-7.351326
 20
-4.286279
 30
0.0
 40
0.343456
  1
%%c
 72
     5
 11
-7.00787
 21
-4.286279
 31
0.0
100
AcDbText
  0
LINE
  5
594
100
AcDbEntity
  8
0
370
    13
390
0
 62
     7
 48
0.01483
100
AcDbLine
 10
-4.666104
 20
-4.114551
 30
0.0
 11
-5.259322
 21
-4.114551
 31
0.0
210
0.0
220
0.0
230
1.0
  0
LINE
  5
595
100
AcDbEntity
  8
0
370
    13
390
0
 62
     7
 48
0.01783
100
AcDbLine
 10
-4.131168
 20
-3.642847
 30
0.0
 11
-4.666104
 21
-4.114551
 31
0.0
210
0.0
220
0.0
230
1.0
  0
POLYLINE
  5
596
100
AcDbEntity
  8
0
370
    13
390
0
 62
     7
 48
0.03937
100
AcDb2dPolyline
 66
     1
 10
0.0
 20
0.0
 30
0.0
 70
     1
 71
     3
  0
VERTEX
  5
597
100
AcDbEntity
  8
0
370
     0
390
0
100
AcDbVertex
100
AcDb2dVertex
 10
-4.054239
 20
-3.730089
 30
0.0
  0
VERTEX
  5
598
100
AcDbEntity
  8
0
370
     0
390
0
100
AcDbVertex
100
AcDb2dVertex
 10
-3.607717
 20
-3.18127
 30
0.0
  0
VERTEX
  5
599
100
AcDbEntity
  8
0
370
     0
390
0
100
AcDbVertex
100
AcDb2dVertex
 10
-4.208098
 20
-3.555605
 30
0.0
  0
SEQEND
  5
59A
100
AcDbEntity
  8
0
370
     0
390
0
  0
ENDBLK
  5
59B
100
AcDbEntity
  8
0
390
0
100
AcDbBlockEnd
  0
BLOCK
  5
59C
100
AcDbEntity
  8
0
370
     0
390
0
100
AcDbBlockBegin
  2
BLOCK9
 70
     0
 10
0.0
 20
0.0
 30
0.0
  3
BLOCK9
  1

  0
SOLID
  5
59D
100
AcDbEntity
  8
0
370
    13
390
0
 62
     7
 48
0.03937
100
AcDbTrace
 10
-4.048947
 20
1.844807
 30
0.0
 11
-3.370672
 21
1.643494
 31
0.0
 12
-4.048947
 22
1.844807
 32
0.0
 13
-3.946993
 23
2.053906
 33
0.0
  0
TEXT
  5
59E
100
AcDbEntity
  8
0
370
    13
390
0
 62
     7
 48
0.03937
100
AcDbText
 10
-8.806549
 20
2.177172
 30
0.0
 40
0.343456
  1
7.5
 72
     5
 11
-8.186143
 21
2.177172
 31
0.0
100
AcDbText
  0
TEXT
  5
59F
100
AcDbEntity
  8
0
370
    13
390
0
 62
     7
 48
0.03937
100
AcDbText
 10
-8.186143
 20
2.177172
 30
0.0
 40
0.343456
  1
"
 72
     5
 11
-7.934276
 21
2.177172
 31
0.0
100
AcDbText
  0
TEXT
  5
5A0
100
AcDbEntity
  8
0
370
    13
390
0
 62
     7
 48
0.03937
100
AcDbText
 10
-9.498957
 20
2.177172
 30
0.0
 40
0.343456
  1
%%c
 72
     5
 11
-9.155501
 21
2.177172
 31
0.0
100
AcDbText
  0
TEXT
  5
5A1
100
AcDbEntity
  8
0
370
    13
390
0
 62
     7
 48
0.03937
100
AcDbText
 10
-9.498957
 20
1.627642
 30
0.0
 40
0.343456
  1
BOLT CIRCLE
 72
     5
 11
-6.050497
 21
1.627642
 31
0.0
100
AcDbText
  0
LINE
  5
5A2
100
AcDbEntity
  8
0
370
    13
390
0
 62
     7
 48
0.03937
100
AcDbLine
 10
-4.817402
 20
2.3489
 30
0.0
 11
-5.771335
 21
2.3489
 31
0.0
210
0.0
220
0.0
230
1.0
  0
ARC
  5
5A3
100
AcDbEntity
  8
0
370
    13
390
0
 62
     7
 48
0.03937
100
AcDbCircle
 10
0.0
 20
0.0
 30
0.0
 40
3.75
210
0.0
220
0.0
230
1.0
100
AcDbArc
 50
118.911394
 51
158.204858
  0
LINE
  5
5A4
100
AcDbEntity
  8
0
370
    13
390
0
 62
     7
 48
0.03937
100
AcDbLine
 10
-3.99797
 20
1.949356
 30
0.0
 11
-4.817402
 21
2.3489
 31
0.0
210
0.0
220
0.0
230
1.0
  0
POLYLINE
  5
5A5
100
AcDbEntity
  8
0
370
    13
390
0
 62
     7
 48
0.03937
100
AcDb2dPolyline
 66
     1
 10
0.0
 20
0.0
 30
0.0
 70
     1
 71
     3
  0
VERTEX
  5
5A6
100
AcDbEntity
  8
0
370
     0
390
0
100
AcDbVertex
100
AcDb2dVertex
 10
-4.048947
 20
1.844807
 30
0.0
  0
VERTEX
  5
5A7
100
AcDbEntity
  8
0
370
     0
390
0
100
AcDbVertex
100
AcDb2dVertex
 10
-3.370672
 20
1.643494
 30
0.0
  0
VERTEX
  5
5A8
100
AcDbEntity
  8
0
370
     0
390
0
100
AcDbVertex
100
AcDb2dVertex
 10
-3.946993
 20
2.053906
 30
0.0
  0
SEQEND
  5
5A9
100
AcDbEntity
  8
0
370
     0
390
0
  0
ENDBLK
  5
5AA
100
AcDbEntity
  8
0
390
0
100
AcDbBlockEnd
  0
BLOCK
  5
5AB
100
AcDbEntity
  8
0
370
     0
390
0
100
AcDbBlockBegin
  2
BLOCK10
 70
     0
 10
0.0
 20
0.0
 30
0.0
  3
BLOCK10
  1

  0
SOLID
  5
5AC
100
AcDbEntity
  8
0
370
    13
390
0
 62
     7
 48
0.03937
100
AcDbTrace
 10
4.60753
 20
0.927614
 30
0.0
 11
4.166389
 21
0.37446
 31
0.0
 12
4.60753
 22
0.927614
 32
0.0
 13
4.763085
 23
0.754641
 33
0.0
  0
TEXT
  5
5AD
100
AcDbEntity
  8
0
370
    13
390
0
 62
     7
 48
0.03937
100
AcDbText
 10
6.96
 20
1.307821
 30
0.0
 40
0.343456
  1
1.12
 72
     5
 11
7.828567
 21
1.307821
 31
0.0
100
AcDbText
  0
TEXT
  5
5AE
100
AcDbEntity
  8
0
370
    13
390
0
 62
     7
 48
0.03937
100
AcDbText
 10
7.828567
 20
1.307821
 30
0.0
 40
0.343456
  1
"
 72
     5
 11
8.080435
 21
1.307821
 31
0.0
100
AcDbText
  0
TEXT
  5
5AF
100
AcDbEntity
  8
0
370
    13
390
0
 62
     7
 48
0.03937
100
AcDbText
 10
6.267592
 20
1.307821
 30
0.0
 40
0.343456
  1
%%c
 72
     5
 11
6.611048
 21
1.307821
 31
0.0
100
AcDbText
  0
LINE
  5
5B0
100
AcDbEntity
  8
0
370
    13
390
0
 62
     7
 48
0.01483
100
AcDbLine
 10
5.395213
 20
1.479549
 30
0.0
 11
5.988431
 21
1.479549
 31
0.0
210
0.0
220
0.0
230
1.0
  0
LINE
  5
5B1
100
AcDbEntity
  8
0
370
    13
390
0
 62
     7
 48
0.03937
100
AcDbLine
 10
4.685308
 20
0.841127
 30
0.0
 11
5.395213
 21
1.479549
 31
0.0
210
0.0
220
0.0
230
1.0
  0
POLYLINE
  5
5B2
100
AcDbEntity
  8
0
370
    13
390
0
 62
     7
 48
0.03937
100
AcDb2dPolyline
 66
     1
 10
0.0
 20
0.0
 30
0.0
 70
     1
 71
     3
  0
VERTEX
  5
5B3
100
AcDbEntity
  8
0
370
     0
390
0
100
AcDbVertex
100
AcDb2dVertex
 10
4.60753
 20
0.927614
 30
0.0
  0
VERTEX
  5
5B4
100
AcDbEntity
  8
0
370
     0
390
0
100
AcDbVertex
100
AcDb2dVertex
 10
4.166389
 20
0.37446
 30
0.0
  0
VERTEX
  5
5B5
100
AcDbEntity
  8
0
370
     0
390
0
100
AcDbVertex
100
AcDb2dVertex
 10
4.763085
 20
0.754641
 30
0.0
  0
SEQEND
  5
5B6
100
AcDbEntity
  8
0
370
     0
390
0
  0
ENDBLK
  5
5B7
100
AcDbEntity
  8
0
390
0
100
AcDbBlockEnd
  0
BLOCK
  5
5B8
100
AcDbEntity
  8
0
370
     0
390
0
100
AcDbBlockBegin
  2
BLOCK11
 70
     0
 10
0.0
 20
0.0
 30
0.0
  3
BLOCK11
  1

  0
LINE
  5
5B9
100
AcDbEntity
  8
0
370
    13
390
0
  6
DASHDOT
 62
     7
 48
0.03937
100
AcDbLine
 10
3.803106
 20
3.803106
 30
0.0
 11
1.500195
 21
1.500195
 31
0.0
210
0.0
220
0.0
230
1.0
  0
ARC
  5
5BA
100
AcDbEntity
  8
0
370
    13
390
0
  6
DASHDOT
 62
     7
 48
0.03937
100
AcDbCircle
 10
0.0
 20
0.0
 30
0.0
 40
3.75
210
0.0
220
0.0
230
1.0
100
AcDbArc
 50
20.119825
 51
69.880178
  0
ENDBLK
  5
5BB
100
AcDbEntity
  8
0
390
0
100
AcDbBlockEnd
  0
BLOCK
  5
5BC
100
AcDbEntity
  8
0
370
     0
390
0
100
AcDbBlockBegin
  2
BLOCK12
 70
     0
 10
0.0
 20
0.0
 30
0.0
  3
BLOCK12
  1

  0
LINE
  5
5BD
100
AcDbEntity
  8
0
370
    13
390
0
  6
DASHDOT
 62
     7
 48
0.03937
100
AcDbLine
 10
0.0
 20
5.367482
 30
0.0
 11
0.0
 21
2.132518
 31
0.0
210
0.0
220
0.0
230
1.0
  0
ARC
  5
5BE
100
AcDbEntity
  8
0
370
    13
390
0
  6
DASHDOT
 62
     7
 48
0.03937
100
AcDbCircle
 10
0.0
 20
0.0
 30
0.0
 40
3.75
210
0.0
220
0.0
230
1.0
100
AcDbArc
 50
65.286698
 51
114.7133
  0
ENDBLK
  5
5BF
100
AcDbEntity
  8
0
390
0
100
AcDbBlockEnd
  0
BLOCK
  5
5C0
100
AcDbEntity
  8
0
370
     0
390
0
100
AcDbBlockBegin
  2
BLOCK13
 70
     0
 10
0.0
 20
0.0
 30
0.0
  3
BLOCK13
  1

  0
LINE
  5
5C1
100
AcDbEntity
  8
0
370
    13
390
0
  6
DASHDOT
 62
     7
 48
0.03937
100
AcDbLine
 10
-3.841185
 20
3.841185
 30
0.0
 11
-1.462116
 21
1.462116
 31
0.0
210
0.0
220
0.0
230
1.0
  0
ARC
  5
5C2
100
AcDbEntity
  8
0
370
    13
390
0
  6
DASHDOT
 62
     7
 48
0.03937
100
AcDbCircle
 10
0.0
 20
0.0
 30
0.0
 40
3.75
210
0.0
220
0.0
230
1.0
100
AcDbArc
 50
109.297022
 51
160.702972
  0
ENDBLK
  5
5C3
100
AcDbEntity
  8
0
390
0
100
AcDbBlockEnd
  0
BLOCK
  5
5C4
100
AcDbEntity
  8
0
370
     0
390
0
100
AcDbBlockBegin
  2
BLOCK14
 70
     0
 10
0.0
 20
0.0
 30
0.0
  3
BLOCK14
  1

  0
LINE
  5
5C5
100
AcDbEntity
  8
0
370
    13
390
0
  6
DASHDOT
 62
     7
 48
0.03937
100
AcDbLine
 10
5.345766
 20
0.0
 30
0.0
 11
2.154234
 21
0.0
 31
0.0
210
0.0
220
0.0
230
1.0
  0
ARC
  5
5C6
100
AcDbEntity
  8
0
370
    13
390
0
  6
DASHDOT
 62
     7
 48
0.03937
100
AcDbCircle
 10
0.0
 20
0.0
 30
0.0
 40
3.75
210
0.0
220
0.0
230
1.0
100
AcDbArc
 50
335.618503
 51
24.381511
  0
ENDBLK
  5
5C7
100
AcDbEntity
  8
0
390
0
100
AcDbBlockEnd
  0
BLOCK
  5
5C8
100
AcDbEntity
  8
0
370
     0
390
0
100
AcDbBlockBegin
  2
BLOCK15
 70
     0
 10
0.0
 20
0.0
 30
0.0
  3
BLOCK15
  1

  0
SOLID
  5
5C9
100
AcDbEntity
  8
0
370
    13
390
0
 62
     7
 48
0.03937
100
AcDbTrace
 10
6.451458
 20
0.697893
 30
0.0
 11
6.567773
 21
0.0
 31
0.0
 12
6.451458
 22
0.697893
 32
0.0
 13
6.684089
 23
0.697893
 33
0.0
  0
SOLID
  5
5CA
100
AcDbEntity
  8
0
370
    13
390
0
 62
     7
 48
0.03937
100
AcDbTrace
 10
6.684089
 20
-2.317893
 30
0.0
 11
6.567773
 21
-1.62
 31
0.0
 12
6.684089
 22
-2.317893
 32
0.0
 13
6.451458
 23
-2.317893
 33
0.0
  0
TEXT
  5
5CB
100
AcDbEntity
  8
0
370
    13
390
0
 62
     7
 48
0.03937
100
AcDbText
 10
6.007556
 20
-0.981728
 30
0.0
 40
0.343456
  1
1.62
 72
     5
 11
6.876123
 21
-0.981728
 31
0.0
100
AcDbText
  0
TEXT
  5
5CC
100
AcDbEntity
  8
0
370
    13
390
0
 62
     7
 48
0.03937
100
AcDbText
 10
6.876123
 20
-0.981728
 30
0.0
 40
0.343456
  1
"
 72
     5
 11
7.127991
 21
-0.981728
 31
0.0
100
AcDbText
  0
LINE
  5
5CD
100
AcDbEntity
  8
0
370
    13
390
0
 62
     7
 48
0.03937
100
AcDbLine
 10
5.084765
 20
-1.62
 30
0.0
 11
6.842538
 21
-1.62
 31
0.0
210
0.0
220
0.0
230
1.0
  0
LINE
  5
5CE
100
AcDbEntity
  8
0
370
    13
390
0
 62
     7
 48
0.03937
100
AcDbLine
 10
5.084765
 20
0.0
 30
0.0
 11
6.842538
 21
0.0
 31
0.0
210
0.0
220
0.0
230
1.0
  0
LINE
  5
5CF
100
AcDbEntity
  8
0
370
    13
390
0
 62
     7
 48
0.010029
100
AcDbLine
 10
6.567773
 20
-2.71906
 30
0.0
 11
6.567773
 21
-2.317893
 31
0.0
210
0.0
220
0.0
230
1.0
  0
LINE
  5
5D0
100
AcDbEntity
  8
0
370
    13
390
0
 62
     7
 48
0.010029
100
AcDbLine
 10
6.567773
 20
0.697893
 30
0.0
 11
6.567773
 21
1.09906
 31
0.0
210
0.0
220
0.0
230
1.0
  0
POLYLINE
  5
5D1
100
AcDbEntity
  8
0
370
    13
390
0
 62
     7
 48
0.03937
100
AcDb2dPolyline
 66
     1
 10
0.0
 20
0.0
 30
0.0
 70
     1
 71
     3
  0
VERTEX
  5
5D2
100
AcDbEntity
  8
0
370
     0
390
0
100
AcDbVertex
100
AcDb2dVertex
 10
6.451458
 20
0.697893
 30
0.0
  0
VERTEX
  5
5D3
100
AcDbEntity
  8
0
370
     0
390
0
100
AcDbVertex
100
AcDb2dVertex
 10
6.567773
 20
0.0
 30
0.0
  0
VERTEX
  5
5D4
100
AcDbEntity
  8
0
370
     0
390
0
100
AcDbVertex
100
AcDb2dVertex
 10
6.684089
 20
0.697893
 30
0.0
  0
SEQEND
  5
5D5
100
AcDbEntity
  8
0
370
     0
390
0
  0
POLYLINE
  5
5D6
100
AcDbEntity
  8
0
370
    13
390
0
 62
     7
 48
0.03937
100
AcDb2dPolyline
 66
     1
 10
0.0
 20
0.0
 30
0.0
 70
     1
 71
     3
  0
VERTEX
  5
5D7
100
AcDbEntity
  8
0
370
     0
390
0
100
AcDbVertex
100
AcDb2dVertex
 10
6.684089
 20
-2.317893
 30
0.0
  0
VERTEX
  5
5D8
100
AcDbEntity
  8
0
370
     0
390
0
100
AcDbVertex
100
AcDb2dVertex
 10
6.567773
 20
-1.62
 30
0.0
  0
VERTEX
  5
5D9
100
AcDbEntity
  8
0
370
     0
390
0
100
AcDbVertex
100
AcDb2dVertex
 10
6.451458
 20
-2.317893
 30
0.0
  0
SEQEND
  5
5DA
100
AcDbEntity
  8
0
370
     0
390
0
  0
ENDBLK
  5
5DB
100
AcDbEntity
  8
0
390
0
100
AcDbBlockEnd
  0
BLOCK
  5
5DC
100
AcDbEntity
  8
0
370
     0
390
0
100
AcDbBlockBegin
  2
BLOCK16
 70
     0
 10
0.0
 20
0.0
 30
0.0
  3
BLOCK16
  1

  0
SOLID
  5
5DD
100
AcDbEntity
  8
0
370
    13
390
0
 62
     7
 48
0.03937
100
AcDbTrace
 10
9.293979
 20
-0.447893
 30
0.0
 11
9.177664
 21
0.25
 31
0.0
 12
9.293979
 22
-0.447893
 32
0.0
 13
9.061348
 23
-0.447893
 33
0.0
  0
SOLID
  5
5DE
100
AcDbEntity
  8
0
370
    13
390
0
 62
     7
 48
0.03937
100
AcDbTrace
 10
9.061348
 20
-8.052107
 30
0.0
 11
9.177664
 21
-8.75
 31
0.0
 12
9.061348
 22
-8.052107
 32
0.0
 13
9.293979
 23
-8.052107
 33
0.0
  0
TEXT
  5
5DF
100
AcDbEntity
  8
0
370
    13
390
0
 62
     7
 48
0.03937
100
AcDbText
 10
8.927648
 20
-4.421728
 30
0.0
 40
0.343456
  1
9
 72
     5
 11
9.17581
 21
-4.421728
 31
0.0
100
AcDbText
  0
TEXT
  5
5E0
100
AcDbEntity
  8
0
370
    13
390
0
 62
     7
 48
0.03937
100
AcDbText
 10
9.175811
 20
-4.421728
 30
0.0
 40
0.343456
  1
"
 72
     5
 11
9.427678
 21
-4.421728
 31
0.0
100
AcDbText
  0
LINE
  5
5E1
100
AcDbEntity
  8
0
370
    13
390
0
 62
     7
 48
0.03937
100
AcDbLine
 10
5.084765
 20
-8.75
 30
0.0
 11
9.452429
 21
-8.75
 31
0.0
210
0.0
220
0.0
230
1.0
  0
LINE
  5
5E2
100
AcDbEntity
  8
0
370
    13
390
0
 62
     7
 48
0.03937
100
AcDbLine
 10
2.334765
 20
0.25
 30
0.0
 11
9.452429
 21
0.25
 31
0.0
210
0.0
220
0.0
230
1.0
  0
LINE
  5
5E3
100
AcDbEntity
  8
0
370
    13
390
0
 62
     7
 48
0.03937
100
AcDbLine
 10
9.177664
 20
-8.052107
 30
0.0
 11
9.177664
 21
-4.700889
 31
0.0
210
0.0
220
0.0
230
1.0
  0
LINE
  5
5E4
100
AcDbEntity
  8
0
370
    13
390
0
 62
     7
 48
0.03937
100
AcDbLine
 10
9.177664
 20
-3.79911
 30
0.0
 11
9.177664
 21
-0.447893
 31
0.0
210
0.0
220
0.0
230
1.0
  0
POLYLINE
  5
5E5
100
AcDbEntity
  8
0
370
    13
390
0
 62
     7
 48
0.03937
100
AcDb2dPolyline
 66
     1
 10
0.0
 20
0.0
 30
0.0
 70
     1
 71
     3
  0
VERTEX
  5
5E6
100
AcDbEntity
  8
0
370
     0
390
0
100
AcDbVertex
100
AcDb2dVertex
 10
9.293979
 20
-0.447893
 30
0.0
  0
VERTEX
  5
5E7
100
AcDbEntity
  8
0
370
     0
390
0
100
AcDbVertex
100
AcDb2dVertex
 10
9.177664
 20
0.25
 30
0.0
  0
VERTEX
  5
5E8
100
AcDbEntity
  8
0
370
     0
390
0
100
AcDbVertex
100
AcDb2dVertex
 10
9.061348
 20
-0.447893
 30
0.0
  0
SEQEND
  5
5E9
100
AcDbEntity
  8
0
370
     0
390
0
  0
POLYLINE
  5
5EA
100
AcDbEntity
  8
0
370
    13
390
0
 62
     7
 48
0.03937
100
AcDb2dPolyline
 66
     1
 10
0.0
 20
0.0
 30
0.0
 70
     1
 71
     3
  0
VERTEX
  5
5EB
100
AcDbEntity
  8
0
370
     0
390
0
100
AcDbVertex
100
AcDb2dVertex
 10
9.061348
 20
-8.052107
 30
0.0
  0
VERTEX
  5
5EC
100
AcDbEntity
  8
0
370
     0
390
0
100
AcDbVertex
100
AcDb2dVertex
 10
9.177664
 20
-8.75
 30
0.0
  0
VERTEX
  5
5ED
100
AcDbEntity
  8
0
370
     0
390
0
100
AcDbVertex
100
AcDb2dVertex
 10
9.293979
 20
-8.052107
 30
0.0
  0
SEQEND
  5
5EE
100
AcDbEntity
  8
0
370
     0
390
0
  0
ENDBLK
  5
5EF
100
AcDbEntity
  8
0
390
0
100
AcDbBlockEnd
  0
BLOCK
  5
5F0
100
AcDbEntity
  8
0
370
     0
390
0
100
AcDbBlockBegin
  2
BLOCK17
 70
     0
 10
0.0
 20
0.0
 30
0.0
  3
BLOCK17
  1

  0
SOLID
  5
5F1
100
AcDbEntity
  8
0
370
    13
390
0
 62
     7
 48
0.03937
100
AcDbTrace
 10
7.661842
 20
0.947893
 30
0.0
 11
7.778157
 21
0.25
 31
0.0
 12
7.661842
 22
0.947893
 32
0.0
 13
7.894472
 23
0.947893
 33
0.0
  0
SOLID
  5
5F2
100
AcDbEntity
  8
0
370
    13
390
0
 62
     7
 48
0.03937
100
AcDbTrace
 10
7.894472
 20
-0.697893
 30
0.0
 11
7.778157
 21
0.0
 31
0.0
 12
7.894472
 22
-0.697893
 32
0.0
 13
7.661842
 23
-0.697893
 33
0.0
  0
TEXT
  5
5F3
100
AcDbEntity
  8
0
370
    13
390
0
 62
     7
 48
0.03937
100
AcDbText
 10
8.650536
 20
1.248771
 30
0.0
 40
0.343456
  1
0.25
 72
     5
 11
9.519103
 21
1.248771
 31
0.0
100
AcDbText
  0
TEXT
  5
5F4
100
AcDbEntity
  8
0
370
    13
390
0
 62
     7
 48
0.03937
100
AcDbText
 10
9.519103
 20
1.248771
 30
0.0
 40
0.343456
  1
"
 72
     5
 11
9.77097
 21
1.248771
 31
0.0
100
AcDbText
  0
LINE
  5
5F5
100
AcDbEntity
  8
0
370
    13
390
0
 62
     7
 48
0.01483
100
AcDbLine
 10
7.778157
 20
1.420499
 30
0.0
 11
8.371375
 21
1.420499
 31
0.0
210
0.0
220
0.0
230
1.0
  0
LINE
  5
5F6
100
AcDbEntity
  8
0
370
    13
390
0
 62
     7
 48
0.03937
100
AcDbLine
 10
5.084765
 20
0.0
 30
0.0
 11
8.052922
 21
0.0
 31
0.0
210
0.0
220
0.0
230
1.0
  0
LINE
  5
5F7
100
AcDbEntity
  8
0
370
    13
390
0
 62
     7
 48
0.03937
100
AcDbLine
 10
2.334765
 20
0.25
 30
0.0
 11
8.052922
 21
0.25
 31
0.0
210
0.0
220
0.0
230
1.0
  0
LINE
  5
5F8
100
AcDbEntity
  8
0
370
    13
390
0
 62
     7
 48
0.010029
100
AcDbLine
 10
7.778157
 20
-1.09906
 30
0.0
 11
7.778157
 21
-0.697893
 31
0.0
210
0.0
220
0.0
230
1.0
  0
LINE
  5
5F9
100
AcDbEntity
  8
0
370
    13
390
0
 62
     7
 48
0.011815
100
AcDbLine
 10
7.778157
 20
0.947893
 30
0.0
 11
7.778157
 21
1.420499
 31
0.0
210
0.0
220
0.0
230
1.0
  0
POLYLINE
  5
5FA
100
AcDbEntity
  8
0
370
    13
390
0
 62
     7
 48
0.03937
100
AcDb2dPolyline
 66
     1
 10
0.0
 20
0.0
 30
0.0
 70
     1
 71
     3
  0
VERTEX
  5
5FB
100
AcDbEntity
  8
0
370
     0
390
0
100
AcDbVertex
100
AcDb2dVertex
 10
7.661842
 20
0.947893
 30
0.0
  0
VERTEX
  5
5FC
100
AcDbEntity
  8
0
370
     0
390
0
100
AcDbVertex
100
AcDb2dVertex
 10
7.778157
 20
0.25
 30
0.0
  0
VERTEX
  5
5FD
100
AcDbEntity
  8
0
370
     0
390
0
100
AcDbVertex
100
AcDb2dVertex
 10
7.894472
 20
0.947893
 30
0.0
  0
SEQEND
  5
5FE
100
AcDbEntity
  8
0
370
     0
390
0
  0
POLYLINE
  5
5FF
100
AcDbEntity
  8
0
370
    13
390
0
 62
     7
 48
0.03937
100
AcDb2dPolyline
 66
     1
 10
0.0
 20
0.0
 30
0.0
 70
     1
 71
     3
  0
VERTEX
  5
600
100
AcDbEntity
  8
0
370
     0
390
0
100
AcDbVertex
100
AcDb2dVertex
 10
7.894472
 20
-0.697893
 30
0.0
  0
VERTEX
  5
601
100
AcDbEntity
  8
0
370
     0
390
0
100
AcDbVertex
100
AcDb2dVertex
 10
7.778157
 20
0.0
 30
0.0
  0
VERTEX
  5
602
100
AcDbEntity
  8
0
370
     0
390
0
100
AcDbVertex
100
AcDb2dVertex
 10
7.661842
 20
-0.697893
 30
0.0
  0
SEQEND
  5
603
100
AcDbEntity
  8
0
370
     0
390
0
  0
ENDBLK
  5
604
100
AcDbEntity
  8
0
390
0
100
AcDbBlockEnd
  0
BLOCK
  5
605
100
AcDbEntity
  8
0
370
     0
390
0
100
AcDbBlockBegin
  2
BLOCK18
 70
     0
 10
0.0
 20
0.0
 30
0.0
  3
BLOCK18
  1

  0
SOLID
  5
606
100
AcDbEntity
  8
0
370
    13
390
0
 62
     7
 48
0.03937
100
AcDbTrace
 10
4.112107
 20
-11.660517
 30
0.0
 11
4.81
 21
-11.544201
 31
0.0
 12
4.112107
 22
-11.660517
 32
0.0
 13
4.112107
 23
-11.427886
 33
0.0
  0
SOLID
  5
607
100
AcDbEntity
  8
0
370
    13
390
0
 62
     7
 48
0.03937
100
AcDbTrace
 10
-4.112107
 20
-11.427886
 30
0.0
 11
-4.81
 21
-11.544201
 31
0.0
 12
-4.112107
 22
-11.427886
 32
0.0
 13
-4.112107
 23
-11.660517
 33
0.0
  0
TEXT
  5
608
100
AcDbEntity
  8
0
370
    13
390
0
 62
     7
 48
0.03937
100
AcDbText
 10
-0.214014
 20
-11.71593
 30
0.0
 40
0.343456
  1
9.62
 72
     5
 11
0.654554
 21
-11.71593
 31
0.0
100
AcDbText
  0
TEXT
  5
609
100
AcDbEntity
  8
0
370
    13
390
0
 62
     7
 48
0.03937
100
AcDbText
 10
0.654554
 20
-11.71593
 30
0.0
 40
0.343456
  1
"
 72
     5
 11
0.906421
 21
-11.71593
 31
0.0
100
AcDbText
  0
TEXT
  5
60A
100
AcDbEntity
  8
0
370
    13
390
0
 62
     7
 48
0.03937
100
AcDbText
 10
-0.906421
 20
-11.71593
 30
0.0
 40
0.343456
  1
%%c
 72
     5
 11
-0.562965
 21
-11.71593
 31
0.0
100
AcDbText
  0
LINE
  5
60B
100
AcDbEntity
  8
0
370
    13
390
0
 62
     7
 48
0.03937
100
AcDbLine
 10
-4.81
 20
-9.024765
 30
0.0
 11
-4.81
 21
-11.818967
 31
0.0
210
0.0
220
0.0
230
1.0
  0
LINE
  5
60C
100
AcDbEntity
  8
0
370
    13
390
0
 62
     7
 48
0.03937
100
AcDbLine
 10
4.81
 20
-9.024765
 30
0.0
 11
4.81
 21
-11.818967
 31
0.0
210
0.0
220
0.0
230
1.0
  0
LINE
  5
60D
100
AcDbEntity
  8
0
370
    13
390
0
 62
     7
 48
0.03937
100
AcDbLine
 10
-4.112107
 20
-11.544201
 30
0.0
 11
-1.185583
 21
-11.544201
 31
0.0
210
0.0
220
0.0
230
1.0
  0
LINE
  5
60E
100
AcDbEntity
  8
0
370
    13
390
0
 62
     7
 48
0.03937
100
AcDbLine
 10
1.185583
 20
-11.544201
 30
0.0
 11
4.112107
 21
-11.544201
 31
0.0
210
0.0
220
0.0
230
1.0
  0
POLYLINE
  5
60F
100
AcDbEntity
  8
0
370
    13
390
0
 62
     7
 48
0.03937
100
AcDb2dPolyline
 66
     1
 10
0.0
 20
0.0
 30
0.0
 70
     1
 71
     3
  0
VERTEX
  5
610
100
AcDbEntity
  8
0
370
     0
390
0
100
AcDbVertex
100
AcDb2dVertex
 10
4.112107
 20
-11.660517
 30
0.0
  0
VERTEX
  5
611
100
AcDbEntity
  8
0
370
     0
390
0
100
AcDbVertex
100
AcDb2dVertex
 10
4.81
 20
-11.544201
 30
0.0
  0
VERTEX
  5
612
100
AcDbEntity
  8
0
370
     0
390
0
100
AcDbVertex
100
AcDb2dVertex
 10
4.112107
 20
-11.427886
 30
0.0
  0
SEQEND
  5
613
100
AcDbEntity
  8
0
370
     0
390
0
  0
POLYLINE
  5
614
100
AcDbEntity
  8
0
370
    13
390
0
 62
     7
 48
0.03937
100
AcDb2dPolyline
 66
     1
 10
0.0
 20
0.0
 30
0.0
 70
     1
 71
     3
  0
VERTEX
  5
615
100
AcDbEntity
  8
0
370
     0
390
0
100
AcDbVertex
100
AcDb2dVertex
 10
-4.112107
 20
-11.427886
 30
0.0
  0
VERTEX
  5
616
100
AcDbEntity
  8
0
370
     0
390
0
100
AcDbVertex
100
AcDb2dVertex
 10
-4.81
 20
-11.544201
 30
0.0
  0
VERTEX
  5
617
100
AcDbEntity
  8
0
370
     0
390
0
100
AcDbVertex
100
AcDb2dVertex
 10
-4.112107
 20
-11.660517
 30
0.0
  0
SEQEND
  5
618
100
AcDbEntity
  8
0
370
     0
390
0
  0
ENDBLK
  5
619
100
AcDbEntity
  8
0
390
0
100
AcDbBlockEnd
  0
BLOCK
  5
61A
100
AcDbEntity
  8
0
370
     0
390
0
100
AcDbBlockBegin
  2
BLOCK19
 70
     0
 10
0.0
 20
0.0
 30
0.0
  3
BLOCK19
  1

  0
SOLID
  5
61B
100
AcDbEntity
  8
0
370
    13
390
0
 62
     7
 48
0.03937
100
AcDbTrace
 10
-1.742107
 20
-4.624254
 30
0.0
 11
-2.44
 21
-4.740569
 31
0.0
 12
-1.742107
 22
-4.624254
 32
0.0
 13
-1.742107
 23
-4.856885
 33
0.0
  0
SOLID
  5
61C
100
AcDbEntity
  8
0
370
    13
390
0
 62
     7
 48
0.03937
100
AcDbTrace
 10
1.742107
 20
-4.856885
 30
0.0
 11
2.44
 21
-4.740569
 31
0.0
 12
1.742107
 22
-4.856885
 32
0.0
 13
1.742107
 23
-4.624254
 33
0.0
  0
TEXT
  5
61D
100
AcDbEntity
  8
0
370
    13
390
0
 62
     7
 48
0.03937
100
AcDbText
 10
-0.560218
 20
-4.912297
 30
0.0
 40
0.343456
  1
4.88
 72
     5
 11
0.30835
 21
-4.912297
 31
0.0
100
AcDbText
  0
TEXT
  5
61E
100
AcDbEntity
  8
0
370
    13
390
0
 62
     7
 48
0.03937
100
AcDbText
 10
0.30835
 20
-4.912297
 30
0.0
 40
0.343456
  1
"
 72
     5
 11
0.560218
 21
-4.912297
 31
0.0
100
AcDbText
  0
LINE
  5
61F
100
AcDbEntity
  8
0
370
    13
390
0
 62
     7
 48
0.03937
100
AcDbLine
 10
-2.44
 20
-3.144765
 30
0.0
 11
-2.44
 21
-5.015334
 31
0.0
210
0.0
220
0.0
230
1.0
  0
LINE
  5
620
100
AcDbEntity
  8
0
370
    13
390
0
 62
     7
 48
0.03937
100
AcDbLine
 10
2.44
 20
-3.144765
 30
0.0
 11
2.44
 21
-5.015334
 31
0.0
210
0.0
220
0.0
230
1.0
  0
LINE
  5
621
100
AcDbEntity
  8
0
370
    13
390
0
 62
     7
 48
0.03937
100
AcDbLine
 10
-1.742107
 20
-4.740569
 30
0.0
 11
-0.839379
 21
-4.740569
 31
0.0
210
0.0
220
0.0
230
1.0
  0
LINE
  5
622
100
AcDbEntity
  8
0
370
    13
390
0
 62
     7
 48
0.03937
100
AcDbLine
 10
0.839379
 20
-4.740569
 30
0.0
 11
1.742107
 21
-4.740569
 31
0.0
210
0.0
220
0.0
230
1.0
  0
POLYLINE
  5
623
100
AcDbEntity
  8
0
370
    13
390
0
 62
     7
 48
0.03937
100
AcDb2dPolyline
 66
     1
 10
0.0
 20
0.0
 30
0.0
 70
     1
 71
     3
  0
VERTEX
  5
624
100
AcDbEntity
  8
0
370
     0
390
0
100
AcDbVertex
100
AcDb2dVertex
 10
-1.742107
 20
-4.624254
 30
0.0
  0
VERTEX
  5
625
100
AcDbEntity
  8
0
370
     0
390
0
100
AcDbVertex
100
AcDb2dVertex
 10
-2.44
 20
-4.740569
 30
0.0
  0
VERTEX
  5
626
100
AcDbEntity
  8
0
370
     0
390
0
100
AcDbVertex
100
AcDb2dVertex
 10
-1.742107
 20
-4.856885
 30
0.0
  0
SEQEND
  5
627
100
AcDbEntity
  8
0
370
     0
390
0
  0
POLYLINE
  5
628
100
AcDbEntity
  8
0
370
    13
390
0
 62
     7
 48
0.03937
100
AcDb2dPolyline
 66
     1
 10
0.0
 20
0.0
 30
0.0
 70
     1
 71
     3
  0
VERTEX
  5
629
100
AcDbEntity
  8
0
370
     0
390
0
100
AcDbVertex
100
AcDb2dVertex
 10
1.742107
 20
-4.856885
 30
0.0
  0
VERTEX
  5
62A
100
AcDbEntity
  8
0
370
     0
390
0
100
AcDbVertex
100
AcDb2dVertex
 10
2.44
 20
-4.740569
 30
0.0
  0
VERTEX
  5
62B
100
AcDbEntity
  8
0
370
     0
390
0
100
AcDbVertex
100
AcDb2dVertex
 10
1.742107
 20
-4.624254
 30
0.0
  0
SEQEND
  5
62C
100
AcDbEntity
  8
0
370
     0
390
0
  0
ENDBLK
  5
62D
100
AcDbEntity
  8
0
390
0
100
AcDbBlockEnd
  0
BLOCK
  5
62E
100
AcDbEntity
  8
0
370
     0
390
0
100
AcDbBlockBegin
  2
BLOCK20
 70
     0
 10
0.0
 20
0.0
 30
0.0
  3
BLOCK20
  1

  0
SOLID
  5
62F
100
AcDbEntity
  8
0
370
    13
390
0
 62
     7
 48
0.03937
100
AcDbTrace
 10
-1.362107
 20
1.914793
 30
0.0
 11
-2.06
 21
1.798478
 31
0.0
 12
-1.362107
 22
1.914793
 32
0.0
 13
-1.362107
 23
1.682162
 33
0.0
  0
SOLID
  5
630
100
AcDbEntity
  8
0
370
    13
390
0
 62
     7
 48
0.03937
100
AcDbTrace
 10
1.362107
 20
1.682162
 30
0.0
 11
2.06
 21
1.798478
 31
0.0
 12
1.362107
 22
1.682162
 32
0.0
 13
1.362107
 23
1.914793
 33
0.0
  0
TEXT
  5
631
100
AcDbEntity
  8
0
370
    13
390
0
 62
     7
 48
0.03937
100
AcDbText
 10
-0.214014
 20
1.626749
 30
0.0
 40
0.343456
  1
4.12
 72
     5
 11
0.654554
 21
1.626749
 31
0.0
100
AcDbText
  0
TEXT
  5
632
100
AcDbEntity
  8
0
370
    13
390
0
 62
     7
 48
0.03937
100
AcDbText
 10
0.654554
 20
1.626749
 30
0.0
 40
0.343456
  1
"
 72
     5
 11
0.906421
 21
1.626749
 31
0.0
100
AcDbText
  0
TEXT
  5
633
100
AcDbEntity
  8
0
370
    13
390
0
 62
     7
 48
0.03937
100
AcDbText
 10
-0.906421
 20
1.626749
 30
0.0
 40
0.343456
  1
%%c
 72
     5
 11
-0.562965
 21
1.626749
 31
0.0
100
AcDbText
  0
LINE
  5
634
100
AcDbEntity
  8
0
370
    13
390
0
 62
     7
 48
0.03937
100
AcDbLine
 10
-2.06
 20
0.524765
 30
0.0
 11
-2.06
 21
2.073243
 31
0.0
210
0.0
220
0.0
230
1.0
  0
LINE
  5
635
100
AcDbEntity
  8
0
370
    13
390
0
 62
     7
 48
0.03937
100
AcDbLine
 10
2.06
 20
0.524765
 30
0.0
 11
2.06
 21
2.073243
 31
0.0
210
0.0
220
0.0
230
1.0
  0
LINE
  5
636
100
AcDbEntity
  8
0
370
    13
390
0
 62
     7
 48
0.004413
100
AcDbLine
 10
-1.362107
 20
1.798478
 30
0.0
 11
-1.185583
 21
1.798478
 31
0.0
210
0.0
220
0.0
230
1.0
  0
LINE
  5
637
100
AcDbEntity
  8
0
370
    13
390
0
 62
     7
 48
0.004413
100
AcDbLine
 10
1.185583
 20
1.798478
 30
0.0
 11
1.362107
 21
1.798478
 31
0.0
210
0.0
220
0.0
230
1.0
  0
POLYLINE
  5
638
100
AcDbEntity
  8
0
370
    13
390
0
 62
     7
 48
0.03937
100
AcDb2dPolyline
 66
     1
 10
0.0
 20
0.0
 30
0.0
 70
     1
 71
     3
  0
VERTEX
  5
639
100
AcDbEntity
  8
0
370
     0
390
0
100
AcDbVertex
100
AcDb2dVertex
 10
-1.362107
 20
1.914793
 30
0.0
  0
VERTEX
  5
63A
100
AcDbEntity
  8
0
370
     0
390
0
100
AcDbVertex
100
AcDb2dVertex
 10
-2.06
 20
1.798478
 30
0.0
  0
VERTEX
  5
63B
100
AcDbEntity
  8
0
370
     0
390
0
100
AcDbVertex
100
AcDb2dVertex
 10
-1.362107
 20
1.682162
 30
0.0
  0
SEQEND
  5
63C
100
AcDbEntity
  8
0
370
     0
390
0
  0
POLYLINE
  5
63D
100
AcDbEntity
  8
0
370
    13
390
0
 62
     7
 48
0.03937
100
AcDb2dPolyline
 66
     1
 10
0.0
 20
0.0
 30
0.0
 70
     1
 71
     3
  0
VERTEX
  5
63E
100
AcDbEntity
  8
0
370
     0
390
0
100
AcDbVertex
100
AcDb2dVertex
 10
1.362107
 20
1.682162
 30
0.0
  0
VERTEX
  5
63F
100
AcDbEntity
  8
0
370
     0
390
0
100
AcDbVertex
100
AcDb2dVertex
 10
2.06
 20
1.798478
 30
0.0
  0
VERTEX
  5
640
100
AcDbEntity
  8
0
370
     0
390
0
100
AcDbVertex
100
AcDb2dVertex
 10
1.362107
 20
1.914793
 30
0.0
  0
SEQEND
  5
641
100
AcDbEntity
  8
0
370
     0
390
0
  0
ENDBLK
  5
642
100
AcDbEntity
  8
0
390
0
100
AcDbBlockEnd
  0
BLOCK
  5
643
100
AcDbEntity
  8
0
370
     0
390
0
100
AcDbBlockBegin
  2
BLOCK21
 70
     0
 10
0.0
 20
0.0
 30
0.0
  3
BLOCK21
  1

  0
SOLID
  5
644
100
AcDbEntity
  8
0
370
    13
390
0
 62
     7
 48
0.03937
100
AcDbTrace
 10
-6.219751
 20
-0.922107
 30
0.0
 11
-6.103436
 21
-1.62
 31
0.0
 12
-6.219751
 22
-0.922107
 32
0.0
 13
-5.987121
 23
-0.922107
 33
0.0
  0
SOLID
  5
645
100
AcDbEntity
  8
0
370
    13
390
0
 62
     7
 48
0.03937
100
AcDbTrace
 10
-5.987121
 20
-3.567893
 30
0.0
 11
-6.103436
 21
-2.87
 31
0.0
 12
-5.987121
 22
-3.567893
 32
0.0
 13
-6.219751
 23
-3.567893
 33
0.0
  0
TEXT
  5
646
100
AcDbEntity
  8
0
370
    13
390
0
 62
     7
 48
0.03937
100
AcDbText
 10
-6.663653
 20
-2.416728
 30
0.0
 40
0.343456
  1
1.25
 72
     5
 11
-5.795086
 21
-2.416728
 31
0.0
100
AcDbText
  0
TEXT
  5
647
100
AcDbEntity
  8
0
370
    13
390
0
 62
     7
 48
0.03937
100
AcDbText
 10
-5.795086
 20
-2.416728
 30
0.0
 40
0.343456
  1
"
 72
     5
 11
-5.543218
 21
-2.416728
 31
0.0
100
AcDbText
  0
LINE
  5
648
100
AcDbEntity
  8
0
370
    13
390
0
 62
     7
 48
0.03937
100
AcDbLine
 10
-2.714765
 20
-2.87
 30
0.0
 11
-6.3782
 21
-2.87
 31
0.0
210
0.0
220
0.0
230
1.0
  0
LINE
  5
649
100
AcDbEntity
  8
0
370
    13
390
0
 62
     7
 48
0.03937
100
AcDbLine
 10
-5.084765
 20
-1.62
 30
0.0
 11
-6.3782
 21
-1.62
 31
0.0
210
0.0
220
0.0
230
1.0
  0
LINE
  5
64A
100
AcDbEntity
  8
0
370
    13
390
0
 62
     7
 48
0.010029
100
AcDbLine
 10
-6.103436
 20
-3.96906
 30
0.0
 11
-6.103436
 21
-3.567893
 31
0.0
210
0.0
220
0.0
230
1.0
  0
LINE
  5
64B
100
AcDbEntity
  8
0
370
    13
390
0
 62
     7
 48
0.010029
100
AcDbLine
 10
-6.103436
 20
-0.922107
 30
0.0
 11
-6.103436
 21
-0.52094
 31
0.0
210
0.0
220
0.0
230
1.0
  0
POLYLINE
  5
64C
100
AcDbEntity
  8
0
370
    13
390
0
 62
     7
 48
0.03937
100
AcDb2dPolyline
 66
     1
 10
0.0
 20
0.0
 30
0.0
 70
     1
 71
     3
  0
VERTEX
  5
64D
100
AcDbEntity
  8
0
370
     0
390
0
100
AcDbVertex
100
AcDb2dVertex
 10
-6.219751
 20
-0.922107
 30
0.0
  0
VERTEX
  5
64E
100
AcDbEntity
  8
0
370
     0
390
0
100
AcDbVertex
100
AcDb2dVertex
 10
-6.103436
 20
-1.62
 30
0.0
  0
VERTEX
  5
64F
100
AcDbEntity
  8
0
370
     0
390
0
100
AcDbVertex
100
AcDb2dVertex
 10
-5.987121
 20
-0.922107
 30
0.0
  0
SEQEND
  5
650
100
AcDbEntity
  8
0
370
     0
390
0
  0
POLYLINE
  5
651
100
AcDbEntity
  8
0
370
    13
390
0
 62
     7
 48
0.03937
100
AcDb2dPolyline
 66
     1
 10
0.0
 20
0.0
 30
0.0
 70
     1
 71
     3
  0
VERTEX
  5
652
100
AcDbEntity
  8
0
370
     0
390
0
100
AcDbVertex
100
AcDb2dVertex
 10
-5.987121
 20
-3.567893
 30
0.0
  0
VERTEX
  5
653
100
AcDbEntity
  8
0
370
     0
390
0
100
AcDbVertex
100
AcDb2dVertex
 10
-6.103436
 20
-2.87
 30
0.0
  0
VERTEX
  5
654
100
AcDbEntity
  8
0
370
     0
390
0
100
AcDbVertex
100
AcDb2dVertex
 10
-6.219751
 20
-3.567893
 30
0.0
  0
SEQEND
  5
655
100
AcDbEntity
  8
0
370
     0
390
0
  0
ENDBLK
  5
656
100
AcDbEntity
  8
0
390
0
100
AcDbBlockEnd
  0
BLOCK
  5
657
100
AcDbEntity
  8
0
370
     0
390
0
100
AcDbBlockBegin
  2
BLOCK22
 70
     0
 10
0.0
 20
0.0
 30
0.0
  3
BLOCK22
  1

  0
SOLID
  5
658
100
AcDbEntity
  8
0
370
    13
390
0
 62
     7
 48
0.03937
100
AcDbTrace
 10
1.947893
 20
-10.369545
 30
0.0
 11
1.25
 21
-10.48586
 31
0.0
 12
1.947893
 22
-10.369545
 32
0.0
 13
1.947893
 23
-10.602175
 33
0.0
  0
SOLID
  5
659
100
AcDbEntity
  8
0
370
    13
390
0
 62
     7
 48
0.03937
100
AcDbTrace
 10
-1.947893
 20
-10.602175
 30
0.0
 11
-1.25
 21
-10.48586
 31
0.0
 12
-1.947893
 22
-10.602175
 32
0.0
 13
-1.947893
 23
-10.369545
 33
0.0
  0
TEXT
  5
65A
100
AcDbEntity
  8
0
370
    13
390
0
 62
     7
 48
0.03937
100
AcDbText
 10
-0.089933
 20
-10.657589
 30
0.0
 40
0.343456
  1
2.5
 72
     5
 11
0.530473
 21
-10.657589
 31
0.0
100
AcDbText
  0
TEXT
  5
65B
100
AcDbEntity
  8
0
370
    13
390
0
 62
     7
 48
0.03937
100
AcDbText
 10
0.530472
 20
-10.657589
 30
0.0
 40
0.343456
  1
"
 72
     5
 11
0.78234
 21
-10.657589
 31
0.0
100
AcDbText
  0
TEXT
  5
65C
100
AcDbEntity
  8
0
370
    13
390
0
 62
     7
 48
0.03937
100
AcDbText
 10
-0.78234
 20
-10.657589
 30
0.0
 40
0.343456
  1
%%c
 72
     5
 11
-0.438884
 21
-10.657589
 31
0.0
100
AcDbText
  0
LINE
  5
65D
100
AcDbEntity
  8
0
370
    13
390
0
 62
     7
 48
0.03937
100
AcDbLine
 10
-1.25
 20
-9.024765
 30
0.0
 11
-1.25
 21
-10.760625
 31
0.0
210
0.0
220
0.0
230
1.0
  0
LINE
  5
65E
100
AcDbEntity
  8
0
370
    13
390
0
 62
     7
 48
0.03937
100
AcDbLine
 10
1.25
 20
-9.024765
 30
0.0
 11
1.25
 21
-10.760625
 31
0.0
210
0.0
220
0.0
230
1.0
  0
LINE
  5
65F
100
AcDbEntity
  8
0
370
    13
390
0
 62
     7
 48
0.010029
100
AcDbLine
 10
-2.34906
 20
-10.48586
 30
0.0
 11
-1.947893
 21
-10.48586
 31
0.0
210
0.0
220
0.0
230
1.0
  0
LINE
  5
660
100
AcDbEntity
  8
0
370
    13
390
0
 62
     7
 48
0.010029
100
AcDbLine
 10
1.947893
 20
-10.48586
 30
0.0
 11
2.34906
 21
-10.48586
 31
0.0
210
0.0
220
0.0
230
1.0
  0
POLYLINE
  5
661
100
AcDbEntity
  8
0
370
    13
390
0
 62
     7
 48
0.03937
100
AcDb2dPolyline
 66
     1
 10
0.0
 20
0.0
 30
0.0
 70
     1
 71
     3
  0
VERTEX
  5
662
100
AcDbEntity
  8
0
370
     0
390
0
100
AcDbVertex
100
AcDb2dVertex
 10
1.947893
 20
-10.369545
 30
0.0
  0
VERTEX
  5
663
100
AcDbEntity
  8
0
370
     0
390
0
100
AcDbVertex
100
AcDb2dVertex
 10
1.25
 20
-10.48586
 30
0.0
  0
VERTEX
  5
664
100
AcDbEntity
  8
0
370
     0
390
0
100
AcDbVertex
100
AcDb2dVertex
 10
1.947893
 20
-10.602175
 30
0.0
  0
SEQEND
  5
665
100
AcDbEntity
  8
0
370
     0
390
0
  0
POLYLINE
  5
666
100
AcDbEntity
  8
0
370
    13
390
0
 62
     7
 48
0.03937
100
AcDb2dPolyline
 66
     1
 10
0.0
 20
0.0
 30
0.0
 70
     1
 71
     3
  0
VERTEX
  5
667
100
AcDbEntity
  8
0
370
     0
390
0
100
AcDbVertex
100
AcDb2dVertex
 10
-1.947893
 20
-10.602175
 30
0.0
  0
VERTEX
  5
668
100
AcDbEntity
  8
0
370
     0
390
0
100
AcDbVertex
100
AcDb2dVertex
 10
-1.25
 20
-10.48586
 30
0.0
  0
VERTEX
  5
669
100
AcDbEntity
  8
0
370
     0
390
0
100
AcDbVertex
100
AcDb2dVertex
 10
-1.947893
 20
-10.369545
 30
0.0
  0
SEQEND
  5
66A
100
AcDbEntity
  8
0
370
     0
390
0
  0
ENDBLK
  5
66B
100
AcDbEntity
  8
0
390
0
100
AcDbBlockEnd
  0
BLOCK
  5
66C
100
AcDbEntity
  8
0
370
     0
390
0
100
AcDbBlockBegin
  2
BLOCK23
 70
     0
 10
0.0
 20
0.0
 30
0.0
  3
BLOCK23
  1

  0
LINE
  5
66D
100
AcDbEntity
  8
0
370
     5
390
0
 62
     7
 48
0.0125
100
AcDbLine
 10
4.81
 20
-1.62
 30
0.0
 11
4.31
 21
-1.62
 31
0.0
210
0.0
220
0.0
230
1.0
  0
LINE
  5
66E
100
AcDbEntity
  8
0
370
     5
390
0
 62
     7
 48
0.03937
100
AcDbLine
 10
4.31
 20
-1.62
 30
0.0
 11
4.31
 21
0.0
 31
0.0
210
0.0
220
0.0
230
1.0
  0
LINE
  5
66F
100
AcDbEntity
  8
0
370
     5
390
0
 62
     7
 48
0.0125
100
AcDbLine
 10
4.31
 20
0.0
 30
0.0
 11
4.81
 21
0.0
 31
0.0
210
0.0
220
0.0
230
1.0
  0
LINE
  5
670
100
AcDbEntity
  8
0
370
     5
390
0
 62
     7
 48
0.03937
100
AcDbLine
 10
4.81
 20
0.0
 30
0.0
 11
4.81
 21
-1.62
 31
0.0
210
0.0
220
0.0
230
1.0
  0
ENDBLK
  5
671
100
AcDbEntity
  8
0
390
0
100
AcDbBlockEnd
  0
BLOCK
  5
672
100
AcDbEntity
  8
0
370
     0
390
0
100
AcDbBlockBegin
  2
BLOCK24
 70
     0
 10
0.0
 20
0.0
 30
0.0
  3
BLOCK24
  1

  0
LINE
  5
673
100
AcDbEntity
  8
0
370
     5
390
0
 62
     7
 48
0.019125
100
AcDbLine
 10
3.19
 20
-1.62
 30
0.0
 11
2.425
 21
-1.62
 31
0.0
210
0.0
220
0.0
230
1.0
  0
LINE
  5
674
100
AcDbEntity
  8
0
370
     5
390
0
 62
     7
 48
0.000028
100
AcDbLine
 10
2.425
 20
-1.62
 30
0.0
 11
2.423879
 21
-1.620042
 31
0.0
210
0.0
220
0.0
230
1.0
  0
LINE
  5
675
100
AcDbEntity
  8
0
370
     5
390
0
 62
     7
 48
0.000028
100
AcDbLine
 10
2.423879
 20
-1.620042
 30
0.0
 11
2.422764
 21
-1.620168
 31
0.0
210
0.0
220
0.0
230
1.0
  0
LINE
  5
676
100
AcDbEntity
  8
0
370
     5
390
0
 62
     7
 48
0.000028
100
AcDbLine
 10
2.422764
 20
-1.620168
 30
0.0
 11
2.421662
 21
-1.620376
 31
0.0
210
0.0
220
0.0
230
1.0
  0
LINE
  5
677
100
AcDbEntity
  8
0
370
     5
390
0
 62
     7
 48
0.000028
100
AcDbLine
 10
2.421662
 20
-1.620376
 30
0.0
 11
2.420579
 21
-1.620666
 31
0.0
210
0.0
220
0.0
230
1.0
  0
LINE
  5
678
100
AcDbEntity
  8
0
370
     5
390
0
 62
     7
 48
0.000028
100
AcDbLine
 10
2.420579
 20
-1.620666
 30
0.0
 11
2.41952
 21
-1.621037
 31
0.0
210
0.0
220
0.0
230
1.0
  0
LINE
  5
679
100
AcDbEntity
  8
0
370
     5
390
0
 62
     7
 48
0.000028
100
AcDbLine
 10
2.41952
 20
-1.621037
 30
0.0
 11
2.418492
 21
-1.621485
 31
0.0
210
0.0
220
0.0
230
1.0
  0
LINE
  5
67A
100
AcDbEntity
  8
0
370
     5
390
0
 62
     7
 48
0.000028
100
AcDbLine
 10
2.418492
 20
-1.621485
 30
0.0
 11
2.4175
 21
-1.62201
 31
0.0
210
0.0
220
0.0
230
1.0
  0
LINE
  5
67B
100
AcDbEntity
  8
0
370
     5
390
0
 62
     7
 48
0.000028
100
AcDbLine
 10
2.4175
 20
-1.62201
 30
0.0
 11
2.41655
 21
-1.622606
 31
0.0
210
0.0
220
0.0
230
1.0
  0
LINE
  5
67C
100
AcDbEntity
  8
0
370
     5
390
0
 62
     7
 48
0.000028
100
AcDbLine
 10
2.41655
 20
-1.622606
 30
0.0
 11
2.415648
 21
-1.623272
 31
0.0
210
0.0
220
0.0
230
1.0
  0
LINE
  5
67D
100
AcDbEntity
  8
0
370
     5
390
0
 62
     7
 48
0.000028
100
AcDbLine
 10
2.415648
 20
-1.623272
 30
0.0
 11
2.414797
 21
-1.624004
 31
0.0
210
0.0
220
0.0
230
1.0
  0
LINE
  5
67E
100
AcDbEntity
  8
0
370
     5
390
0
 62
     7
 48
0.000028
100
AcDbLine
 10
2.414797
 20
-1.624004
 30
0.0
 11
2.414004
 21
-1.624797
 31
0.0
210
0.0
220
0.0
230
1.0
  0
LINE
  5
67F
100
AcDbEntity
  8
0
370
     5
390
0
 62
     7
 48
0.000028
100
AcDbLine
 10
2.414004
 20
-1.624797
 30
0.0
 11
2.413273
 21
-1.625648
 31
0.0
210
0.0
220
0.0
230
1.0
  0
LINE
  5
680
100
AcDbEntity
  8
0
370
     5
390
0
 62
     7
 48
0.000028
100
AcDbLine
 10
2.413273
 20
-1.625648
 30
0.0
 11
2.412606
 21
-1.62655
 31
0.0
210
0.0
220
0.0
230
1.0
  0
LINE
  5
681
100
AcDbEntity
  8
0
370
     5
390
0
 62
     7
 48
0.000028
100
AcDbLine
 10
2.412606
 20
-1.62655
 30
0.0
 11
2.41201
 21
-1.6275
 31
0.0
210
0.0
220
0.0
230
1.0
  0
LINE
  5
682
100
AcDbEntity
  8
0
370
     5
390
0
 62
     7
 48
0.000028
100
AcDbLine
 10
2.41201
 20
-1.6275
 30
0.0
 11
2.411486
 21
-1.628492
 31
0.0
210
0.0
220
0.0
230
1.0
  0
LINE
  5
683
100
AcDbEntity
  8
0
370
     5
390
0
 62
     7
 48
0.000028
100
AcDbLine
 10
2.411486
 20
-1.628492
 30
0.0
 11
2.411037
 21
-1.62952
 31
0.0
210
0.0
220
0.0
230
1.0
  0
LINE
  5
684
100
AcDbEntity
  8
0
370
     5
390
0
 62
     7
 48
0.000028
100
AcDbLine
 10
2.411037
 20
-1.62952
 30
0.0
 11
2.410666
 21
-1.630579
 31
0.0
210
0.0
220
0.0
230
1.0
  0
LINE
  5
685
100
AcDbEntity
  8
0
370
     5
390
0
 62
     7
 48
0.000028
100
AcDbLine
 10
2.410666
 20
-1.630579
 30
0.0
 11
2.410376
 21
-1.631662
 31
0.0
210
0.0
220
0.0
230
1.0
  0
LINE
  5
686
100
AcDbEntity
  8
0
370
     5
390
0
 62
     7
 48
0.000028
100
AcDbLine
 10
2.410376
 20
-1.631662
 30
0.0
 11
2.410167
 21
-1.632764
 31
0.0
210
0.0
220
0.0
230
1.0
  0
LINE
  5
687
100
AcDbEntity
  8
0
370
     5
390
0
 62
     7
 48
0.000028
100
AcDbLine
 10
2.410167
 20
-1.632764
 30
0.0
 11
2.410042
 21
-1.633879
 31
0.0
210
0.0
220
0.0
230
1.0
  0
LINE
  5
688
100
AcDbEntity
  8
0
370
     5
390
0
 62
     7
 48
0.000028
100
AcDbLine
 10
2.410042
 20
-1.633879
 30
0.0
 11
2.41
 21
-1.635
 31
0.0
210
0.0
220
0.0
230
1.0
  0
LINE
  5
689
100
AcDbEntity
  8
0
370
     5
390
0
 62
     7
 48
0.000028
100
AcDbLine
 10
2.41
 20
-1.635
 30
0.0
 11
2.410042
 21
-1.636121
 31
0.0
210
0.0
220
0.0
230
1.0
  0
LINE
  5
68A
100
AcDbEntity
  8
0
370
     5
390
0
 62
     7
 48
0.000028
100
AcDbLine
 10
2.410042
 20
-1.636121
 30
0.0
 11
2.410167
 21
-1.637236
 31
0.0
210
0.0
220
0.0
230
1.0
  0
LINE
  5
68B
100
AcDbEntity
  8
0
370
     5
390
0
 62
     7
 48
0.000028
100
AcDbLine
 10
2.410167
 20
-1.637236
 30
0.0
 11
2.410376
 21
-1.638338
 31
0.0
210
0.0
220
0.0
230
1.0
  0
LINE
  5
68C
100
AcDbEntity
  8
0
370
     5
390
0
 62
     7
 48
0.000028
100
AcDbLine
 10
2.410376
 20
-1.638338
 30
0.0
 11
2.410666
 21
-1.639421
 31
0.0
210
0.0
220
0.0
230
1.0
  0
LINE
  5
68D
100
AcDbEntity
  8
0
370
     5
390
0
 62
     7
 48
0.000028
100
AcDbLine
 10
2.410666
 20
-1.639421
 30
0.0
 11
2.411037
 21
-1.64048
 31
0.0
210
0.0
220
0.0
230
1.0
  0
LINE
  5
68E
100
AcDbEntity
  8
0
370
     5
390
0
 62
     7
 48
0.000028
100
AcDbLine
 10
2.411037
 20
-1.64048
 30
0.0
 11
2.411486
 21
-1.641508
 31
0.0
210
0.0
220
0.0
230
1.0
  0
LINE
  5
68F
100
AcDbEntity
  8
0
370
     5
390
0
 62
     7
 48
0.000028
100
AcDbLine
 10
2.411486
 20
-1.641508
 30
0.0
 11
2.41201
 21
-1.6425
 31
0.0
210
0.0
220
0.0
230
1.0
  0
LINE
  5
690
100
AcDbEntity
  8
0
370
     5
390
0
 62
     7
 48
0.000028
100
AcDbLine
 10
2.41201
 20
-1.6425
 30
0.0
 11
2.412606
 21
-1.64345
 31
0.0
210
0.0
220
0.0
230
1.0
  0
LINE
  5
691
100
AcDbEntity
  8
0
370
     5
390
0
 62
     7
 48
0.000028
100
AcDbLine
 10
2.412606
 20
-1.64345
 30
0.0
 11
2.413273
 21
-1.644352
 31
0.0
210
0.0
220
0.0
230
1.0
  0
LINE
  5
692
100
AcDbEntity
  8
0
370
     5
390
0
 62
     7
 48
0.000028
100
AcDbLine
 10
2.413273
 20
-1.644352
 30
0.0
 11
2.414004
 21
-1.645203
 31
0.0
210
0.0
220
0.0
230
1.0
  0
LINE
  5
693
100
AcDbEntity
  8
0
370
     5
390
0
 62
     7
 48
0.000028
100
AcDbLine
 10
2.414004
 20
-1.645203
 30
0.0
 11
2.414797
 21
-1.645996
 31
0.0
210
0.0
220
0.0
230
1.0
  0
LINE
  5
694
100
AcDbEntity
  8
0
370
     5
390
0
 62
     7
 48
0.000028
100
AcDbLine
 10
2.414797
 20
-1.645996
 30
0.0
 11
2.415648
 21
-1.646727
 31
0.0
210
0.0
220
0.0
230
1.0
  0
LINE
  5
695
100
AcDbEntity
  8
0
370
     5
390
0
 62
     7
 48
0.000028
100
AcDbLine
 10
2.415648
 20
-1.646727
 30
0.0
 11
2.41655
 21
-1.647394
 31
0.0
210
0.0
220
0.0
230
1.0
  0
LINE
  5
696
100
AcDbEntity
  8
0
370
     5
390
0
 62
     7
 48
0.000028
100
AcDbLine
 10
2.41655
 20
-1.647394
 30
0.0
 11
2.4175
 21
-1.64799
 31
0.0
210
0.0
220
0.0
230
1.0
  0
LINE
  5
697
100
AcDbEntity
  8
0
370
     5
390
0
 62
     7
 48
0.00065
100
AcDbLine
 10
2.4175
 20
-1.64799
 30
0.0
 11
2.44
 21
-1.660981
 31
0.0
210
0.0
220
0.0
230
1.0
  0
LINE
  5
698
100
AcDbEntity
  8
0
370
     5
390
0
 62
     7
 48
0.03937
100
AcDbLine
 10
2.44
 20
-1.660981
 30
0.0
 11
2.44
 21
-2.87
 31
0.0
210
0.0
220
0.0
230
1.0
  0
LINE
  5
699
100
AcDbEntity
  8
0
370
     5
390
0
 62
     7
 48
0.03937
100
AcDbLine
 10
2.44
 20
-2.87
 30
0.0
 11
4.81
 21
-4.23832
 31
0.0
210
0.0
220
0.0
230
1.0
  0
LINE
  5
69A
100
AcDbEntity
  8
0
370
     5
390
0
 62
     7
 48
0.03937
100
AcDbLine
 10
4.81
 20
-4.23832
 30
0.0
 11
4.81
 21
-8.75
 31
0.0
210
0.0
220
0.0
230
1.0
  0
LINE
  5
69B
100
AcDbEntity
  8
0
370
     5
390
0
 62
     7
 48
0.03937
100
AcDbLine
 10
4.81
 20
-8.75
 30
0.0
 11
1.25
 21
-8.75
 31
0.0
210
0.0
220
0.0
230
1.0
  0
LINE
  5
69C
100
AcDbEntity
  8
0
370
     5
390
0
 62
     7
 48
0.03937
100
AcDbLine
 10
1.25
 20
-8.75
 30
0.0
 11
1.25
 21
0.25
 31
0.0
210
0.0
220
0.0
230
1.0
  0
LINE
  5
69D
100
AcDbEntity
  8
0
370
     5
390
0
 62
     7
 48
0.03937
100
AcDbLine
 10
1.25
 20
0.25
 30
0.0
 11
2.06
 21
0.25
 31
0.0
210
0.0
220
0.0
230
1.0
  0
LINE
  5
69E
100
AcDbEntity
  8
0
370
     5
390
0
 62
     7
 48
0.00625
100
AcDbLine
 10
2.06
 20
0.25
 30
0.0
 11
2.06
 21
0.0
 31
0.0
210
0.0
220
0.0
230
1.0
  0
LINE
  5
69F
100
AcDbEntity
  8
0
370
     5
390
0
 62
     7
 48
0.03937
100
AcDbLine
 10
2.06
 20
0.0
 30
0.0
 11
3.19
 21
0.0
 31
0.0
210
0.0
220
0.0
230
1.0
  0
LINE
  5
6A0
100
AcDbEntity
  8
0
370
     5
390
0
 62
     7
 48
0.03937
100
AcDbLine
 10
3.19
 20
0.0
 30
0.0
 11
3.19
 21
-1.62
 31
0.0
210
0.0
220
0.0
230
1.0
  0
ENDBLK
  5
6A1
100
AcDbEntity
  8
0
390
0
100
AcDbBlockEnd
  0
BLOCK
  5
6A2
100
AcDbEntity
  8
0
370
     0
390
0
100
AcDbBlockBegin
  2
BLOCK25
 70
     0
 10
0.0
 20
0.0
 30
0.0
  3
BLOCK25
  1

  0
LINE
  5
6A3
100
AcDbEntity
  8
0
370
     5
390
0
 62
     7
 48
0.03937
100
AcDbLine
 10
-3.19
 20
-1.62
 30
0.0
 11
-3.19
 21
0.0
 31
0.0
210
0.0
220
0.0
230
1.0
  0
LINE
  5
6A4
100
AcDbEntity
  8
0
370
     5
390
0
 62
     7
 48
0.03937
100
AcDbLine
 10
-3.19
 20
0.0
 30
0.0
 11
-2.06
 21
0.0
 31
0.0
210
0.0
220
0.0
230
1.0
  0
LINE
  5
6A5
100
AcDbEntity
  8
0
370
     5
390
0
 62
     7
 48
0.00625
100
AcDbLine
 10
-2.06
 20
0.0
 30
0.0
 11
-2.06
 21
0.25
 31
0.0
210
0.0
220
0.0
230
1.0
  0
LINE
  5
6A6
100
AcDbEntity
  8
0
370
     5
390
0
 62
     7
 48
0.03937
100
AcDbLine
 10
-2.06
 20
0.25
 30
0.0
 11
-1.25
 21
0.25
 31
0.0
210
0.0
220
0.0
230
1.0
  0
LINE
  5
6A7
100
AcDbEntity
  8
0
370
     5
390
0
 62
     7
 48
0.03937
100
AcDbLine
 10
-1.25
 20
0.25
 30
0.0
 11
-1.25
 21
-8.75
 31
0.0
210
0.0
220
0.0
230
1.0
  0
LINE
  5
6A8
100
AcDbEntity
  8
0
370
     5
390
0
 62
     7
 48
0.03937
100
AcDbLine
 10
-1.25
 20
-8.75
 30
0.0
 11
-4.81
 21
-8.75
 31
0.0
210
0.0
220
0.0
230
1.0
  0
LINE
  5
6A9
100
AcDbEntity
  8
0
370
     5
390
0
 62
     7
 48
0.03937
100
AcDbLine
 10
-4.81
 20
-8.75
 30
0.0
 11
-4.81
 21
-4.23832
 31
0.0
210
0.0
220
0.0
230
1.0
  0
LINE
  5
6AA
100
AcDbEntity
  8
0
370
     5
390
0
 62
     7
 48
0.03937
100
AcDbLine
 10
-4.81
 20
-4.23832
 30
0.0
 11
-2.44
 21
-2.87
 31
0.0
210
0.0
220
0.0
230
1.0
  0
LINE
  5
6AB
100
AcDbEntity
  8
0
370
     5
390
0
 62
     7
 48
0.03937
100
AcDbLine
 10
-2.44
 20
-2.87
 30
0.0
 11
-2.44
 21
-1.660981
 31
0.0
210
0.0
220
0.0
230
1.0
  0
LINE
  5
6AC
100
AcDbEntity
  8
0
370
     5
390
0
 62
     7
 48
0.00065
100
AcDbLine
 10
-2.44
 20
-1.660981
 30
0.0
 11
-2.4175
 21
-1.64799
 31
0.0
210
0.0
220
0.0
230
1.0
  0
LINE
  5
6AD
100
AcDbEntity
  8
0
370
     5
390
0
 62
     7
 48
0.000028
100
AcDbLine
 10
-2.4175
 20
-1.64799
 30
0.0
 11
-2.41655
 21
-1.647394
 31
0.0
210
0.0
220
0.0
230
1.0
  0
LINE
  5
6AE
100
AcDbEntity
  8
0
370
     5
390
0
 62
     7
 48
0.000028
100
AcDbLine
 10
-2.41655
 20
-1.647394
 30
0.0
 11
-2.415648
 21
-1.646727
 31
0.0
210
0.0
220
0.0
230
1.0
  0
LINE
  5
6AF
100
AcDbEntity
  8
0
370
     5
390
0
 62
     7
 48
0.000028
100
AcDbLine
 10
-2.415648
 20
-1.646727
 30
0.0
 11
-2.414797
 21
-1.645996
 31
0.0
210
0.0
220
0.0
230
1.0
  0
LINE
  5
6B0
100
AcDbEntity
  8
0
370
     5
390
0
 62
     7
 48
0.000028
100
AcDbLine
 10
-2.414797
 20
-1.645996
 30
0.0
 11
-2.414004
 21
-1.645203
 31
0.0
210
0.0
220
0.0
230
1.0
  0
LINE
  5
6B1
100
AcDbEntity
  8
0
370
     5
390
0
 62
     7
 48
0.000028
100
AcDbLine
 10
-2.414004
 20
-1.645203
 30
0.0
 11
-2.413273
 21
-1.644352
 31
0.0
210
0.0
220
0.0
230
1.0
  0
LINE
  5
6B2
100
AcDbEntity
  8
0
370
     5
390
0
 62
     7
 48
0.000028
100
AcDbLine
 10
-2.413273
 20
-1.644352
 30
0.0
 11
-2.412606
 21
-1.64345
 31
0.0
210
0.0
220
0.0
230
1.0
  0
LINE
  5
6B3
100
AcDbEntity
  8
0
370
     5
390
0
 62
     7
 48
0.000028
100
AcDbLine
 10
-2.412606
 20
-1.64345
 30
0.0
 11
-2.41201
 21
-1.6425
 31
0.0
210
0.0
220
0.0
230
1.0
  0
LINE
  5
6B4
100
AcDbEntity
  8
0
370
     5
390
0
 62
     7
 48
0.000028
100
AcDbLine
 10
-2.41201
 20
-1.6425
 30
0.0
 11
-2.411486
 21
-1.641508
 31
0.0
210
0.0
220
0.0
230
1.0
  0
LINE
  5
6B5
100
AcDbEntity
  8
0
370
     5
390
0
 62
     7
 48
0.000028
100
AcDbLine
 10
-2.411486
 20
-1.641508
 30
0.0
 11
-2.411037
 21
-1.64048
 31
0.0
210
0.0
220
0.0
230
1.0
  0
LINE
  5
6B6
100
AcDbEntity
  8
0
370
     5
390
0
 62
     7
 48
0.000028
100
AcDbLine
 10
-2.411037
 20
-1.64048
 30
0.0
 11
-2.410666
 21
-1.639421
 31
0.0
210
0.0
220
0.0
230
1.0
  0
LINE
  5
6B7
100
AcDbEntity
  8
0
370
     5
390
0
 62
     7
 48
0.000028
100
AcDbLine
 10
-2.410666
 20
-1.639421
 30
0.0
 11
-2.410376
 21
-1.638338
 31
0.0
210
0.0
220
0.0
230
1.0
  0
LINE
  5
6B8
100
AcDbEntity
  8
0
370
     5
390
0
 62
     7
 48
0.000028
100
AcDbLine
 10
-2.410376
 20
-1.638338
 30
0.0
 11
-2.410167
 21
-1.637236
 31
0.0
210
0.0
220
0.0
230
1.0
  0
LINE
  5
6B9
100
AcDbEntity
  8
0
370
     5
390
0
 62
     7
 48
0.000028
100
AcDbLine
 10
-2.410167
 20
-1.637236
 30
0.0
 11
-2.410042
 21
-1.636121
 31
0.0
210
0.0
220
0.0
230
1.0
  0
LINE
  5
6BA
100
AcDbEntity
  8
0
370
     5
390
0
 62
     7
 48
0.000028
100
AcDbLine
 10
-2.410042
 20
-1.636121
 30
0.0
 11
-2.41
 21
-1.635
 31
0.0
210
0.0
220
0.0
230
1.0
  0
LINE
  5
6BB
100
AcDbEntity
  8
0
370
     5
390
0
 62
     7
 48
0.000028
100
AcDbLine
 10
-2.41
 20
-1.635
 30
0.0
 11
-2.410042
 21
-1.633879
 31
0.0
210
0.0
220
0.0
230
1.0
  0
LINE
  5
6BC
100
AcDbEntity
  8
0
370
     5
390
0
 62
     7
 48
0.000028
100
AcDbLine
 10
-2.410042
 20
-1.633879
 30
0.0
 11
-2.410167
 21
-1.632764
 31
0.0
210
0.0
220
0.0
230
1.0
  0
LINE
  5
6BD
100
AcDbEntity
  8
0
370
     5
390
0
 62
     7
 48
0.000028
100
AcDbLine
 10
-2.410167
 20
-1.632764
 30
0.0
 11
-2.410376
 21
-1.631662
 31
0.0
210
0.0
220
0.0
230
1.0
  0
LINE
  5
6BE
100
AcDbEntity
  8
0
370
     5
390
0
 62
     7
 48
0.000028
100
AcDbLine
 10
-2.410376
 20
-1.631662
 30
0.0
 11
-2.410666
 21
-1.630579
 31
0.0
210
0.0
220
0.0
230
1.0
  0
LINE
  5
6BF
100
AcDbEntity
  8
0
370
     5
390
0
 62
     7
 48
0.000028
100
AcDbLine
 10
-2.410666
 20
-1.630579
 30
0.0
 11
-2.411037
 21
-1.62952
 31
0.0
210
0.0
220
0.0
230
1.0
  0
LINE
  5
6C0
100
AcDbEntity
  8
0
370
     5
390
0
 62
     7
 48
0.000028
100
AcDbLine
 10
-2.411037
 20
-1.62952
 30
0.0
 11
-2.411486
 21
-1.628492
 31
0.0
210
0.0
220
0.0
230
1.0
  0
LINE
  5
6C1
100
AcDbEntity
  8
0
370
     5
390
0
 62
     7
 48
0.000028
100
AcDbLine
 10
-2.411486
 20
-1.628492
 30
0.0
 11
-2.41201
 21
-1.6275
 31
0.0
210
0.0
220
0.0
230
1.0
  0
LINE
  5
6C2
100
AcDbEntity
  8
0
370
     5
390
0
 62
     7
 48
0.000028
100
AcDbLine
 10
-2.41201
 20
-1.6275
 30
0.0
 11
-2.412606
 21
-1.62655
 31
0.0
210
0.0
220
0.0
230
1.0
  0
LINE
  5
6C3
100
AcDbEntity
  8
0
370
     5
390
0
 62
     7
 48
0.000028
100
AcDbLine
 10
-2.412606
 20
-1.62655
 30
0.0
 11
-2.413273
 21
-1.625648
 31
0.0
210
0.0
220
0.0
230
1.0
  0
LINE
  5
6C4
100
AcDbEntity
  8
0
370
     5
390
0
 62
     7
 48
0.000028
100
AcDbLine
 10
-2.413273
 20
-1.625648
 30
0.0
 11
-2.414004
 21
-1.624797
 31
0.0
210
0.0
220
0.0
230
1.0
  0
LINE
  5
6C5
100
AcDbEntity
  8
0
370
     5
390
0
 62
     7
 48
0.000028
100
AcDbLine
 10
-2.414004
 20
-1.624797
 30
0.0
 11
-2.414797
 21
-1.624004
 31
0.0
210
0.0
220
0.0
230
1.0
  0
LINE
  5
6C6
100
AcDbEntity
  8
0
370
     5
390
0
 62
     7
 48
0.000028
100
AcDbLine
 10
-2.414797
 20
-1.624004
 30
0.0
 11
-2.415648
 21
-1.623272
 31
0.0
210
0.0
220
0.0
230
1.0
  0
LINE
  5
6C7
100
AcDbEntity
  8
0
370
     5
390
0
 62
     7
 48
0.000028
100
AcDbLine
 10
-2.415648
 20
-1.623272
 30
0.0
 11
-2.41655
 21
-1.622606
 31
0.0
210
0.0
220
0.0
230
1.0
  0
LINE
  5
6C8
100
AcDbEntity
  8
0
370
     5
390
0
 62
     7
 48
0.000028
100
AcDbLine
 10
-2.41655
 20
-1.622606
 30
0.0
 11
-2.4175
 21
-1.62201
 31
0.0
210
0.0
220
0.0
230
1.0
  0
LINE
  5
6C9
100
AcDbEntity
  8
0
370
     5
390
0
 62
     7
 48
0.000028
100
AcDbLine
 10
-2.4175
 20
-1.62201
 30
0.0
 11
-2.418492
 21
-1.621485
 31
0.0
210
0.0
220
0.0
230
1.0
  0
LINE
  5
6CA
100
AcDbEntity
  8
0
370
     5
390
0
 62
     7
 48
0.000028
100
AcDbLine
 10
-2.418492
 20
-1.621485
 30
0.0
 11
-2.41952
 21
-1.621037
 31
0.0
210
0.0
220
0.0
230
1.0
  0
LINE
  5
6CB
100
AcDbEntity
  8
0
370
     5
390
0
 62
     7
 48
0.000028
100
AcDbLine
 10
-2.41952
 20
-1.621037
 30
0.0
 11
-2.420579
 21
-1.620666
 31
0.0
210
0.0
220
0.0
230
1.0
  0
LINE
  5
6CC
100
AcDbEntity
  8
0
370
     5
390
0
 62
     7
 48
0.000028
100
AcDbLine
 10
-2.420579
 20
-1.620666
 30
0.0
 11
-2.421662
 21
-1.620376
 31
0.0
210
0.0
220
0.0
230
1.0
  0
LINE
  5
6CD
100
AcDbEntity
  8
0
370
     5
390
0
 62
     7
 48
0.000028
100
AcDbLine
 10
-2.421662
 20
-1.620376
 30
0.0
 11
-2.422764
 21
-1.620168
 31
0.0
210
0.0
220
0.0
230
1.0
  0
LINE
  5
6CE
100
AcDbEntity
  8
0
370
     5
390
0
 62
     7
 48
0.000028
100
AcDbLine
 10
-2.422764
 20
-1.620168
 30
0.0
 11
-2.423879
 21
-1.620042
 31
0.0
210
0.0
220
0.0
230
1.0
  0
LINE
  5
6CF
100
AcDbEntity
  8
0
370
     5
390
0
 62
     7
 48
0.000028
100
AcDbLine
 10
-2.423879
 20
-1.620042
 30
0.0
 11
-2.425
 21
-1.62
 31
0.0
210
0.0
220
0.0
230
1.0
  0
LINE
  5
6D0
100
AcDbEntity
  8
0
370
     5
390
0
 62
     7
 48
0.019125
100
AcDbLine
 10
-2.425
 20
-1.62
 30
0.0
 11
-3.19
 21
-1.62
 31
0.0
210
0.0
220
0.0
230
1.0
  0
ENDBLK
  5
6D1
100
AcDbEntity
  8
0
390
0
100
AcDbBlockEnd
  0
BLOCK
  5
6D2
100
AcDbEntity
  8
0
370
     0
390
0
100
AcDbBlockBegin
  2
BLOCK26
 70
     0
 10
0.0
 20
0.0
 30
0.0
  3
BLOCK26
  1

  0
LINE
  5
6D3
100
AcDbEntity
  8
0
370
     5
390
0
 62
     7
 48
0.0125
100
AcDbLine
 10
-4.31
 20
-1.62
 30
0.0
 11
-4.81
 21
-1.62
 31
0.0
210
0.0
220
0.0
230
1.0
  0
LINE
  5
6D4
100
AcDbEntity
  8
0
370
     5
390
0
 62
     7
 48
0.03937
100
AcDbLine
 10
-4.81
 20
-1.62
 30
0.0
 11
-4.81
 21
0.0
 31
0.0
210
0.0
220
0.0
230
1.0
  0
LINE
  5
6D5
100
AcDbEntity
  8
0
370
     5
390
0
 62
     7
 48
0.0125
100
AcDbLine
 10
-4.81
 20
0.0
 30
0.0
 11
-4.31
 21
0.0
 31
0.0
210
0.0
220
0.0
230
1.0
  0
LINE
  5
6D6
100
AcDbEntity
  8
0
370
     5
390
0
 62
     7
 48
0.03937
100
AcDbLine
 10
-4.31
 20
0.0
 30
0.0
 11
-4.31
 21
-1.62
 31
0.0
210
0.0
220
0.0
230
1.0
  0
ENDBLK
  5
6D7
100
AcDbEntity
  8
0
390
0
100
AcDbBlockEnd
  0
ENDSEC
  0
SECTION
  2
ENTITIES
  0
VIEWPORT
  5
457
100
AcDbEntity
 67
     1
  8
0
370
     0
390
0
 62
     0
 48
0.0
100
AcDbViewport
 10
0.0
 20
0.0
 30
0.0
 40
1000.0
 41
1000.0
 68
     1
 69
     1
 12
0.0
 22
0.0
 13
0.0
 23
0.0
 14
1.0
 24
1.0
 15
1.0
 25
1.0
 16
0.0
 26
0.0
 36
1.0
 17
0.0
 27
0.0
 37
0.0
 42
50.0
 43
0.0
 44
0.0
 45
1000.0
 50
0.0
 51
0.0
 72
   100
 90
        0
340
0
  1

281
     0
 71
     0
 74
     1
110
0.0
120
0.0
130
0.0
111
1.0
121
0.0
131
0.0
112
0.0
122
1.0
132
0.0
345
0
346
0
 79
     0
146
0.0
  0
TEXT
  5
27
100
AcDbEntity
  8
0
370
    13
390
0
 62
     7
 48
0.03937
100
AcDbText
 10
7.774762
 20
1.08216
 30
0.0
 40
0.06
  1
SIZE:
 72
     5
 11
8.064134
 21
1.08216
 31
0.0
100
AcDbText
  0
TEXT
  5
28
100
AcDbEntity
  8
0
370
    13
390
0
 62
     7
 48
0.03937
100
AcDbText
 10
7.774762
 20
0.894218
 30
0.0
 40
0.06
  1
TYPE:
 72
     5
 11
8.064134
 21
0.894218
 31
0.0
100
AcDbText
  0
POINT
  5
29
100
AcDbEntity
  8
0
370
     5
390
0
 62
     7
 48
0.03937
100
AcDbPoint
 10
0.0
 20
0.0
 30
0.0
210
0.0
220
0.0
230
1.0
  0
POINT
  5
2A
100
AcDbEntity
  8
0
370
     5
390
0
 62
     7
 48
0.03937
100
AcDbPoint
 10
8.029755
 20
0.53125
 30
0.0
210
0.0
220
0.0
230
1.0
  0
LINE
  5
2B
100
AcDbEntity
  8
1
370
    35
390
0
 62
     7
 48
0.000032
100
AcDbLine
 10
9.035676
 20
0.778761
 30
0.0
 11
9.036922
 21
0.778449
 31
0.0
210
0.0
220
0.0
230
1.0
  0
LINE
  5
2C
100
AcDbEntity
  8
1
370
    35
390
0
 62
     7
 48
0.03937
100
AcDbLine
 10
0.25
 20
0.25
 30
0.0
 11
0.25
 21
8.25
 31
0.0
210
0.0
220
0.0
230
1.0
  0
LINE
  5
2D
100
AcDbEntity
  8
1
370
    35
390
0
 62
     7
 48
0.03937
100
AcDbLine
 10
7.75
 20
1.1875
 30
0.0
 11
10.75
 21
1.1875
 31
0.0
210
0.0
220
0.0
230
1.0
  0
LINE
  5
2E
100
AcDbEntity
  8
1
370
    35
390
0
 62
     7
 48
0.03937
100
AcDbLine
 10
7.75
 20
1.0
 30
0.0
 11
10.75
 21
1.0
 31
0.0
210
0.0
220
0.0
230
1.0
  0
LINE
  5
2F
100
AcDbEntity
  8
1
370
    35
390
0
 62
     7
 48
0.03937
100
AcDbLine
 10
0.25
 20
8.25
 30
0.0
 11
10.75
 21
8.25
 31
0.0
210
0.0
220
0.0
230
1.0
  0
LINE
  5
30
100
AcDbEntity
  8
1
370
    35
390
0
 62
     7
 48
0.03937
100
AcDbLine
 10
7.75
 20
0.8125
 30
0.0
 11
10.75
 21
0.8125
 31
0.0
210
0.0
220
0.0
230
1.0
  0
LINE
  5
31
100
AcDbEntity
  8
1
370
    35
390
0
 62
     7
 48
0.03937
100
AcDbLine
 10
0.25
 20
0.25
 30
0.0
 11
10.75
 21
0.25
 31
0.0
210
0.0
220
0.0
230
1.0
  0
LINE
  5
32
100
AcDbEntity
  8
1
370
    35
390
0
 62
     7
 48
0.03937
100
AcDbLine
 10
10.75
 20
8.25
 30
0.0
 11
10.75
 21
0.25
 31
0.0
210
0.0
220
0.0
230
1.0
  0
LINE
  5
33
100
AcDbEntity
  8
1
370
    35
390
0
 62
     7
 48
0.03937
100
AcDbLine
 10
7.75
 20
1.1875
 30
0.0
 11
7.75
 21
0.25
 31
0.0
210
0.0
220
0.0
230
1.0
  0
CIRCLE
  5
34
100
AcDbEntity
  8
0
370
    70
390
0
 62
     7
 48
0.03937
100
AcDbCircle
 10
8.029755
 20
0.53125
 30
0.0
 40
0.2475
210
0.0
220
0.0
230
1.0
  0
CIRCLE
  5
35
100
AcDbEntity
  8
0
370
    70
390
0
 62
     7
 48
0.03937
100
AcDbCircle
 10
8.029755
 20
0.53125
 30
0.0
 40
0.195
210
0.0
220
0.0
230
1.0
  0
CIRCLE
  5
36
100
AcDbEntity
  8
0
370
    35
390
0
 62
     7
 48
0.03937
100
AcDbCircle
 10
8.029755
 20
0.7525
 30
0.0
 40
0.015
210
0.0
220
0.0
230
1.0
  0
CIRCLE
  5
37
100
AcDbEntity
  8
0
370
    35
390
0
 62
     7
 48
0.03937
100
AcDbCircle
 10
8.251005
 20
0.53125
 30
0.0
 40
0.015
210
0.0
220
0.0
230
1.0
  0
CIRCLE
  5
38
100
AcDbEntity
  8
0
370
    35
390
0
 62
     7
 48
0.03937
100
AcDbCircle
 10
8.186202
 20
0.687697
 30
0.0
 40
0.015
210
0.0
220
0.0
230
1.0
  0
CIRCLE
  5
39
100
AcDbEntity
  8
0
370
    35
390
0
 62
     7
 48
0.03937
100
AcDbCircle
 10
8.029755
 20
0.31
 30
0.0
 40
0.015
210
0.0
220
0.0
230
1.0
  0
CIRCLE
  5
3A
100
AcDbEntity
  8
0
370
    35
390
0
 62
     7
 48
0.03937
100
AcDbCircle
 10
8.186202
 20
0.374803
 30
0.0
 40
0.015
210
0.0
220
0.0
230
1.0
  0
CIRCLE
  5
3B
100
AcDbEntity
  8
0
370
    35
390
0
 62
     7
 48
0.03937
100
AcDbCircle
 10
7.808505
 20
0.53125
 30
0.0
 40
0.015
210
0.0
220
0.0
230
1.0
  0
CIRCLE
  5
3C
100
AcDbEntity
  8
0
370
    35
390
0
 62
     7
 48
0.03937
100
AcDbCircle
 10
7.873308
 20
0.687697
 30
0.0
 40
0.015
210
0.0
220
0.0
230
1.0
  0
CIRCLE
  5
3D
100
AcDbEntity
  8
0
370
    35
390
0
 62
     7
 48
0.03937
100
AcDbCircle
 10
7.873308
 20
0.374803
 30
0.0
 40
0.015
210
0.0
220
0.0
230
1.0
  0
POLYLINE
  5
3E
100
AcDbEntity
  8
0
370
    13
390
0
 62
     7
 48
0.03937
100
AcDb2dPolyline
 66
     1
 10
0.0
 20
0.0
 30
0.0
 70
     1
 71
   118
  0
VERTEX
  5
3F
100
AcDbEntity
  8
0
370
     0
390
0
100
AcDbVertex
100
AcDb2dVertex
 10
8.029831
 20
0.605292
 30
0.0
  0
VERTEX
  5
40
100
AcDbEntity
  8
0
370
     0
390
0
100
AcDbVertex
100
AcDb2dVertex
 10
8.029019
 20
0.60375
 30
0.0
  0
VERTEX
  5
41
100
AcDbEntity
  8
0
370
     0
390
0
100
AcDbVertex
100
AcDb2dVertex
 10
8.021177
 20
0.589826
 30
0.0
  0
VERTEX
  5
42
100
AcDbEntity
  8
0
370
     0
390
0
100
AcDbVertex
100
AcDb2dVertex
 10
8.020426
 20
0.588405
 30
0.0
  0
VERTEX
  5
43
100
AcDbEntity
  8
0
370
     0
390
0
100
AcDbVertex
100
AcDb2dVertex
 10
8.019684
 20
0.586917
 30
0.0
  0
VERTEX
  5
44
100
AcDbEntity
  8
0
370
     0
390
0
100
AcDbVertex
100
AcDb2dVertex
 10
8.018954
 20
0.58536
 30
0.0
  0
VERTEX
  5
45
100
AcDbEntity
  8
0
370
     0
390
0
100
AcDbVertex
100
AcDb2dVertex
 10
8.018235
 20
0.583734
 30
0.0
  0
VERTEX
  5
46
100
AcDbEntity
  8
0
370
     0
390
0
100
AcDbVertex
100
AcDb2dVertex
 10
8.017528
 20
0.582038
 30
0.0
  0
VERTEX
  5
47
100
AcDbEntity
  8
0
370
     0
390
0
100
AcDbVertex
100
AcDb2dVertex
 10
8.01683
 20
0.580272
 30
0.0
  0
VERTEX
  5
48
100
AcDbEntity
  8
0
370
     0
390
0
100
AcDbVertex
100
AcDb2dVertex
 10
8.016143
 20
0.578438
 30
0.0
  0
VERTEX
  5
49
100
AcDbEntity
  8
0
370
     0
390
0
100
AcDbVertex
100
AcDb2dVertex
 10
8.015467
 20
0.576534
 30
0.0
  0
VERTEX
  5
4A
100
AcDbEntity
  8
0
370
     0
390
0
100
AcDbVertex
100
AcDb2dVertex
 10
8.014802
 20
0.574562
 30
0.0
  0
VERTEX
  5
4B
100
AcDbEntity
  8
0
370
     0
390
0
100
AcDbVertex
100
AcDb2dVertex
 10
8.014147
 20
0.572519
 30
0.0
  0
VERTEX
  5
4C
100
AcDbEntity
  8
0
370
     0
390
0
100
AcDbVertex
100
AcDb2dVertex
 10
8.012525
 20
0.574142
 30
0.0
  0
VERTEX
  5
4D
100
AcDbEntity
  8
0
370
     0
390
0
100
AcDbVertex
100
AcDb2dVertex
 10
8.011871
 20
0.576531
 30
0.0
  0
VERTEX
  5
4E
100
AcDbEntity
  8
0
370
     0
390
0
100
AcDbVertex
100
AcDb2dVertex
 10
8.011163
 20
0.578771
 30
0.0
  0
VERTEX
  5
4F
100
AcDbEntity
  8
0
370
     0
390
0
100
AcDbVertex
100
AcDb2dVertex
 10
8.010404
 20
0.580859
 30
0.0
  0
VERTEX
  5
50
100
AcDbEntity
  8
0
370
     0
390
0
100
AcDbVertex
100
AcDb2dVertex
 10
8.009591
 20
0.582795
 30
0.0
  0
VERTEX
  5
51
100
AcDbEntity
  8
0
370
     0
390
0
100
AcDbVertex
100
AcDb2dVertex
 10
8.008726
 20
0.584579
 30
0.0
  0
VERTEX
  5
52
100
AcDbEntity
  8
0
370
     0
390
0
100
AcDbVertex
100
AcDb2dVertex
 10
8.007806
 20
0.586212
 30
0.0
  0
VERTEX
  5
53
100
AcDbEntity
  8
0
370
     0
390
0
100
AcDbVertex
100
AcDb2dVertex
 10
8.006836
 20
0.587694
 30
0.0
  0
VERTEX
  5
54
100
AcDbEntity
  8
0
370
     0
390
0
100
AcDbVertex
100
AcDb2dVertex
 10
8.00581
 20
0.589025
 30
0.0
  0
VERTEX
  5
55
100
AcDbEntity
  8
0
370
     0
390
0
100
AcDbVertex
100
AcDb2dVertex
 10
8.004733
 20
0.590204
 30
0.0
  0
VERTEX
  5
56
100
AcDbEntity
  8
0
370
     0
390
0
100
AcDbVertex
100
AcDb2dVertex
 10
8.003601
 20
0.591231
 30
0.0
  0
VERTEX
  5
57
100
AcDbEntity
  8
0
370
     0
390
0
100
AcDbVertex
100
AcDb2dVertex
 10
8.002384
 20
0.592136
 30
0.0
  0
VERTEX
  5
58
100
AcDbEntity
  8
0
370
     0
390
0
100
AcDbVertex
100
AcDb2dVertex
 10
8.001043
 20
0.592944
 30
0.0
  0
VERTEX
  5
59
100
AcDbEntity
  8
0
370
     0
390
0
100
AcDbVertex
100
AcDb2dVertex
 10
7.99958
 20
0.593658
 30
0.0
  0
VERTEX
  5
5A
100
AcDbEntity
  8
0
370
     0
390
0
100
AcDbVertex
100
AcDb2dVertex
 10
7.997995
 20
0.594276
 30
0.0
  0
VERTEX
  5
5B
100
AcDbEntity
  8
0
370
     0
390
0
100
AcDbVertex
100
AcDb2dVertex
 10
7.996287
 20
0.5948
 30
0.0
  0
VERTEX
  5
5C
100
AcDbEntity
  8
0
370
     0
390
0
100
AcDbVertex
100
AcDb2dVertex
 10
7.994457
 20
0.595229
 30
0.0
  0
VERTEX
  5
5D
100
AcDbEntity
  8
0
370
     0
390
0
100
AcDbVertex
100
AcDb2dVertex
 10
7.992506
 20
0.595562
 30
0.0
  0
VERTEX
  5
5E
100
AcDbEntity
  8
0
370
     0
390
0
100
AcDbVertex
100
AcDb2dVertex
 10
7.990431
 20
0.595799
 30
0.0
  0
VERTEX
  5
5F
100
AcDbEntity
  8
0
370
     0
390
0
100
AcDbVertex
100
AcDb2dVertex
 10
7.988236
 20
0.595943
 30
0.0
  0
VERTEX
  5
60
100
AcDbEntity
  8
0
370
     0
390
0
100
AcDbVertex
100
AcDb2dVertex
 10
7.985918
 20
0.595991
 30
0.0
  0
VERTEX
  5
61
100
AcDbEntity
  8
0
370
     0
390
0
100
AcDbVertex
100
AcDb2dVertex
 10
7.983971
 20
0.595973
 30
0.0
  0
VERTEX
  5
62
100
AcDbEntity
  8
0
370
     0
390
0
100
AcDbVertex
100
AcDb2dVertex
 10
7.982024
 20
0.59592
 30
0.0
  0
VERTEX
  5
63
100
AcDbEntity
  8
0
370
     0
390
0
100
AcDbVertex
100
AcDb2dVertex
 10
7.980077
 20
0.595835
 30
0.0
  0
VERTEX
  5
64
100
AcDbEntity
  8
0
370
     0
390
0
100
AcDbVertex
100
AcDb2dVertex
 10
7.97813
 20
0.595713
 30
0.0
  0
VERTEX
  5
65
100
AcDbEntity
  8
0
370
     0
390
0
100
AcDbVertex
100
AcDb2dVertex
 10
7.976183
 20
0.595557
 30
0.0
  0
VERTEX
  5
66
100
AcDbEntity
  8
0
370
     0
390
0
100
AcDbVertex
100
AcDb2dVertex
 10
7.974885
 20
0.478313
 30
0.0
  0
VERTEX
  5
67
100
AcDbEntity
  8
0
370
     0
390
0
100
AcDbVertex
100
AcDb2dVertex
 10
7.987647
 20
0.466523
 30
0.0
  0
VERTEX
  5
68
100
AcDbEntity
  8
0
370
     0
390
0
100
AcDbVertex
100
AcDb2dVertex
 10
7.93822
 20
0.466523
 30
0.0
  0
VERTEX
  5
69
100
AcDbEntity
  8
0
370
     0
390
0
100
AcDbVertex
100
AcDb2dVertex
 10
7.953361
 20
0.479178
 30
0.0
  0
VERTEX
  5
6A
100
AcDbEntity
  8
0
370
     0
390
0
100
AcDbVertex
100
AcDb2dVertex
 10
7.953361
 20
0.586796
 30
0.0
  0
VERTEX
  5
6B
100
AcDbEntity
  8
0
370
     0
390
0
100
AcDbVertex
100
AcDb2dVertex
 10
7.945682
 20
0.586905
 30
0.0
  0
VERTEX
  5
6C
100
AcDbEntity
  8
0
370
     0
390
0
100
AcDbVertex
100
AcDb2dVertex
 10
7.943519
 20
0.58686
 30
0.0
  0
VERTEX
  5
6D
100
AcDbEntity
  8
0
370
     0
390
0
100
AcDbVertex
100
AcDb2dVertex
 10
7.941484
 20
0.58673
 30
0.0
  0
VERTEX
  5
6E
100
AcDbEntity
  8
0
370
     0
390
0
100
AcDbVertex
100
AcDb2dVertex
 10
7.939577
 20
0.586511
 30
0.0
  0
VERTEX
  5
6F
100
AcDbEntity
  8
0
370
     0
390
0
100
AcDbVertex
100
AcDb2dVertex
 10
7.937799
 20
0.586203
 30
0.0
  0
VERTEX
  5
70
100
AcDbEntity
  8
0
370
     0
390
0
100
AcDbVertex
100
AcDb2dVertex
 10
7.936151
 20
0.585809
 30
0.0
  0
VERTEX
  5
71
100
AcDbEntity
  8
0
370
     0
390
0
100
AcDbVertex
100
AcDb2dVertex
 10
7.93463
 20
0.585327
 30
0.0
  0
VERTEX
  5
72
100
AcDbEntity
  8
0
370
     0
390
0
100
AcDbVertex
100
AcDb2dVertex
 10
7.93324
 20
0.584759
 30
0.0
  0
VERTEX
  5
73
100
AcDbEntity
  8
0
370
     0
390
0
100
AcDbVertex
100
AcDb2dVertex
 10
7.930843
 20
0.583356
 30
0.0
  0
VERTEX
  5
74
100
AcDbEntity
  8
0
370
     0
390
0
100
AcDbVertex
100
AcDb2dVertex
 10
7.928935
 20
0.581582
 30
0.0
  0
VERTEX
  5
75
100
AcDbEntity
  8
0
370
     0
390
0
100
AcDbVertex
100
AcDb2dVertex
 10
7.92736
 20
0.579297
 30
0.0
  0
VERTEX
  5
76
100
AcDbEntity
  8
0
370
     0
390
0
100
AcDbVertex
100
AcDb2dVertex
 10
7.926092
 20
0.57648
 30
0.0
  0
VERTEX
  5
77
100
AcDbEntity
  8
0
370
     0
390
0
100
AcDbVertex
100
AcDb2dVertex
 10
7.925573
 20
0.574872
 30
0.0
  0
VERTEX
  5
78
100
AcDbEntity
  8
0
370
     0
390
0
100
AcDbVertex
100
AcDb2dVertex
 10
7.92513
 20
0.573132
 30
0.0
  0
VERTEX
  5
79
100
AcDbEntity
  8
0
370
     0
390
0
100
AcDbVertex
100
AcDb2dVertex
 10
7.924766
 20
0.571259
 30
0.0
  0
VERTEX
  5
7A
100
AcDbEntity
  8
0
370
     0
390
0
100
AcDbVertex
100
AcDb2dVertex
 10
7.924478
 20
0.569252
 30
0.0
  0
VERTEX
  5
7B
100
AcDbEntity
  8
0
370
     0
390
0
100
AcDbVertex
100
AcDb2dVertex
 10
7.924266
 20
0.567111
 30
0.0
  0
VERTEX
  5
7C
100
AcDbEntity
  8
0
370
     0
390
0
100
AcDbVertex
100
AcDb2dVertex
 10
7.921454
 20
0.567111
 30
0.0
  0
VERTEX
  5
7D
100
AcDbEntity
  8
0
370
     0
390
0
100
AcDbVertex
100
AcDb2dVertex
 10
7.921734
 20
0.569565
 30
0.0
  0
VERTEX
  5
7E
100
AcDbEntity
  8
0
370
     0
390
0
100
AcDbVertex
100
AcDb2dVertex
 10
7.922096
 20
0.571866
 30
0.0
  0
VERTEX
  5
7F
100
AcDbEntity
  8
0
370
     0
390
0
100
AcDbVertex
100
AcDb2dVertex
 10
7.922543
 20
0.574013
 30
0.0
  0
VERTEX
  5
80
100
AcDbEntity
  8
0
370
     0
390
0
100
AcDbVertex
100
AcDb2dVertex
 10
7.923073
 20
0.576006
 30
0.0
  0
VERTEX
  5
81
100
AcDbEntity
  8
0
370
     0
390
0
100
AcDbVertex
100
AcDb2dVertex
 10
7.923684
 20
0.577847
 30
0.0
  0
VERTEX
  5
82
100
AcDbEntity
  8
0
370
     0
390
0
100
AcDbVertex
100
AcDb2dVertex
 10
7.924381
 20
0.579533
 30
0.0
  0
VERTEX
  5
83
100
AcDbEntity
  8
0
370
     0
390
0
100
AcDbVertex
100
AcDb2dVertex
 10
7.92516
 20
0.581064
 30
0.0
  0
VERTEX
  5
84
100
AcDbEntity
  8
0
370
     0
390
0
100
AcDbVertex
100
AcDb2dVertex
 10
7.926023
 20
0.582444
 30
0.0
  0
VERTEX
  5
85
100
AcDbEntity
  8
0
370
     0
390
0
100
AcDbVertex
100
AcDb2dVertex
 10
7.926968
 20
0.58367
 30
0.0
  0
VERTEX
  5
86
100
AcDbEntity
  8
0
370
     0
390
0
100
AcDbVertex
100
AcDb2dVertex
 10
7.929138
 20
0.585687
 30
0.0
  0
VERTEX
  5
87
100
AcDbEntity
  8
0
370
     0
390
0
100
AcDbVertex
100
AcDb2dVertex
 10
7.930418
 20
0.586532
 30
0.0
  0
VERTEX
  5
88
100
AcDbEntity
  8
0
370
     0
390
0
100
AcDbVertex
100
AcDb2dVertex
 10
7.931839
 20
0.587279
 30
0.0
  0
VERTEX
  5
89
100
AcDbEntity
  8
0
370
     0
390
0
100
AcDbVertex
100
AcDb2dVertex
 10
7.933397
 20
0.587925
 30
0.0
  0
VERTEX
  5
8A
100
AcDbEntity
  8
0
370
     0
390
0
100
AcDbVertex
100
AcDb2dVertex
 10
7.935095
 20
0.588473
 30
0.0
  0
VERTEX
  5
8B
100
AcDbEntity
  8
0
370
     0
390
0
100
AcDbVertex
100
AcDb2dVertex
 10
7.936934
 20
0.588921
 30
0.0
  0
VERTEX
  5
8C
100
AcDbEntity
  8
0
370
     0
390
0
100
AcDbVertex
100
AcDb2dVertex
 10
7.938912
 20
0.589269
 30
0.0
  0
VERTEX
  5
8D
100
AcDbEntity
  8
0
370
     0
390
0
100
AcDbVertex
100
AcDb2dVertex
 10
7.941029
 20
0.589518
 30
0.0
  0
VERTEX
  5
8E
100
AcDbEntity
  8
0
370
     0
390
0
100
AcDbVertex
100
AcDb2dVertex
 10
7.943286
 20
0.589667
 30
0.0
  0
VERTEX
  5
8F
100
AcDbEntity
  8
0
370
     0
390
0
100
AcDbVertex
100
AcDb2dVertex
 10
7.945682
 20
0.589716
 30
0.0
  0
VERTEX
  5
90
100
AcDbEntity
  8
0
370
     0
390
0
100
AcDbVertex
100
AcDb2dVertex
 10
7.952171
 20
0.589608
 30
0.0
  0
VERTEX
  5
91
100
AcDbEntity
  8
0
370
     0
390
0
100
AcDbVertex
100
AcDb2dVertex
 10
7.953361
 20
0.594908
 30
0.0
  0
VERTEX
  5
92
100
AcDbEntity
  8
0
370
     0
390
0
100
AcDbVertex
100
AcDb2dVertex
 10
7.951177
 20
0.595142
 30
0.0
  0
VERTEX
  5
93
100
AcDbEntity
  8
0
370
     0
390
0
100
AcDbVertex
100
AcDb2dVertex
 10
7.949034
 20
0.595323
 30
0.0
  0
VERTEX
  5
94
100
AcDbEntity
  8
0
370
     0
390
0
100
AcDbVertex
100
AcDb2dVertex
 10
7.946936
 20
0.595454
 30
0.0
  0
VERTEX
  5
95
100
AcDbEntity
  8
0
370
     0
390
0
100
AcDbVertex
100
AcDb2dVertex
 10
7.944881
 20
0.595532
 30
0.0
  0
VERTEX
  5
96
100
AcDbEntity
  8
0
370
     0
390
0
100
AcDbVertex
100
AcDb2dVertex
 10
7.94287
 20
0.595557
 30
0.0
  0
VERTEX
  5
97
100
AcDbEntity
  8
0
370
     0
390
0
100
AcDbVertex
100
AcDb2dVertex
 10
7.940158
 20
0.5955
 30
0.0
  0
VERTEX
  5
98
100
AcDbEntity
  8
0
370
     0
390
0
100
AcDbVertex
100
AcDb2dVertex
 10
7.9376
 20
0.595331
 30
0.0
  0
VERTEX
  5
99
100
AcDbEntity
  8
0
370
     0
390
0
100
AcDbVertex
100
AcDb2dVertex
 10
7.9352
 20
0.595046
 30
0.0
  0
VERTEX
  5
9A
100
AcDbEntity
  8
0
370
     0
390
0
100
AcDbVertex
100
AcDb2dVertex
 10
7.932953
 20
0.594648
 30
0.0
  0
VERTEX
  5
9B
100
AcDbEntity
  8
0
370
     0
390
0
100
AcDbVertex
100
AcDb2dVertex
 10
7.930864
 20
0.594138
 30
0.0
  0
VERTEX
  5
9C
100
AcDbEntity
  8
0
370
     0
390
0
100
AcDbVertex
100
AcDb2dVertex
 10
7.92893
 20
0.593513
 30
0.0
  0
VERTEX
  5
9D
100
AcDbEntity
  8
0
370
     0
390
0
100
AcDbVertex
100
AcDb2dVertex
 10
7.927152
 20
0.592775
 30
0.0
  0
VERTEX
  5
9E
100
AcDbEntity
  8
0
370
     0
390
0
100
AcDbVertex
100
AcDb2dVertex
 10
7.92553
 20
0.591923
 30
0.0
  0
VERTEX
  5
9F
100
AcDbEntity
  8
0
370
     0
390
0
100
AcDbVertex
100
AcDb2dVertex
 10
7.924063
 20
0.590958
 30
0.0
  0
VERTEX
  5
A0
100
AcDbEntity
  8
0
370
     0
390
0
100
AcDbVertex
100
AcDb2dVertex
 10
7.922751
 20
0.58988
 30
0.0
  0
VERTEX
  5
A1
100
AcDbEntity
  8
0
370
     0
390
0
100
AcDbVertex
100
AcDb2dVertex
 10
7.921574
 20
0.588665
 30
0.0
  0
VERTEX
  5
A2
100
AcDbEntity
  8
0
370
     0
390
0
100
AcDbVertex
100
AcDb2dVertex
 10
7.920506
 20
0.587294
 30
0.0
  0
VERTEX
  5
A3
100
AcDbEntity
  8
0
370
     0
390
0
100
AcDbVertex
100
AcDb2dVertex
 10
7.919549
 20
0.585767
 30
0.0
  0
VERTEX
  5
A4
100
AcDbEntity
  8
0
370
     0
390
0
100
AcDbVertex
100
AcDb2dVertex
 10
7.918703
 20
0.584081
 30
0.0
  0
VERTEX
  5
A5
100
AcDbEntity
  8
0
370
     0
390
0
100
AcDbVertex
100
AcDb2dVertex
 10
7.917966
 20
0.58224
 30
0.0
  0
VERTEX
  5
A6
100
AcDbEntity
  8
0
370
     0
390
0
100
AcDbVertex
100
AcDb2dVertex
 10
7.917339
 20
0.580242
 30
0.0
  0
VERTEX
  5
A7
100
AcDbEntity
  8
0
370
     0
390
0
100
AcDbVertex
100
AcDb2dVertex
 10
7.916824
 20
0.578087
 30
0.0
  0
VERTEX
  5
A8
100
AcDbEntity
  8
0
370
     0
390
0
100
AcDbVertex
100
AcDb2dVertex
 10
7.916418
 20
0.575775
 30
0.0
  0
VERTEX
  5
A9
100
AcDbEntity
  8
0
370
     0
390
0
100
AcDbVertex
100
AcDb2dVertex
 10
7.916123
 20
0.573306
 30
0.0
  0
VERTEX
  5
AA
100
AcDbEntity
  8
0
370
     0
390
0
100
AcDbVertex
100
AcDb2dVertex
 10
7.915938
 20
0.570681
 30
0.0
  0
VERTEX
  5
AB
100
AcDbEntity
  8
0
370
     0
390
0
100
AcDbVertex
100
AcDb2dVertex
 10
7.913659
 20
0.573722
 30
0.0
  0
VERTEX
  5
AC
100
AcDbEntity
  8
0
370
     0
390
0
100
AcDbVertex
100
AcDb2dVertex
 10
7.912577
 20
0.576833
 30
0.0
  0
VERTEX
  5
AD
100
AcDbEntity
  8
0
370
     0
390
0
100
AcDbVertex
100
AcDb2dVertex
 10
7.911392
 20
0.580013
 30
0.0
  0
VERTEX
  5
AE
100
AcDbEntity
  8
0
370
     0
390
0
100
AcDbVertex
100
AcDb2dVertex
 10
7.910106
 20
0.583262
 30
0.0
  0
VERTEX
  5
AF
100
AcDbEntity
  8
0
370
     0
390
0
100
AcDbVertex
100
AcDb2dVertex
 10
7.908719
 20
0.58658
 30
0.0
  0
VERTEX
  5
B0
100
AcDbEntity
  8
0
370
     0
390
0
100
AcDbVertex
100
AcDb2dVertex
 10
7.907229
 20
0.589967
 30
0.0
  0
VERTEX
  5
B1
100
AcDbEntity
  8
0
370
     0
390
0
100
AcDbVertex
100
AcDb2dVertex
 10
7.905638
 20
0.593424
 30
0.0
  0
VERTEX
  5
B2
100
AcDbEntity
  8
0
370
     0
390
0
100
AcDbVertex
100
AcDb2dVertex
 10
7.903945
 20
0.596951
 30
0.0
  0
VERTEX
  5
B3
100
AcDbEntity
  8
0
370
     0
390
0
100
AcDbVertex
100
AcDb2dVertex
 10
7.902151
 20
0.600546
 30
0.0
  0
VERTEX
  5
B4
100
AcDbEntity
  8
0
370
     0
390
0
100
AcDbVertex
100
AcDb2dVertex
 10
7.900255
 20
0.604209
 30
0.0
  0
SEQEND
  5
B5
100
AcDbEntity
  8
0
370
     0
390
0
  0
POLYLINE
  5
B6
100
AcDbEntity
  8
0
370
    13
390
0
 62
     7
 48
0.03937
100
AcDb2dPolyline
 66
     1
 10
0.0
 20
0.0
 30
0.0
 70
     1
 71
    22
  0
VERTEX
  5
B7
100
AcDbEntity
  8
0
370
     0
390
0
100
AcDbVertex
100
AcDb2dVertex
 10
8.036644
 20
0.598478
 30
0.0
  0
VERTEX
  5
B8
100
AcDbEntity
  8
0
370
     0
390
0
100
AcDbVertex
100
AcDb2dVertex
 10
8.035144
 20
0.596448
 30
0.0
  0
VERTEX
  5
B9
100
AcDbEntity
  8
0
370
     0
390
0
100
AcDbVertex
100
AcDb2dVertex
 10
8.033629
 20
0.594168
 30
0.0
  0
VERTEX
  5
BA
100
AcDbEntity
  8
0
370
     0
390
0
100
AcDbVertex
100
AcDb2dVertex
 10
8.032099
 20
0.591638
 30
0.0
  0
VERTEX
  5
BB
100
AcDbEntity
  8
0
370
     0
390
0
100
AcDbVertex
100
AcDb2dVertex
 10
8.030552
 20
0.588855
 30
0.0
  0
VERTEX
  5
BC
100
AcDbEntity
  8
0
370
     0
390
0
100
AcDbVertex
100
AcDb2dVertex
 10
8.028992
 20
0.585822
 30
0.0
  0
VERTEX
  5
BD
100
AcDbEntity
  8
0
370
     0
390
0
100
AcDbVertex
100
AcDb2dVertex
 10
8.027416
 20
0.582539
 30
0.0
  0
VERTEX
  5
BE
100
AcDbEntity
  8
0
370
     0
390
0
100
AcDbVertex
100
AcDb2dVertex
 10
8.025824
 20
0.579005
 30
0.0
  0
VERTEX
  5
BF
100
AcDbEntity
  8
0
370
     0
390
0
100
AcDbVertex
100
AcDb2dVertex
 10
8.024219
 20
0.575219
 30
0.0
  0
VERTEX
  5
C0
100
AcDbEntity
  8
0
370
     0
390
0
100
AcDbVertex
100
AcDb2dVertex
 10
8.022597
 20
0.571182
 30
0.0
  0
VERTEX
  5
C1
100
AcDbEntity
  8
0
370
     0
390
0
100
AcDbVertex
100
AcDb2dVertex
 10
8.020961
 20
0.566895
 30
0.0
  0
VERTEX
  5
C2
100
AcDbEntity
  8
0
370
     0
390
0
100
AcDbVertex
100
AcDb2dVertex
 10
8.018149
 20
0.567869
 30
0.0
  0
VERTEX
  5
C3
100
AcDbEntity
  8
0
370
     0
390
0
100
AcDbVertex
100
AcDb2dVertex
 10
8.020069
 20
0.573183
 30
0.0
  0
VERTEX
  5
C4
100
AcDbEntity
  8
0
370
     0
390
0
100
AcDbVertex
100
AcDb2dVertex
 10
8.021652
 20
0.577253
 30
0.0
  0
VERTEX
  5
C5
100
AcDbEntity
  8
0
370
     0
390
0
100
AcDbVertex
100
AcDb2dVertex
 10
8.023227
 20
0.581049
 30
0.0
  0
VERTEX
  5
C6
100
AcDbEntity
  8
0
370
     0
390
0
100
AcDbVertex
100
AcDb2dVertex
 10
8.024791
 20
0.584573
 30
0.0
  0
VERTEX
  5
C7
100
AcDbEntity
  8
0
370
     0
390
0
100
AcDbVertex
100
AcDb2dVertex
 10
8.026342
 20
0.587825
 30
0.0
  0
VERTEX
  5
C8
100
AcDbEntity
  8
0
370
     0
390
0
100
AcDbVertex
100
AcDb2dVertex
 10
8.027884
 20
0.590802
 30
0.0
  0
VERTEX
  5
C9
100
AcDbEntity
  8
0
370
     0
390
0
100
AcDbVertex
100
AcDb2dVertex
 10
8.029413
 20
0.593508
 30
0.0
  0
VERTEX
  5
CA
100
AcDbEntity
  8
0
370
     0
390
0
100
AcDbVertex
100
AcDb2dVertex
 10
8.030933
 20
0.595943
 30
0.0
  0
VERTEX
  5
CB
100
AcDbEntity
  8
0
370
     0
390
0
100
AcDbVertex
100
AcDb2dVertex
 10
8.032442
 20
0.598104
 30
0.0
  0
VERTEX
  5
CC
100
AcDbEntity
  8
0
370
     0
390
0
100
AcDbVertex
100
AcDb2dVertex
 10
8.03394
 20
0.599991
 30
0.0
  0
SEQEND
  5
CD
100
AcDbEntity
  8
0
370
     0
390
0
  0
POLYLINE
  5
CE
100
AcDbEntity
  8
0
370
    13
390
0
 62
     7
 48
0.03937
100
AcDb2dPolyline
 66
     1
 10
0.0
 20
0.0
 30
0.0
 70
     1
 71
    34
  0
VERTEX
  5
CF
100
AcDbEntity
  8
0
370
     0
390
0
100
AcDbVertex
100
AcDb2dVertex
 10
8.007766
 20
0.581604
 30
0.0
  0
VERTEX
  5
D0
100
AcDbEntity
  8
0
370
     0
390
0
100
AcDbVertex
100
AcDb2dVertex
 10
8.006072
 20
0.582632
 30
0.0
  0
VERTEX
  5
D1
100
AcDbEntity
  8
0
370
     0
390
0
100
AcDbVertex
100
AcDb2dVertex
 10
8.004322
 20
0.583551
 30
0.0
  0
VERTEX
  5
D2
100
AcDbEntity
  8
0
370
     0
390
0
100
AcDbVertex
100
AcDb2dVertex
 10
8.002516
 20
0.584363
 30
0.0
  0
VERTEX
  5
D3
100
AcDbEntity
  8
0
370
     0
390
0
100
AcDbVertex
100
AcDb2dVertex
 10
8.000652
 20
0.585066
 30
0.0
  0
VERTEX
  5
D4
100
AcDbEntity
  8
0
370
     0
390
0
100
AcDbVertex
100
AcDb2dVertex
 10
7.998734
 20
0.58566
 30
0.0
  0
VERTEX
  5
D5
100
AcDbEntity
  8
0
370
     0
390
0
100
AcDbVertex
100
AcDb2dVertex
 10
7.996758
 20
0.586148
 30
0.0
  0
VERTEX
  5
D6
100
AcDbEntity
  8
0
370
     0
390
0
100
AcDbVertex
100
AcDb2dVertex
 10
7.994728
 20
0.586526
 30
0.0
  0
VERTEX
  5
D7
100
AcDbEntity
  8
0
370
     0
390
0
100
AcDbVertex
100
AcDb2dVertex
 10
7.992641
 20
0.586796
 30
0.0
  0
VERTEX
  5
D8
100
AcDbEntity
  8
0
370
     0
390
0
100
AcDbVertex
100
AcDb2dVertex
 10
7.990496
 20
0.586959
 30
0.0
  0
VERTEX
  5
D9
100
AcDbEntity
  8
0
370
     0
390
0
100
AcDbVertex
100
AcDb2dVertex
 10
7.988297
 20
0.587013
 30
0.0
  0
VERTEX
  5
DA
100
AcDbEntity
  8
0
370
     0
390
0
100
AcDbVertex
100
AcDb2dVertex
 10
7.986785
 20
0.586983
 30
0.0
  0
VERTEX
  5
DB
100
AcDbEntity
  8
0
370
     0
390
0
100
AcDbVertex
100
AcDb2dVertex
 10
7.985234
 20
0.586896
 30
0.0
  0
VERTEX
  5
DC
100
AcDbEntity
  8
0
370
     0
390
0
100
AcDbVertex
100
AcDb2dVertex
 10
7.983644
 20
0.586751
 30
0.0
  0
VERTEX
  5
DD
100
AcDbEntity
  8
0
370
     0
390
0
100
AcDbVertex
100
AcDb2dVertex
 10
7.983538
 20
0.477987
 30
0.0
  0
VERTEX
  5
DE
100
AcDbEntity
  8
0
370
     0
390
0
100
AcDbVertex
100
AcDb2dVertex
 10
8.000735
 20
0.457653
 30
0.0
  0
VERTEX
  5
DF
100
AcDbEntity
  8
0
370
     0
390
0
100
AcDbVertex
100
AcDb2dVertex
 10
7.945466
 20
0.457653
 30
0.0
  0
VERTEX
  5
E0
100
AcDbEntity
  8
0
370
     0
390
0
100
AcDbVertex
100
AcDb2dVertex
 10
7.942978
 20
0.460574
 30
0.0
  0
VERTEX
  5
E1
100
AcDbEntity
  8
0
370
     0
390
0
100
AcDbVertex
100
AcDb2dVertex
 10
7.994786
 20
0.460574
 30
0.0
  0
VERTEX
  5
E2
100
AcDbEntity
  8
0
370
     0
390
0
100
AcDbVertex
100
AcDb2dVertex
 10
7.980293
 20
0.477123
 30
0.0
  0
VERTEX
  5
E3
100
AcDbEntity
  8
0
370
     0
390
0
100
AcDbVertex
100
AcDb2dVertex
 10
7.980293
 20
0.589826
 30
0.0
  0
VERTEX
  5
E4
100
AcDbEntity
  8
0
370
     0
390
0
100
AcDbVertex
100
AcDb2dVertex
 10
7.986134
 20
0.589934
 30
0.0
  0
VERTEX
  5
E5
100
AcDbEntity
  8
0
370
     0
390
0
100
AcDbVertex
100
AcDb2dVertex
 10
7.988171
 20
0.589916
 30
0.0
  0
VERTEX
  5
E6
100
AcDbEntity
  8
0
370
     0
390
0
100
AcDbVertex
100
AcDb2dVertex
 10
7.990086
 20
0.589866
 30
0.0
  0
VERTEX
  5
E7
100
AcDbEntity
  8
0
370
     0
390
0
100
AcDbVertex
100
AcDb2dVertex
 10
7.991879
 20
0.589782
 30
0.0
  0
VERTEX
  5
E8
100
AcDbEntity
  8
0
370
     0
390
0
100
AcDbVertex
100
AcDb2dVertex
 10
7.993549
 20
0.589665
 30
0.0
  0
VERTEX
  5
E9
100
AcDbEntity
  8
0
370
     0
390
0
100
AcDbVertex
100
AcDb2dVertex
 10
7.995098
 20
0.589514
 30
0.0
  0
VERTEX
  5
EA
100
AcDbEntity
  8
0
370
     0
390
0
100
AcDbVertex
100
AcDb2dVertex
 10
7.997828
 20
0.589112
 30
0.0
  0
VERTEX
  5
EB
100
AcDbEntity
  8
0
370
     0
390
0
100
AcDbVertex
100
AcDb2dVertex
 10
8.000069
 20
0.588575
 30
0.0
  0
VERTEX
  5
EC
100
AcDbEntity
  8
0
370
     0
390
0
100
AcDbVertex
100
AcDb2dVertex
 10
8.001862
 20
0.587888
 30
0.0
  0
VERTEX
  5
ED
100
AcDbEntity
  8
0
370
     0
390
0
100
AcDbVertex
100
AcDb2dVertex
 10
8.003455
 20
0.586953
 30
0.0
  0
VERTEX
  5
EE
100
AcDbEntity
  8
0
370
     0
390
0
100
AcDbVertex
100
AcDb2dVertex
 10
8.004886
 20
0.585755
 30
0.0
  0
VERTEX
  5
EF
100
AcDbEntity
  8
0
370
     0
390
0
100
AcDbVertex
100
AcDb2dVertex
 10
8.006157
 20
0.584294
 30
0.0
  0
VERTEX
  5
F0
100
AcDbEntity
  8
0
370
     0
390
0
100
AcDbVertex
100
AcDb2dVertex
 10
8.007269
 20
0.582567
 30
0.0
  0
SEQEND
  5
F1
100
AcDbEntity
  8
0
370
     0
390
0
  0
POLYLINE
  5
F2
100
AcDbEntity
  8
0
370
    13
390
0
 62
     7
 48
0.03937
100
AcDb2dPolyline
 66
     1
 10
0.0
 20
0.0
 30
0.0
 70
     1
 71
   138
  0
VERTEX
  5
F3
100
AcDbEntity
  8
0
370
     0
390
0
100
AcDbVertex
100
AcDb2dVertex
 10
8.03978
 20
0.605292
 30
0.0
  0
VERTEX
  5
F4
100
AcDbEntity
  8
0
370
     0
390
0
100
AcDbVertex
100
AcDb2dVertex
 10
8.152051
 20
0.605292
 30
0.0
  0
VERTEX
  5
F5
100
AcDbEntity
  8
0
370
     0
390
0
100
AcDbVertex
100
AcDb2dVertex
 10
8.150747
 20
0.603555
 30
0.0
  0
VERTEX
  5
F6
100
AcDbEntity
  8
0
370
     0
390
0
100
AcDbVertex
100
AcDb2dVertex
 10
8.149522
 20
0.601895
 30
0.0
  0
VERTEX
  5
F7
100
AcDbEntity
  8
0
370
     0
390
0
100
AcDbVertex
100
AcDb2dVertex
 10
8.148372
 20
0.600311
 30
0.0
  0
VERTEX
  5
F8
100
AcDbEntity
  8
0
370
     0
390
0
100
AcDbVertex
100
AcDb2dVertex
 10
8.1473
 20
0.598802
 30
0.0
  0
VERTEX
  5
F9
100
AcDbEntity
  8
0
370
     0
390
0
100
AcDbVertex
100
AcDb2dVertex
 10
8.146304
 20
0.597369
 30
0.0
  0
VERTEX
  5
FA
100
AcDbEntity
  8
0
370
     0
390
0
100
AcDbVertex
100
AcDb2dVertex
 10
8.145386
 20
0.596012
 30
0.0
  0
VERTEX
  5
FB
100
AcDbEntity
  8
0
370
     0
390
0
100
AcDbVertex
100
AcDb2dVertex
 10
8.144543
 20
0.594729
 30
0.0
  0
VERTEX
  5
FC
100
AcDbEntity
  8
0
370
     0
390
0
100
AcDbVertex
100
AcDb2dVertex
 10
8.143089
 20
0.592394
 30
0.0
  0
VERTEX
  5
FD
100
AcDbEntity
  8
0
370
     0
390
0
100
AcDbVertex
100
AcDb2dVertex
 10
8.14189
 20
0.590261
 30
0.0
  0
VERTEX
  5
FE
100
AcDbEntity
  8
0
370
     0
390
0
100
AcDbVertex
100
AcDb2dVertex
 10
8.140617
 20
0.587735
 30
0.0
  0
VERTEX
  5
FF
100
AcDbEntity
  8
0
370
     0
390
0
100
AcDbVertex
100
AcDb2dVertex
 10
8.139935
 20
0.586286
 30
0.0
  0
VERTEX
  5
100
100
AcDbEntity
  8
0
370
     0
390
0
100
AcDbVertex
100
AcDb2dVertex
 10
8.13922
 20
0.584714
 30
0.0
  0
VERTEX
  5
101
100
AcDbEntity
  8
0
370
     0
390
0
100
AcDbVertex
100
AcDb2dVertex
 10
8.138474
 20
0.583019
 30
0.0
  0
VERTEX
  5
102
100
AcDbEntity
  8
0
370
     0
390
0
100
AcDbVertex
100
AcDb2dVertex
 10
8.137697
 20
0.581201
 30
0.0
  0
VERTEX
  5
103
100
AcDbEntity
  8
0
370
     0
390
0
100
AcDbVertex
100
AcDb2dVertex
 10
8.136889
 20
0.57926
 30
0.0
  0
VERTEX
  5
104
100
AcDbEntity
  8
0
370
     0
390
0
100
AcDbVertex
100
AcDb2dVertex
 10
8.136049
 20
0.577196
 30
0.0
  0
VERTEX
  5
105
100
AcDbEntity
  8
0
370
     0
390
0
100
AcDbVertex
100
AcDb2dVertex
 10
8.135177
 20
0.575007
 30
0.0
  0
VERTEX
  5
106
100
AcDbEntity
  8
0
370
     0
390
0
100
AcDbVertex
100
AcDb2dVertex
 10
8.134311
 20
0.572844
 30
0.0
  0
VERTEX
  5
107
100
AcDbEntity
  8
0
370
     0
390
0
100
AcDbVertex
100
AcDb2dVertex
 10
8.132887
 20
0.575682
 30
0.0
  0
VERTEX
  5
108
100
AcDbEntity
  8
0
370
     0
390
0
100
AcDbVertex
100
AcDb2dVertex
 10
8.131463
 20
0.578313
 30
0.0
  0
VERTEX
  5
109
100
AcDbEntity
  8
0
370
     0
390
0
100
AcDbVertex
100
AcDb2dVertex
 10
8.130044
 20
0.580736
 30
0.0
  0
VERTEX
  5
10A
100
AcDbEntity
  8
0
370
     0
390
0
100
AcDbVertex
100
AcDb2dVertex
 10
8.128628
 20
0.582951
 30
0.0
  0
VERTEX
  5
10B
100
AcDbEntity
  8
0
370
     0
390
0
100
AcDbVertex
100
AcDb2dVertex
 10
8.127215
 20
0.584958
 30
0.0
  0
VERTEX
  5
10C
100
AcDbEntity
  8
0
370
     0
390
0
100
AcDbVertex
100
AcDb2dVertex
 10
8.125804
 20
0.586758
 30
0.0
  0
VERTEX
  5
10D
100
AcDbEntity
  8
0
370
     0
390
0
100
AcDbVertex
100
AcDb2dVertex
 10
8.124398
 20
0.58835
 30
0.0
  0
VERTEX
  5
10E
100
AcDbEntity
  8
0
370
     0
390
0
100
AcDbVertex
100
AcDb2dVertex
 10
8.122994
 20
0.589734
 30
0.0
  0
VERTEX
  5
10F
100
AcDbEntity
  8
0
370
     0
390
0
100
AcDbVertex
100
AcDb2dVertex
 10
8.121594
 20
0.59091
 30
0.0
  0
VERTEX
  5
110
100
AcDbEntity
  8
0
370
     0
390
0
100
AcDbVertex
100
AcDb2dVertex
 10
8.120198
 20
0.591881
 30
0.0
  0
VERTEX
  5
111
100
AcDbEntity
  8
0
370
     0
390
0
100
AcDbVertex
100
AcDb2dVertex
 10
8.118707
 20
0.592701
 30
0.0
  0
VERTEX
  5
112
100
AcDbEntity
  8
0
370
     0
390
0
100
AcDbVertex
100
AcDb2dVertex
 10
8.117024
 20
0.593438
 30
0.0
  0
VERTEX
  5
113
100
AcDbEntity
  8
0
370
     0
390
0
100
AcDbVertex
100
AcDb2dVertex
 10
8.11515
 20
0.594086
 30
0.0
  0
VERTEX
  5
114
100
AcDbEntity
  8
0
370
     0
390
0
100
AcDbVertex
100
AcDb2dVertex
 10
8.113085
 20
0.594648
 30
0.0
  0
VERTEX
  5
115
100
AcDbEntity
  8
0
370
     0
390
0
100
AcDbVertex
100
AcDb2dVertex
 10
8.110827
 20
0.595125
 30
0.0
  0
VERTEX
  5
116
100
AcDbEntity
  8
0
370
     0
390
0
100
AcDbVertex
100
AcDb2dVertex
 10
8.108379
 20
0.595514
 30
0.0
  0
VERTEX
  5
117
100
AcDbEntity
  8
0
370
     0
390
0
100
AcDbVertex
100
AcDb2dVertex
 10
8.10574
 20
0.595817
 30
0.0
  0
VERTEX
  5
118
100
AcDbEntity
  8
0
370
     0
390
0
100
AcDbVertex
100
AcDb2dVertex
 10
8.102909
 20
0.596033
 30
0.0
  0
VERTEX
  5
119
100
AcDbEntity
  8
0
370
     0
390
0
100
AcDbVertex
100
AcDb2dVertex
 10
8.099887
 20
0.596163
 30
0.0
  0
VERTEX
  5
11A
100
AcDbEntity
  8
0
370
     0
390
0
100
AcDbVertex
100
AcDb2dVertex
 10
8.096672
 20
0.596207
 30
0.0
  0
VERTEX
  5
11B
100
AcDbEntity
  8
0
370
     0
390
0
100
AcDbVertex
100
AcDb2dVertex
 10
8.090507
 20
0.596099
 30
0.0
  0
VERTEX
  5
11C
100
AcDbEntity
  8
0
370
     0
390
0
100
AcDbVertex
100
AcDb2dVertex
 10
8.080016
 20
0.596207
 30
0.0
  0
VERTEX
  5
11D
100
AcDbEntity
  8
0
370
     0
390
0
100
AcDbVertex
100
AcDb2dVertex
 10
8.076014
 20
0.596315
 30
0.0
  0
VERTEX
  5
11E
100
AcDbEntity
  8
0
370
     0
390
0
100
AcDbVertex
100
AcDb2dVertex
 10
8.076014
 20
0.545696
 30
0.0
  0
VERTEX
  5
11F
100
AcDbEntity
  8
0
370
     0
390
0
100
AcDbVertex
100
AcDb2dVertex
 10
8.082612
 20
0.545696
 30
0.0
  0
VERTEX
  5
120
100
AcDbEntity
  8
0
370
     0
390
0
100
AcDbVertex
100
AcDb2dVertex
 10
8.082612
 20
0.590366
 30
0.0
  0
VERTEX
  5
121
100
AcDbEntity
  8
0
370
     0
390
0
100
AcDbVertex
100
AcDb2dVertex
 10
8.085749
 20
0.590474
 30
0.0
  0
VERTEX
  5
122
100
AcDbEntity
  8
0
370
     0
390
0
100
AcDbVertex
100
AcDb2dVertex
 10
8.088465
 20
0.590591
 30
0.0
  0
VERTEX
  5
123
100
AcDbEntity
  8
0
370
     0
390
0
100
AcDbVertex
100
AcDb2dVertex
 10
8.091251
 20
0.590682
 30
0.0
  0
VERTEX
  5
124
100
AcDbEntity
  8
0
370
     0
390
0
100
AcDbVertex
100
AcDb2dVertex
 10
8.094107
 20
0.590747
 30
0.0
  0
VERTEX
  5
125
100
AcDbEntity
  8
0
370
     0
390
0
100
AcDbVertex
100
AcDb2dVertex
 10
8.097032
 20
0.590786
 30
0.0
  0
VERTEX
  5
126
100
AcDbEntity
  8
0
370
     0
390
0
100
AcDbVertex
100
AcDb2dVertex
 10
8.100026
 20
0.590798
 30
0.0
  0
VERTEX
  5
127
100
AcDbEntity
  8
0
370
     0
390
0
100
AcDbVertex
100
AcDb2dVertex
 10
8.104273
 20
0.590684
 30
0.0
  0
VERTEX
  5
128
100
AcDbEntity
  8
0
370
     0
390
0
100
AcDbVertex
100
AcDb2dVertex
 10
8.108189
 20
0.59034
 30
0.0
  0
VERTEX
  5
129
100
AcDbEntity
  8
0
370
     0
390
0
100
AcDbVertex
100
AcDb2dVertex
 10
8.111775
 20
0.589767
 30
0.0
  0
VERTEX
  5
12A
100
AcDbEntity
  8
0
370
     0
390
0
100
AcDbVertex
100
AcDb2dVertex
 10
8.115029
 20
0.588965
 30
0.0
  0
VERTEX
  5
12B
100
AcDbEntity
  8
0
370
     0
390
0
100
AcDbVertex
100
AcDb2dVertex
 10
8.117954
 20
0.587933
 30
0.0
  0
VERTEX
  5
12C
100
AcDbEntity
  8
0
370
     0
390
0
100
AcDbVertex
100
AcDb2dVertex
 10
8.120546
 20
0.586671
 30
0.0
  0
VERTEX
  5
12D
100
AcDbEntity
  8
0
370
     0
390
0
100
AcDbVertex
100
AcDb2dVertex
 10
8.122807
 20
0.58518
 30
0.0
  0
VERTEX
  5
12E
100
AcDbEntity
  8
0
370
     0
390
0
100
AcDbVertex
100
AcDb2dVertex
 10
8.124737
 20
0.583461
 30
0.0
  0
VERTEX
  5
12F
100
AcDbEntity
  8
0
370
     0
390
0
100
AcDbVertex
100
AcDb2dVertex
 10
8.126338
 20
0.581511
 30
0.0
  0
VERTEX
  5
130
100
AcDbEntity
  8
0
370
     0
390
0
100
AcDbVertex
100
AcDb2dVertex
 10
8.127607
 20
0.579333
 30
0.0
  0
VERTEX
  5
131
100
AcDbEntity
  8
0
370
     0
390
0
100
AcDbVertex
100
AcDb2dVertex
 10
8.125449
 20
0.581235
 30
0.0
  0
VERTEX
  5
132
100
AcDbEntity
  8
0
370
     0
390
0
100
AcDbVertex
100
AcDb2dVertex
 10
8.123219
 20
0.582873
 30
0.0
  0
VERTEX
  5
133
100
AcDbEntity
  8
0
370
     0
390
0
100
AcDbVertex
100
AcDb2dVertex
 10
8.120915
 20
0.584246
 30
0.0
  0
VERTEX
  5
134
100
AcDbEntity
  8
0
370
     0
390
0
100
AcDbVertex
100
AcDb2dVertex
 10
8.118538
 20
0.585356
 30
0.0
  0
VERTEX
  5
135
100
AcDbEntity
  8
0
370
     0
390
0
100
AcDbVertex
100
AcDb2dVertex
 10
8.116087
 20
0.586202
 30
0.0
  0
VERTEX
  5
136
100
AcDbEntity
  8
0
370
     0
390
0
100
AcDbVertex
100
AcDb2dVertex
 10
8.113329
 20
0.586844
 30
0.0
  0
VERTEX
  5
137
100
AcDbEntity
  8
0
370
     0
390
0
100
AcDbVertex
100
AcDb2dVertex
 10
8.111747
 20
0.587112
 30
0.0
  0
VERTEX
  5
138
100
AcDbEntity
  8
0
370
     0
390
0
100
AcDbVertex
100
AcDb2dVertex
 10
8.110031
 20
0.587343
 30
0.0
  0
VERTEX
  5
139
100
AcDbEntity
  8
0
370
     0
390
0
100
AcDbVertex
100
AcDb2dVertex
 10
8.108179
 20
0.58754
 30
0.0
  0
VERTEX
  5
13A
100
AcDbEntity
  8
0
370
     0
390
0
100
AcDbVertex
100
AcDb2dVertex
 10
8.106191
 20
0.5877
 30
0.0
  0
VERTEX
  5
13B
100
AcDbEntity
  8
0
370
     0
390
0
100
AcDbVertex
100
AcDb2dVertex
 10
8.104068
 20
0.587826
 30
0.0
  0
VERTEX
  5
13C
100
AcDbEntity
  8
0
370
     0
390
0
100
AcDbVertex
100
AcDb2dVertex
 10
8.101811
 20
0.587915
 30
0.0
  0
VERTEX
  5
13D
100
AcDbEntity
  8
0
370
     0
390
0
100
AcDbVertex
100
AcDb2dVertex
 10
8.099417
 20
0.587969
 30
0.0
  0
VERTEX
  5
13E
100
AcDbEntity
  8
0
370
     0
390
0
100
AcDbVertex
100
AcDb2dVertex
 10
8.09689
 20
0.587987
 30
0.0
  0
VERTEX
  5
13F
100
AcDbEntity
  8
0
370
     0
390
0
100
AcDbVertex
100
AcDb2dVertex
 10
8.094938
 20
0.587964
 30
0.0
  0
VERTEX
  5
140
100
AcDbEntity
  8
0
370
     0
390
0
100
AcDbVertex
100
AcDb2dVertex
 10
8.092805
 20
0.5879
 30
0.0
  0
VERTEX
  5
141
100
AcDbEntity
  8
0
370
     0
390
0
100
AcDbVertex
100
AcDb2dVertex
 10
8.090491
 20
0.587792
 30
0.0
  0
VERTEX
  5
142
100
AcDbEntity
  8
0
370
     0
390
0
100
AcDbVertex
100
AcDb2dVertex
 10
8.087994
 20
0.58764
 30
0.0
  0
VERTEX
  5
143
100
AcDbEntity
  8
0
370
     0
390
0
100
AcDbVertex
100
AcDb2dVertex
 10
8.085316
 20
0.587445
 30
0.0
  0
VERTEX
  5
144
100
AcDbEntity
  8
0
370
     0
390
0
100
AcDbVertex
100
AcDb2dVertex
 10
8.085316
 20
0.545696
 30
0.0
  0
VERTEX
  5
145
100
AcDbEntity
  8
0
370
     0
390
0
100
AcDbVertex
100
AcDb2dVertex
 10
8.101647
 20
0.545696
 30
0.0
  0
VERTEX
  5
146
100
AcDbEntity
  8
0
370
     0
390
0
100
AcDbVertex
100
AcDb2dVertex
 10
8.118953
 20
0.563975
 30
0.0
  0
VERTEX
  5
147
100
AcDbEntity
  8
0
370
     0
390
0
100
AcDbVertex
100
AcDb2dVertex
 10
8.118953
 20
0.518655
 30
0.0
  0
VERTEX
  5
148
100
AcDbEntity
  8
0
370
     0
390
0
100
AcDbVertex
100
AcDb2dVertex
 10
8.100782
 20
0.53661
 30
0.0
  0
VERTEX
  5
149
100
AcDbEntity
  8
0
370
     0
390
0
100
AcDbVertex
100
AcDb2dVertex
 10
8.076014
 20
0.53661
 30
0.0
  0
VERTEX
  5
14A
100
AcDbEntity
  8
0
370
     0
390
0
100
AcDbVertex
100
AcDb2dVertex
 10
8.076014
 20
0.482097
 30
0.0
  0
VERTEX
  5
14B
100
AcDbEntity
  8
0
370
     0
390
0
100
AcDbVertex
100
AcDb2dVertex
 10
8.089859
 20
0.468038
 30
0.0
  0
VERTEX
  5
14C
100
AcDbEntity
  8
0
370
     0
390
0
100
AcDbVertex
100
AcDb2dVertex
 10
8.036753
 20
0.468038
 30
0.0
  0
VERTEX
  5
14D
100
AcDbEntity
  8
0
370
     0
390
0
100
AcDbVertex
100
AcDb2dVertex
 10
8.054382
 20
0.482097
 30
0.0
  0
VERTEX
  5
14E
100
AcDbEntity
  8
0
370
     0
390
0
100
AcDbVertex
100
AcDb2dVertex
 10
8.054382
 20
0.528606
 30
0.0
  0
VERTEX
  5
14F
100
AcDbEntity
  8
0
370
     0
390
0
100
AcDbVertex
100
AcDb2dVertex
 10
8.052737
 20
0.528543
 30
0.0
  0
VERTEX
  5
150
100
AcDbEntity
  8
0
370
     0
390
0
100
AcDbVertex
100
AcDb2dVertex
 10
8.051134
 20
0.528356
 30
0.0
  0
VERTEX
  5
151
100
AcDbEntity
  8
0
370
     0
390
0
100
AcDbVertex
100
AcDb2dVertex
 10
8.049571
 20
0.528042
 30
0.0
  0
VERTEX
  5
152
100
AcDbEntity
  8
0
370
     0
390
0
100
AcDbVertex
100
AcDb2dVertex
 10
8.048048
 20
0.527603
 30
0.0
  0
VERTEX
  5
153
100
AcDbEntity
  8
0
370
     0
390
0
100
AcDbVertex
100
AcDb2dVertex
 10
8.046567
 20
0.527039
 30
0.0
  0
VERTEX
  5
154
100
AcDbEntity
  8
0
370
     0
390
0
100
AcDbVertex
100
AcDb2dVertex
 10
8.045129
 20
0.526349
 30
0.0
  0
VERTEX
  5
155
100
AcDbEntity
  8
0
370
     0
390
0
100
AcDbVertex
100
AcDb2dVertex
 10
8.04373
 20
0.525533
 30
0.0
  0
VERTEX
  5
156
100
AcDbEntity
  8
0
370
     0
390
0
100
AcDbVertex
100
AcDb2dVertex
 10
8.042372
 20
0.524592
 30
0.0
  0
VERTEX
  5
157
100
AcDbEntity
  8
0
370
     0
390
0
100
AcDbVertex
100
AcDb2dVertex
 10
8.041057
 20
0.523526
 30
0.0
  0
VERTEX
  5
158
100
AcDbEntity
  8
0
370
     0
390
0
100
AcDbVertex
100
AcDb2dVertex
 10
8.03978
 20
0.522333
 30
0.0
  0
VERTEX
  5
159
100
AcDbEntity
  8
0
370
     0
390
0
100
AcDbVertex
100
AcDb2dVertex
 10
8.037725
 20
0.524604
 30
0.0
  0
VERTEX
  5
15A
100
AcDbEntity
  8
0
370
     0
390
0
100
AcDbVertex
100
AcDb2dVertex
 10
8.039021
 20
0.52592
 30
0.0
  0
VERTEX
  5
15B
100
AcDbEntity
  8
0
370
     0
390
0
100
AcDbVertex
100
AcDb2dVertex
 10
8.0404
 20
0.527097
 30
0.0
  0
VERTEX
  5
15C
100
AcDbEntity
  8
0
370
     0
390
0
100
AcDbVertex
100
AcDb2dVertex
 10
8.041859
 20
0.528135
 30
0.0
  0
VERTEX
  5
15D
100
AcDbEntity
  8
0
370
     0
390
0
100
AcDbVertex
100
AcDb2dVertex
 10
8.043403
 20
0.529035
 30
0.0
  0
VERTEX
  5
15E
100
AcDbEntity
  8
0
370
     0
390
0
100
AcDbVertex
100
AcDb2dVertex
 10
8.045027
 20
0.529796
 30
0.0
  0
VERTEX
  5
15F
100
AcDbEntity
  8
0
370
     0
390
0
100
AcDbVertex
100
AcDb2dVertex
 10
8.046733
 20
0.53042
 30
0.0
  0
VERTEX
  5
160
100
AcDbEntity
  8
0
370
     0
390
0
100
AcDbVertex
100
AcDb2dVertex
 10
8.048522
 20
0.530904
 30
0.0
  0
VERTEX
  5
161
100
AcDbEntity
  8
0
370
     0
390
0
100
AcDbVertex
100
AcDb2dVertex
 10
8.050394
 20
0.531249
 30
0.0
  0
VERTEX
  5
162
100
AcDbEntity
  8
0
370
     0
390
0
100
AcDbVertex
100
AcDb2dVertex
 10
8.052347
 20
0.531458
 30
0.0
  0
VERTEX
  5
163
100
AcDbEntity
  8
0
370
     0
390
0
100
AcDbVertex
100
AcDb2dVertex
 10
8.054382
 20
0.531527
 30
0.0
  0
VERTEX
  5
164
100
AcDbEntity
  8
0
370
     0
390
0
100
AcDbVertex
100
AcDb2dVertex
 10
8.054382
 20
0.53661
 30
0.0
  0
VERTEX
  5
165
100
AcDbEntity
  8
0
370
     0
390
0
100
AcDbVertex
100
AcDb2dVertex
 10
8.052773
 20
0.536748
 30
0.0
  0
VERTEX
  5
166
100
AcDbEntity
  8
0
370
     0
390
0
100
AcDbVertex
100
AcDb2dVertex
 10
8.051138
 20
0.536826
 30
0.0
  0
VERTEX
  5
167
100
AcDbEntity
  8
0
370
     0
390
0
100
AcDbVertex
100
AcDb2dVertex
 10
8.049152
 20
0.536744
 30
0.0
  0
VERTEX
  5
168
100
AcDbEntity
  8
0
370
     0
390
0
100
AcDbVertex
100
AcDb2dVertex
 10
8.047222
 20
0.536498
 30
0.0
  0
VERTEX
  5
169
100
AcDbEntity
  8
0
370
     0
390
0
100
AcDbVertex
100
AcDb2dVertex
 10
8.045345
 20
0.536087
 30
0.0
  0
VERTEX
  5
16A
100
AcDbEntity
  8
0
370
     0
390
0
100
AcDbVertex
100
AcDb2dVertex
 10
8.043522
 20
0.535512
 30
0.0
  0
VERTEX
  5
16B
100
AcDbEntity
  8
0
370
     0
390
0
100
AcDbVertex
100
AcDb2dVertex
 10
8.041754
 20
0.534771
 30
0.0
  0
VERTEX
  5
16C
100
AcDbEntity
  8
0
370
     0
390
0
100
AcDbVertex
100
AcDb2dVertex
 10
8.04004
 20
0.533868
 30
0.0
  0
VERTEX
  5
16D
100
AcDbEntity
  8
0
370
     0
390
0
100
AcDbVertex
100
AcDb2dVertex
 10
8.038381
 20
0.532799
 30
0.0
  0
VERTEX
  5
16E
100
AcDbEntity
  8
0
370
     0
390
0
100
AcDbVertex
100
AcDb2dVertex
 10
8.036774
 20
0.531566
 30
0.0
  0
VERTEX
  5
16F
100
AcDbEntity
  8
0
370
     0
390
0
100
AcDbVertex
100
AcDb2dVertex
 10
8.035222
 20
0.530168
 30
0.0
  0
VERTEX
  5
170
100
AcDbEntity
  8
0
370
     0
390
0
100
AcDbVertex
100
AcDb2dVertex
 10
8.033725
 20
0.528606
 30
0.0
  0
VERTEX
  5
171
100
AcDbEntity
  8
0
370
     0
390
0
100
AcDbVertex
100
AcDb2dVertex
 10
8.032967
 20
0.530337
 30
0.0
  0
VERTEX
  5
172
100
AcDbEntity
  8
0
370
     0
390
0
100
AcDbVertex
100
AcDb2dVertex
 10
8.034058
 20
0.533022
 30
0.0
  0
VERTEX
  5
173
100
AcDbEntity
  8
0
370
     0
390
0
100
AcDbVertex
100
AcDb2dVertex
 10
8.03538
 20
0.535451
 30
0.0
  0
VERTEX
  5
174
100
AcDbEntity
  8
0
370
     0
390
0
100
AcDbVertex
100
AcDb2dVertex
 10
8.036938
 20
0.537626
 30
0.0
  0
VERTEX
  5
175
100
AcDbEntity
  8
0
370
     0
390
0
100
AcDbVertex
100
AcDb2dVertex
 10
8.03873
 20
0.539544
 30
0.0
  0
VERTEX
  5
176
100
AcDbEntity
  8
0
370
     0
390
0
100
AcDbVertex
100
AcDb2dVertex
 10
8.040755
 20
0.541208
 30
0.0
  0
VERTEX
  5
177
100
AcDbEntity
  8
0
370
     0
390
0
100
AcDbVertex
100
AcDb2dVertex
 10
8.043013
 20
0.542615
 30
0.0
  0
VERTEX
  5
178
100
AcDbEntity
  8
0
370
     0
390
0
100
AcDbVertex
100
AcDb2dVertex
 10
8.045504
 20
0.543768
 30
0.0
  0
VERTEX
  5
179
100
AcDbEntity
  8
0
370
     0
390
0
100
AcDbVertex
100
AcDb2dVertex
 10
8.048231
 20
0.544665
 30
0.0
  0
VERTEX
  5
17A
100
AcDbEntity
  8
0
370
     0
390
0
100
AcDbVertex
100
AcDb2dVertex
 10
8.051189
 20
0.545309
 30
0.0
  0
VERTEX
  5
17B
100
AcDbEntity
  8
0
370
     0
390
0
100
AcDbVertex
100
AcDb2dVertex
 10
8.054382
 20
0.545696
 30
0.0
  0
VERTEX
  5
17C
100
AcDbEntity
  8
0
370
     0
390
0
100
AcDbVertex
100
AcDb2dVertex
 10
8.054382
 20
0.591339
 30
0.0
  0
SEQEND
  5
17D
100
AcDbEntity
  8
0
370
     0
390
0
  0
POLYLINE
  5
17E
100
AcDbEntity
  8
0
370
    13
390
0
 62
     7
 48
0.03937
100
AcDb2dPolyline
 66
     1
 10
0.0
 20
0.0
 30
0.0
 70
     1
 71
    22
  0
VERTEX
  5
17F
100
AcDbEntity
  8
0
370
     0
390
0
100
AcDbVertex
100
AcDb2dVertex
 10
8.160271
 20
0.598694
 30
0.0
  0
VERTEX
  5
180
100
AcDbEntity
  8
0
370
     0
390
0
100
AcDbVertex
100
AcDb2dVertex
 10
8.157292
 20
0.595112
 30
0.0
  0
VERTEX
  5
181
100
AcDbEntity
  8
0
370
     0
390
0
100
AcDbVertex
100
AcDb2dVertex
 10
8.154542
 20
0.59159
 30
0.0
  0
VERTEX
  5
182
100
AcDbEntity
  8
0
370
     0
390
0
100
AcDbVertex
100
AcDb2dVertex
 10
8.152022
 20
0.588129
 30
0.0
  0
VERTEX
  5
183
100
AcDbEntity
  8
0
370
     0
390
0
100
AcDbVertex
100
AcDb2dVertex
 10
8.149732
 20
0.584729
 30
0.0
  0
VERTEX
  5
184
100
AcDbEntity
  8
0
370
     0
390
0
100
AcDbVertex
100
AcDb2dVertex
 10
8.147671
 20
0.581388
 30
0.0
  0
VERTEX
  5
185
100
AcDbEntity
  8
0
370
     0
390
0
100
AcDbVertex
100
AcDb2dVertex
 10
8.145838
 20
0.578109
 30
0.0
  0
VERTEX
  5
186
100
AcDbEntity
  8
0
370
     0
390
0
100
AcDbVertex
100
AcDb2dVertex
 10
8.144234
 20
0.57489
 30
0.0
  0
VERTEX
  5
187
100
AcDbEntity
  8
0
370
     0
390
0
100
AcDbVertex
100
AcDb2dVertex
 10
8.142862
 20
0.571733
 30
0.0
  0
VERTEX
  5
188
100
AcDbEntity
  8
0
370
     0
390
0
100
AcDbVertex
100
AcDb2dVertex
 10
8.141717
 20
0.568634
 30
0.0
  0
VERTEX
  5
189
100
AcDbEntity
  8
0
370
     0
390
0
100
AcDbVertex
100
AcDb2dVertex
 10
8.140802
 20
0.565596
 30
0.0
  0
VERTEX
  5
18A
100
AcDbEntity
  8
0
370
     0
390
0
100
AcDbVertex
100
AcDb2dVertex
 10
8.138531
 20
0.567111
 30
0.0
  0
VERTEX
  5
18B
100
AcDbEntity
  8
0
370
     0
390
0
100
AcDbVertex
100
AcDb2dVertex
 10
8.139469
 20
0.570503
 30
0.0
  0
VERTEX
  5
18C
100
AcDbEntity
  8
0
370
     0
390
0
100
AcDbVertex
100
AcDb2dVertex
 10
8.140637
 20
0.573882
 30
0.0
  0
VERTEX
  5
18D
100
AcDbEntity
  8
0
370
     0
390
0
100
AcDbVertex
100
AcDb2dVertex
 10
8.142038
 20
0.577251
 30
0.0
  0
VERTEX
  5
18E
100
AcDbEntity
  8
0
370
     0
390
0
100
AcDbVertex
100
AcDb2dVertex
 10
8.14367
 20
0.58061
 30
0.0
  0
VERTEX
  5
18F
100
AcDbEntity
  8
0
370
     0
390
0
100
AcDbVertex
100
AcDb2dVertex
 10
8.145533
 20
0.583958
 30
0.0
  0
VERTEX
  5
190
100
AcDbEntity
  8
0
370
     0
390
0
100
AcDbVertex
100
AcDb2dVertex
 10
8.147629
 20
0.587294
 30
0.0
  0
VERTEX
  5
191
100
AcDbEntity
  8
0
370
     0
390
0
100
AcDbVertex
100
AcDb2dVertex
 10
8.149955
 20
0.590619
 30
0.0
  0
VERTEX
  5
192
100
AcDbEntity
  8
0
370
     0
390
0
100
AcDbVertex
100
AcDb2dVertex
 10
8.152513
 20
0.593936
 30
0.0
  0
VERTEX
  5
193
100
AcDbEntity
  8
0
370
     0
390
0
100
AcDbVertex
100
AcDb2dVertex
 10
8.155303
 20
0.597239
 30
0.0
  0
VERTEX
  5
194
100
AcDbEntity
  8
0
370
     0
390
0
100
AcDbVertex
100
AcDb2dVertex
 10
8.158324
 20
0.600533
 30
0.0
  0
SEQEND
  5
195
100
AcDbEntity
  8
0
370
     0
390
0
  0
POLYLINE
  5
196
100
AcDbEntity
  8
0
370
    13
390
0
 62
     7
 48
0.03937
100
AcDb2dPolyline
 66
     1
 10
0.0
 20
0.0
 30
0.0
 70
     1
 71
     4
  0
VERTEX
  5
197
100
AcDbEntity
  8
0
370
     0
390
0
100
AcDbVertex
100
AcDb2dVertex
 10
8.126849
 20
0.560189
 30
0.0
  0
VERTEX
  5
198
100
AcDbEntity
  8
0
370
     0
390
0
100
AcDbVertex
100
AcDb2dVertex
 10
8.126849
 20
0.513464
 30
0.0
  0
VERTEX
  5
199
100
AcDbEntity
  8
0
370
     0
390
0
100
AcDbVertex
100
AcDb2dVertex
 10
8.124036
 20
0.515087
 30
0.0
  0
VERTEX
  5
19A
100
AcDbEntity
  8
0
370
     0
390
0
100
AcDbVertex
100
AcDb2dVertex
 10
8.124036
 20
0.561812
 30
0.0
  0
SEQEND
  5
19B
100
AcDbEntity
  8
0
370
     0
390
0
  0
POLYLINE
  5
19C
100
AcDbEntity
  8
0
370
    13
390
0
 62
     7
 48
0.03937
100
AcDb2dPolyline
 66
     1
 10
0.0
 20
0.0
 30
0.0
 70
     1
 71
    10
  0
VERTEX
  5
19D
100
AcDbEntity
  8
0
370
     0
390
0
100
AcDbVertex
100
AcDb2dVertex
 10
8.107488
 20
0.527525
 30
0.0
  0
VERTEX
  5
19E
100
AcDbEntity
  8
0
370
     0
390
0
100
AcDbVertex
100
AcDb2dVertex
 10
8.085316
 20
0.527525
 30
0.0
  0
VERTEX
  5
19F
100
AcDbEntity
  8
0
370
     0
390
0
100
AcDbVertex
100
AcDb2dVertex
 10
8.085316
 20
0.481233
 30
0.0
  0
VERTEX
  5
1A0
100
AcDbEntity
  8
0
370
     0
390
0
100
AcDbVertex
100
AcDb2dVertex
 10
8.104352
 20
0.457653
 30
0.0
  0
VERTEX
  5
1A1
100
AcDbEntity
  8
0
370
     0
390
0
100
AcDbVertex
100
AcDb2dVertex
 10
8.041727
 20
0.457653
 30
0.0
  0
VERTEX
  5
1A2
100
AcDbEntity
  8
0
370
     0
390
0
100
AcDbVertex
100
AcDb2dVertex
 10
8.039024
 20
0.460574
 30
0.0
  0
VERTEX
  5
1A3
100
AcDbEntity
  8
0
370
     0
390
0
100
AcDbVertex
100
AcDb2dVertex
 10
8.098295
 20
0.460574
 30
0.0
  0
VERTEX
  5
1A4
100
AcDbEntity
  8
0
370
     0
390
0
100
AcDbVertex
100
AcDb2dVertex
 10
8.082612
 20
0.479934
 30
0.0
  0
VERTEX
  5
1A5
100
AcDbEntity
  8
0
370
     0
390
0
100
AcDbVertex
100
AcDb2dVertex
 10
8.082612
 20
0.530445
 30
0.0
  0
VERTEX
  5
1A6
100
AcDbEntity
  8
0
370
     0
390
0
100
AcDbVertex
100
AcDb2dVertex
 10
8.104352
 20
0.530445
 30
0.0
  0
SEQEND
  5
1A7
100
AcDbEntity
  8
0
370
     0
390
0
  0
CIRCLE
  5
1A8
100
AcDbEntity
  8
0
370
    35
390
0
 62
     7
 48
0.03937
100
AcDbCircle
 10
4.682726
 20
6.423557
 30
0.0
 40
0.160481
210
0.0
220
0.0
230
1.0
  0
CIRCLE
  5
1A9
100
AcDbEntity
  8
0
370
    35
390
0
 62
     7
 48
0.03937
100
AcDbCircle
 10
3.608079
 20
6.423557
 30
0.0
 40
1.378415
210
0.0
220
0.0
230
1.0
  0
CIRCLE
  5
1AA
100
AcDbEntity
  8
0
370
    35
390
0
 62
     7
 48
0.03937
100
AcDbCircle
 10
4.367969
 20
7.183448
 30
0.0
 40
0.160481
210
0.0
220
0.0
230
1.0
  0
CIRCLE
  5
1AB
100
AcDbEntity
  8
0
370
    35
390
0
 62
     7
 48
0.03937
100
AcDbCircle
 10
3.608079
 20
7.498205
 30
0.0
 40
0.160481
210
0.0
220
0.0
230
1.0
  0
CIRCLE
  5
1AC
100
AcDbEntity
  8
0
370
    35
390
0
 62
     7
 48
0.03937
100
AcDbCircle
 10
2.848188
 20
7.183448
 30
0.0
 40
0.160481
210
0.0
220
0.0
230
1.0
  0
CIRCLE
  5
1AD
100
AcDbEntity
  8
0
370
    35
390
0
 62
     7
 48
0.03937
100
AcDbCircle
 10
2.533431
 20
6.423557
 30
0.0
 40
0.160481
210
0.0
220
0.0
230
1.0
  0
CIRCLE
  5
1AE
100
AcDbEntity
  8
0
370
    35
390
0
 62
     7
 48
0.03937
100
AcDbCircle
 10
2.848188
 20
5.663667
 30
0.0
 40
0.160481
210
0.0
220
0.0
230
1.0
  0
CIRCLE
  5
1AF
100
AcDbEntity
  8
0
370
    35
390
0
 62
     7
 48
0.03937
100
AcDbCircle
 10
3.608079
 20
5.34891
 30
0.0
 40
0.160481
210
0.0
220
0.0
230
1.0
  0
CIRCLE
  5
1B0
100
AcDbEntity
  8
0
370
    35
390
0
 62
     7
 48
0.03937
100
AcDbCircle
 10
4.367969
 20
5.663667
 30
0.0
 40
0.160481
210
0.0
220
0.0
230
1.0
  0
CIRCLE
  5
1B1
100
AcDbEntity
  8
0
370
    35
390
0
 62
     7
 48
0.03937
100
AcDbCircle
 10
3.608079
 20
6.423557
 30
0.0
 40
0.358216
210
0.0
220
0.0
230
1.0
  0
CIRCLE
  5
1B2
100
AcDbEntity
  8
0
370
    35
390
0
 62
     7
 48
0.03937
100
AcDbCircle
 10
3.608079
 20
6.423557
 30
0.0
 40
0.59034
210
0.0
220
0.0
230
1.0
  0
ELLIPSE
  5
1B3
100
AcDbEntity
  8
0
370
    35
390
0
 62
     7
 48
0.03937
100
AcDbEllipse
 10
7.581177
 20
4.155352
 30
0.0
 11
-0.1604795039114606
 21
-0.0006271582530798
 31
0.0
210
0.0
220
0.0
230
1.0
 40
0.364583
 41
6.2831852818557667
 42
9.4247779354455581
  0
ELLIPSE
  5
1B4
100
AcDbEntity
  8
0
370
    35
390
0
 62
     7
 48
0.03937
100
AcDbEllipse
 10
7.581177
 20
4.155352
 30
0.0
 11
-0.1604795039114606
 21
-0.0006271582530799
 31
0.0
210
0.0
220
0.0
230
1.0
 40
0.364583
 41
4.2840029521786231
 42
6.2831852818557676
  0
ELLIPSE
  5
1B5
100
AcDbEntity
  8
0
370
    35
390
0
 62
     7
 48
0.03937
100
AcDbEllipse
 10
8.442364
 20
3.961159
 30
0.0
 11
-1.3784043103823658
 21
-0.0053868414237684
 31
0.0
210
0.0
220
0.0
230
1.0
 40
0.364583
 41
1.7132066253837286
 42
3.1415940626481129
  0
ELLIPSE
  5
1B6
100
AcDbEntity
  8
0
370
    35
390
0
 62
     7
 48
0.03937
100
AcDbEllipse
 10
8.442364
 20
3.961159
 30
0.0
 11
-1.3784043103823658
 21
-0.0053868414237684
 31
0.0
210
0.0
220
0.0
230
1.0
 40
0.364583
 41
0.0000014090583207
 42
1.7132066253837257
  0
ELLIPSE
  5
1B7
100
AcDbEntity
  8
0
370
    35
390
0
 62
     7
 48
0.03937
100
AcDbEllipse
 10
8.440675
 20
4.39345
 30
0.0
 11
-1.3784043103823658
 21
-0.0053868414237641
 31
0.0
210
0.0
220
0.0
230
1.0
 40
0.364583
 41
3.1415940626481129
 42
3.9099506759106237
  0
ELLIPSE
  5
1B8
100
AcDbEntity
  8
0
370
    35
390
0
 62
     7
 48
0.03937
100
AcDbEllipse
 10
8.440675
 20
4.39345
 30
0.0
 11
-1.3784043103823658
 21
-0.0053868414237641
 31
0.0
210
0.0
220
0.0
230
1.0
 40
0.364583
 41
1.7132066253837286
 42
3.1415940626481129
  0
ELLIPSE
  5
1B9
100
AcDbEntity
  8
0
370
    35
390
0
 62
     7
 48
0.03937
100
AcDbEllipse
 10
8.440675
 20
4.39345
 30
0.0
 11
-1.3784043103823658
 21
-0.0053868414237641
 31
0.0
210
0.0
220
0.0
230
1.0
 40
0.364583
 41
0.0000014090583207
 42
1.7132066253837257
  0
ELLIPSE
  5
1BA
100
AcDbEntity
  8
0
370
    35
390
0
 62
     7
 48
0.03937
100
AcDbEllipse
 10
8.440675
 20
4.39345
 30
0.0
 11
-1.3784043103823658
 21
-0.0053868414237641
 31
0.0
210
0.0
220
0.0
230
1.0
 40
0.364583
 41
5.5148272846896758
 42
6.2831867162379069
  0
ELLIPSE
  5
1BB
100
AcDbEntity
  8
0
370
    13
390
0
 62
     7
 48
0.03937
100
AcDbEllipse
 10
8.440675
 20
4.39345
 30
0.0
 11
-0.6949335660451637
 21
-0.0027158192209206
 31
0.0
210
0.0
220
0.0
230
1.0
 40
0.364583
 41
0.122477208252599
 42
3.019115097166102
  0
ELLIPSE
  5
1BC
100
AcDbEntity
  8
0
370
    13
390
0
 62
     7
 48
0.03937
100
AcDbEllipse
 10
8.440645
 20
4.400919
 30
0.0
 11
-0.6927842869749213
 21
-0.0027074197800311
 31
0.0
210
0.0
220
0.0
230
1.0
 40
0.364583
 41
0.7452513643515135
 42
2.3963030850784417
  0
ELLIPSE
  5
1BD
100
AcDbEntity
  8
0
370
    35
390
0
 62
     7
 48
0.03937
100
AcDbEllipse
 10
8.440632
 20
4.404385
 30
0.0
 11
-0.6992321241856511
 21
-0.0027326181026995
 31
0.0
210
0.0
220
0.0
230
1.0
 40
0.364583
 41
0.7452897328809515
 42
2.3963030850784417
  0
ELLIPSE
  5
1BE
100
AcDbEntity
  8
0
370
    35
390
0
 62
     7
 48
0.03937
100
AcDbEllipse
 10
8.440632
 20
4.404385
 30
0.0
 11
-0.6992321241856511
 21
-0.0027326181026995
 31
0.0
210
0.0
220
0.0
230
1.0
 40
0.364583
 41
6.2831814476296497
 42
7.0284750400605374
  0
ELLIPSE
  5
1BF
100
AcDbEntity
  8
0
370
    35
390
0
 62
     7
 48
0.03937
100
AcDbEllipse
 10
8.440632
 20
4.404385
 30
0.0
 11
-0.6992321241856511
 21
-0.0027326181026995
 31
0.0
210
0.0
220
0.0
230
1.0
 40
0.364583
 41
2.3963030850784439
 42
3.1415887940398575
  0
ELLIPSE
  5
1C0
100
AcDbEntity
  8
0
370
    35
390
0
 62
     7
 48
0.03937
100
AcDbEllipse
 10
8.439371
 20
4.727008
 30
0.0
 11
-0.6992321241856491
 21
-0.0027326181026995
 31
0.0
210
0.0
220
0.0
230
1.0
 40
0.364583
 41
0.7452897328809646
 42
2.3963030850784293
  0
ELLIPSE
  5
1C1
100
AcDbEntity
  8
0
370
    35
390
0
 62
     7
 48
0.03937
100
AcDbEllipse
 10
8.437944
 20
5.092138
 30
0.0
 11
-1.3784043103823658
 21
-0.0053868414237641
 31
0.0
210
0.0
220
0.0
230
1.0
 40
0.364583
 41
0.7452897328809636
 42
2.3963030850784248
  0
ELLIPSE
  5
1C2
100
AcDbEntity
  8
0
370
    35
390
0
 62
     7
 48
0.03937
100
AcDbEllipse
 10
8.437944
 20
5.092138
 30
0.0
 11
-1.3784043103823658
 21
-0.0053868414237641
 31
0.0
210
0.0
220
0.0
230
1.0
 40
0.364583
 41
0.000001409058322
 42
0.7452897328809637
  0
ELLIPSE
  5
1C3
100
AcDbEntity
  8
0
370
    35
390
0
 62
     7
 48
0.03937
100
AcDbEllipse
 10
8.437944
 20
5.092138
 30
0.0
 11
-1.3784043103823658
 21
-0.0053868414237641
 31
0.0
210
0.0
220
0.0
230
1.0
 40
0.364583
 41
2.3963030850784319
 42
3.1415940626481187
  0
ELLIPSE
  5
1C4
100
AcDbEntity
  8
0
370
    35
390
0
 62
     7
 48
0.03937
100
AcDbEllipse
 10
8.433239
 20
6.296063
 30
0.0
 11
-1.3784043103823658
 21
-0.0053868414237641
 31
0.0
210
0.0
220
0.0
230
1.0
 40
0.364583
 41
0.0000014090583207
 42
3.1415940626481094
  0
ELLIPSE
  5
1C5
100
AcDbEntity
  8
0
370
    35
390
0
 62
     7
 48
0.03937
100
AcDbEllipse
 10
8.433239
 20
6.296063
 30
0.0
 11
-1.3784043103823658
 21
-0.0053868414237641
 31
0.0
210
0.0
220
0.0
230
1.0
 40
0.364583
 41
4.8547992789735197
 42
6.2831867162379069
  0
ELLIPSE
  5
1C6
100
AcDbEntity
  8
0
370
    35
390
0
 62
     7
 48
0.03937
100
AcDbEllipse
 10
8.433239
 20
6.296063
 30
0.0
 11
-1.3784043103823658
 21
-0.0053868414237641
 31
0.0
210
0.0
220
0.0
230
1.0
 40
0.364583
 41
3.1415940626481129
 42
4.8547992789735197
  0
ELLIPSE
  5
1C7
100
AcDbEntity
  8
0
370
    35
390
0
 62
     7
 48
0.03937
100
AcDbEllipse
 10
8.433239
 20
6.296063
 30
0.0
 11
-0.3582131783737956
 21
-0.0013999068149075
 31
0.0
210
0.0
220
0.0
230
1.0
 40
0.364583
 41
3.1415887940398584
 42
6.2831814476296506
  0
ELLIPSE
  5
1C8
100
AcDbEntity
  8
0
370
    35
390
0
 62
     7
 48
0.03937
100
AcDbEllipse
 10
8.433239
 20
6.296063
 30
0.0
 11
-0.3582131783737956
 21
-0.0013999068149075
 31
0.0
210
0.0
220
0.0
230
1.0
 40
0.364583
 41
1.7132066253837268
 42
3.1415887940398584
  0
ELLIPSE
  5
1C9
100
AcDbEntity
  8
0
370
    35
390
0
 62
     7
 48
0.03937
100
AcDbEllipse
 10
8.433239
 20
6.296063
 30
0.0
 11
-0.3582131783737956
 21
-0.0013999068149075
 31
0.0
210
0.0
220
0.0
230
1.0
 40
0.364583
 41
6.2831814476296506
 42
7.9963919325633137
  0
ELLIPSE
  5
1CA
100
AcDbEntity
  8
0
370
    35
390
0
 62
     7
 48
0.03937
100
AcDbEllipse
 10
7.581177
 20
4.155352
 30
0.0
 11
-0.1604795039114605
 21
-0.0006271582530798
 31
0.0
210
0.0
220
0.0
230
1.0
 40
0.364583
 41
3.141592628265975
 42
4.2840029521786223
  0
ELLIPSE
  5
1CB
100
AcDbEntity
  8
0
370
    35
390
0
 62
     7
 48
0.03937
100
AcDbEllipse
 10
7.376784
 20
4.445124
 30
0.0
 11
-0.1604795039114606
 21
-0.0006271582530798
 31
0.0
210
0.0
220
0.0
230
1.0
 40
0.364583
 41
6.2831852818557676
 42
9.4247779354455616
  0
ELLIPSE
  5
1CC
100
AcDbEntity
  8
0
370
    35
390
0
 62
     7
 48
0.03937
100
AcDbEllipse
 10
7.376784
 20
4.445124
 30
0.0
 11
-0.1604795039114606
 21
-0.0006271582530798
 31
0.0
210
0.0
220
0.0
230
1.0
 40
0.364583
 41
3.4986047887811766
 42
6.2831852818557676
  0
ELLIPSE
  5
1CD
100
AcDbEntity
  8
0
370
    35
390
0
 62
     7
 48
0.03937
100
AcDbEllipse
 10
7.376784
 20
4.445124
 30
0.0
 11
-0.1604795039114604
 21
-0.0006271582530798
 31
0.0
210
0.0
220
0.0
230
1.0
 40
0.364583
 41
3.1415926282659781
 42
3.4986047887811731
  0
ELLIPSE
  5
1CE
100
AcDbEntity
  8
0
370
    35
390
0
 62
     7
 48
0.03937
100
AcDbEllipse
 10
9.300172
 20
4.631548
 30
0.0
 11
-0.1604795039114604
 21
-0.0006271582530786
 31
0.0
210
0.0
220
0.0
230
1.0
 40
0.364583
 41
3.1415926282659767
 42
4.7833735932399692
  0
ELLIPSE
  5
1CF
100
AcDbEntity
  8
0
370
    35
390
0
 62
     7
 48
0.03937
100
AcDbEllipse
 10
9.300172
 20
4.631548
 30
0.0
 11
-0.1604795039114604
 21
-0.0006271582530786
 31
0.0
210
0.0
220
0.0
230
1.0
 40
0.364583
 41
1.1424102985888291
 42
3.1415926282659767
  0
ELLIPSE
  5
1D0
100
AcDbEntity
  8
0
370
    35
390
0
 62
     7
 48
0.03937
100
AcDbEllipse
 10
9.300172
 20
4.631548
 30
0.0
 11
-0.1604795039114603
 21
-0.0006271582530786
 31
0.0
210
0.0
220
0.0
230
1.0
 40
0.364583
 41
0.0093161555685171
 42
1.1424102985888287
  0
ELLIPSE
  5
1D1
100
AcDbEntity
  8
0
370
    35
390
0
 62
     7
 48
0.03937
100
AcDbEllipse
 10
9.504565
 20
4.341775
 30
0.0
 11
-0.1604795039114605
 21
-0.0006271582530798
 31
0.0
210
0.0
220
0.0
230
1.0
 40
0.364583
 41
3.1415926282659772
 42
6.2831852818557685
  0
ELLIPSE
  5
1D2
100
AcDbEntity
  8
0
370
    35
390
0
 62
     7
 48
0.03937
100
AcDbEllipse
 10
9.504565
 20
4.341775
 30
0.0
 11
-0.1604795039114605
 21
-0.0006271582530798
 31
0.0
210
0.0
220
0.0
230
1.0
 40
0.364583
 41
0.3570121351913818
 42
3.1415926282659772
  0
ELLIPSE
  5
1D3
100
AcDbEntity
  8
0
370
    35
390
0
 62
     7
 48
0.03937
100
AcDbEllipse
 10
9.504565
 20
4.341775
 30
0.0
 11
-0.1604795039114604
 21
-0.0006271582530798
 31
0.0
210
0.0
220
0.0
230
1.0
 40
0.364583
 41
6.2831852818557694
 42
6.6401974423709706
  0
ELLIPSE
  5
1D4
100
AcDbEntity
  8
0
370
    35
390
0
 62
     7
 48
0.03937
100
AcDbEllipse
 10
9.085746
 20
4.082273
 30
0.0
 11
-0.1604795039114606
 21
-0.0006271582530792
 31
0.0
210
0.0
220
0.0
230
1.0
 40
0.364583
 41
6.2831852818557667
 42
9.4247779354455581
  0
ELLIPSE
  5
1D5
100
AcDbEntity
  8
0
370
    35
390
0
 62
     7
 48
0.03937
100
AcDbEllipse
 10
9.085746
 20
4.082273
 30
0.0
 11
-0.1604795039114606
 21
-0.0006271582530792
 31
0.0
210
0.0
220
0.0
230
1.0
 40
0.364583
 41
5.8547992789735179
 42
6.2831852818557676
  0
ELLIPSE
  5
1D6
100
AcDbEntity
  8
0
370
    35
390
0
 62
     7
 48
0.03937
100
AcDbEllipse
 10
9.085746
 20
4.082273
 30
0.0
 11
-0.1604795039114605
 21
-0.0006271582530792
 31
0.0
210
0.0
220
0.0
230
1.0
 40
0.364583
 41
3.1415926282659754
 42
5.854799278973517
  0
ELLIPSE
  5
1D7
100
AcDbEntity
  8
0
370
    35
390
0
 62
     7
 48
0.03937
100
AcDbEllipse
 10
8.289053
 20
4.005054
 30
0.0
 11
-0.1604795039114605
 21
-0.0006271582530786
 31
0.0
210
0.0
220
0.0
230
1.0
 40
0.364583
 41
6.2831852818557659
 42
9.4247779354455599
  0
ELLIPSE
  5
1D8
100
AcDbEntity
  8
0
370
    35
390
0
 62
     7
 48
0.03937
100
AcDbEllipse
 10
8.289053
 20
4.005054
 30
0.0
 11
-0.1604795039114605
 21
-0.0006271582530799
 31
0.0
210
0.0
220
0.0
230
1.0
 40
0.364583
 41
5.0694011155760688
 42
6.2831852818557667
  0
ELLIPSE
  5
1D9
100
AcDbEntity
  8
0
370
    35
390
0
 62
     7
 48
0.03937
100
AcDbEllipse
 10
8.289053
 20
4.005054
 30
0.0
 11
-0.1604795039114604
 21
-0.0006271582530786
 31
0.0
210
0.0
220
0.0
230
1.0
 40
0.364583
 41
3.1415926282659767
 42
5.0694011155760714
  0
ELLIPSE
  5
1DA
100
AcDbEntity
  8
0
370
    35
390
0
 62
     7
 48
0.03937
100
AcDbEllipse
 10
7.893461
 20
4.054394
 30
0.0
 11
0.1217924794291657
 21
0.0004759683123099
 31
0.0
210
0.0
220
0.0
230
1.0
 40
0.364583
 41
0.0000000540707189
 42
3.1415927076605121
  0
ELLIPSE
  5
1DB
100
AcDbEntity
  8
0
370
    35
390
0
 62
     7
 48
0.03937
100
AcDbEllipse
 10
7.893461
 20
4.054394
 30
0.0
 11
0.1217924794291657
 21
0.0004759683123099
 31
0.0
210
0.0
220
0.0
230
1.0
 40
0.364583
 41
3.1415927076605121
 42
5.7474983606722487
  0
ELLIPSE
  5
1DC
100
AcDbEntity
  8
0
370
    35
390
0
 62
     7
 48
0.03937
100
AcDbEllipse
 10
7.893461
 20
4.054394
 30
0.0
 11
0.1217924794291657
 21
0.0004759683123099
 31
0.0
210
0.0
220
0.0
230
1.0
 40
0.364583
 41
5.7474983606722541
 42
6.2831853612503066
  0
ELLIPSE
  5
1DD
100
AcDbEntity
  8
0
370
    35
390
0
 62
     7
 48
0.03937
100
AcDbEllipse
 10
7.893461
 20
4.054394
 30
0.0
 11
0.0959577110654033
 21
0.0003750053369714
 31
0.0
210
0.0
220
0.0
230
1.0
 40
0.364583
 41
0.0000000540707186
 42
3.1415927076605126
  0
ELLIPSE
  5
1DE
100
AcDbEntity
  8
0
370
    35
390
0
 62
     7
 48
0.03937
100
AcDbEllipse
 10
7.893461
 20
4.054394
 30
0.0
 11
0.0959577110654033
 21
0.0003750053369714
 31
0.0
210
0.0
220
0.0
230
1.0
 40
0.364583
 41
3.1415927076605121
 42
5.7474983606722532
  0
ELLIPSE
  5
1DF
100
AcDbEntity
  8
0
370
    35
390
0
 62
     7
 48
0.03937
100
AcDbEllipse
 10
7.893461
 20
4.054394
 30
0.0
 11
0.0959577110654033
 21
0.0003750053369714
 31
0.0
210
0.0
220
0.0
230
1.0
 40
0.364583
 41
5.7474983606722532
 42
6.2831853612503048
  0
LINE
  5
1E0
100
AcDbEntity
  8
0
370
    35
390
0
 62
     7
 48
0.000174
100
AcDbLine
 10
7.911316
 20
4.065716
 30
0.0
 11
7.904506
 21
4.06426
 31
0.0
210
0.0
220
0.0
230
1.0
  0
LINE
  5
1E1
100
AcDbEntity
  8
0
370
    35
390
0
 62
     7
 48
0.000017
100
AcDbLine
 10
7.904506
 20
4.06426
 30
0.0
 11
7.903832
 21
4.064107
 31
0.0
210
0.0
220
0.0
230
1.0
  0
LINE
  5
1E2
100
AcDbEntity
  8
0
370
    35
390
0
 62
     7
 48
0.000018
100
AcDbLine
 10
7.903832
 20
4.064107
 30
0.0
 11
7.903145
 21
4.063942
 31
0.0
210
0.0
220
0.0
230
1.0
  0
LINE
  5
1E3
100
AcDbEntity
  8
0
370
    35
390
0
 62
     7
 48
0.000018
100
AcDbLine
 10
7.903145
 20
4.063942
 30
0.0
 11
7.902445
 21
4.063766
 31
0.0
210
0.0
220
0.0
230
1.0
  0
LINE
  5
1E4
100
AcDbEntity
  8
0
370
    35
390
0
 62
     7
 48
0.000018
100
AcDbLine
 10
7.902445
 20
4.063766
 30
0.0
 11
7.901734
 21
4.063578
 31
0.0
210
0.0
220
0.0
230
1.0
  0
LINE
  5
1E5
100
AcDbEntity
  8
0
370
    35
390
0
 62
     7
 48
0.000019
100
AcDbLine
 10
7.901734
 20
4.063578
 30
0.0
 11
7.901009
 21
4.063379
 31
0.0
210
0.0
220
0.0
230
1.0
  0
LINE
  5
1E6
100
AcDbEntity
  8
0
370
    35
390
0
 62
     7
 48
0.000019
100
AcDbLine
 10
7.901009
 20
4.063379
 30
0.0
 11
7.900271
 21
4.063167
 31
0.0
210
0.0
220
0.0
230
1.0
  0
LINE
  5
1E7
100
AcDbEntity
  8
0
370
    35
390
0
 62
     7
 48
0.00002
100
AcDbLine
 10
7.900271
 20
4.063167
 30
0.0
 11
7.89952
 21
4.062944
 31
0.0
210
0.0
220
0.0
230
1.0
  0
LINE
  5
1E8
100
AcDbEntity
  8
0
370
    35
390
0
 62
     7
 48
0.00002
100
AcDbLine
 10
7.89952
 20
4.062944
 30
0.0
 11
7.898757
 21
4.06271
 31
0.0
210
0.0
220
0.0
230
1.0
  0
LINE
  5
1E9
100
AcDbEntity
  8
0
370
    35
390
0
 62
     7
 48
0.00002
100
AcDbLine
 10
7.898757
 20
4.06271
 30
0.0
 11
7.897981
 21
4.062463
 31
0.0
210
0.0
220
0.0
230
1.0
  0
LINE
  5
1EA
100
AcDbEntity
  8
0
370
    35
390
0
 62
     7
 48
0.000021
100
AcDbLine
 10
7.897981
 20
4.062463
 30
0.0
 11
7.897192
 21
4.062205
 31
0.0
210
0.0
220
0.0
230
1.0
  0
LINE
  5
1EB
100
AcDbEntity
  8
0
370
    35
390
0
 62
     7
 48
0.000012
100
AcDbLine
 10
7.897192
 20
4.062205
 30
0.0
 11
7.896911
 21
4.062603
 31
0.0
210
0.0
220
0.0
230
1.0
  0
LINE
  5
1EC
100
AcDbEntity
  8
0
370
    35
390
0
 62
     7
 48
0.000013
100
AcDbLine
 10
7.896911
 20
4.062603
 30
0.0
 11
7.897233
 21
4.063032
 31
0.0
210
0.0
220
0.0
230
1.0
  0
LINE
  5
1ED
100
AcDbEntity
  8
0
370
    35
390
0
 62
     7
 48
0.000012
100
AcDbLine
 10
7.897233
 20
4.063032
 30
0.0
 11
7.897495
 21
4.063444
 31
0.0
210
0.0
220
0.0
230
1.0
  0
LINE
  5
1EE
100
AcDbEntity
  8
0
370
    35
390
0
 62
     7
 48
0.000011
100
AcDbLine
 10
7.897495
 20
4.063444
 30
0.0
 11
7.897696
 21
4.063836
 31
0.0
210
0.0
220
0.0
230
1.0
  0
LINE
  5
1EF
100
AcDbEntity
  8
0
370
    35
390
0
 62
     7
 48
0.00001
100
AcDbLine
 10
7.897696
 20
4.063836
 30
0.0
 11
7.897837
 21
4.06421
 31
0.0
210
0.0
220
0.0
230
1.0
  0
LINE
  5
1F0
100
AcDbEntity
  8
0
370
    35
390
0
 62
     7
 48
0.000009
100
AcDbLine
 10
7.897837
 20
4.06421
 30
0.0
 11
7.897918
 21
4.064565
 31
0.0
210
0.0
220
0.0
230
1.0
  0
LINE
  5
1F1
100
AcDbEntity
  8
0
370
    35
390
0
 62
     7
 48
0.000008
100
AcDbLine
 10
7.897918
 20
4.064565
 30
0.0
 11
7.897937
 21
4.064901
 31
0.0
210
0.0
220
0.0
230
1.0
  0
LINE
  5
1F2
100
AcDbEntity
  8
0
370
    35
390
0
 62
     7
 48
0.000008
100
AcDbLine
 10
7.897937
 20
4.064901
 30
0.0
 11
7.897898
 21
4.065218
 31
0.0
210
0.0
220
0.0
230
1.0
  0
LINE
  5
1F3
100
AcDbEntity
  8
0
370
    35
390
0
 62
     7
 48
0.000008
100
AcDbLine
 10
7.897898
 20
4.065218
 30
0.0
 11
7.897797
 21
4.065517
 31
0.0
210
0.0
220
0.0
230
1.0
  0
LINE
  5
1F4
100
AcDbEntity
  8
0
370
    35
390
0
 62
     7
 48
0.000008
100
AcDbLine
 10
7.897797
 20
4.065517
 30
0.0
 11
7.897636
 21
4.065797
 31
0.0
210
0.0
220
0.0
230
1.0
  0
LINE
  5
1F5
100
AcDbEntity
  8
0
370
    35
390
0
 62
     7
 48
0.000009
100
AcDbLine
 10
7.897636
 20
4.065797
 30
0.0
 11
7.897414
 21
4.066058
 31
0.0
210
0.0
220
0.0
230
1.0
  0
LINE
  5
1F6
100
AcDbEntity
  8
0
370
    35
390
0
 62
     7
 48
0.00001
100
AcDbLine
 10
7.897414
 20
4.066058
 30
0.0
 11
7.897125
 21
4.066308
 31
0.0
210
0.0
220
0.0
230
1.0
  0
LINE
  5
1F7
100
AcDbEntity
  8
0
370
    35
390
0
 62
     7
 48
0.000011
100
AcDbLine
 10
7.897125
 20
4.066308
 30
0.0
 11
7.89676
 21
4.066554
 31
0.0
210
0.0
220
0.0
230
1.0
  0
LINE
  5
1F8
100
AcDbEntity
  8
0
370
    35
390
0
 62
     7
 48
0.000013
100
AcDbLine
 10
7.89676
 20
4.066554
 30
0.0
 11
7.896319
 21
4.066797
 31
0.0
210
0.0
220
0.0
230
1.0
  0
LINE
  5
1F9
100
AcDbEntity
  8
0
370
    35
390
0
 62
     7
 48
0.000014
100
AcDbLine
 10
7.896319
 20
4.066797
 30
0.0
 11
7.895803
 21
4.067035
 31
0.0
210
0.0
220
0.0
230
1.0
  0
LINE
  5
1FA
100
AcDbEntity
  8
0
370
    35
390
0
 62
     7
 48
0.000016
100
AcDbLine
 10
7.895803
 20
4.067035
 30
0.0
 11
7.895211
 21
4.06727
 31
0.0
210
0.0
220
0.0
230
1.0
  0
LINE
  5
1FB
100
AcDbEntity
  8
0
370
    35
390
0
 62
     7
 48
0.000018
100
AcDbLine
 10
7.895211
 20
4.06727
 30
0.0
 11
7.894544
 21
4.067501
 31
0.0
210
0.0
220
0.0
230
1.0
  0
LINE
  5
1FC
100
AcDbEntity
  8
0
370
    35
390
0
 62
     7
 48
0.000019
100
AcDbLine
 10
7.894544
 20
4.067501
 30
0.0
 11
7.8938
 21
4.067728
 31
0.0
210
0.0
220
0.0
230
1.0
  0
LINE
  5
1FD
100
AcDbEntity
  8
0
370
    35
390
0
 62
     7
 48
0.000021
100
AcDbLine
 10
7.8938
 20
4.067728
 30
0.0
 11
7.892981
 21
4.067952
 31
0.0
210
0.0
220
0.0
230
1.0
  0
LINE
  5
1FE
100
AcDbEntity
  8
0
370
    35
390
0
 62
     7
 48
0.000023
100
AcDbLine
 10
7.892981
 20
4.067952
 30
0.0
 11
7.892087
 21
4.068172
 31
0.0
210
0.0
220
0.0
230
1.0
  0
LINE
  5
1FF
100
AcDbEntity
  8
0
370
    35
390
0
 62
     7
 48
0.000025
100
AcDbLine
 10
7.892087
 20
4.068172
 30
0.0
 11
7.891118
 21
4.068387
 31
0.0
210
0.0
220
0.0
230
1.0
  0
LINE
  5
200
100
AcDbEntity
  8
0
370
    35
390
0
 62
     7
 48
0.000021
100
AcDbLine
 10
7.891118
 20
4.068387
 30
0.0
 11
7.890289
 21
4.06856
 31
0.0
210
0.0
220
0.0
230
1.0
  0
LINE
  5
201
100
AcDbEntity
  8
0
370
    35
390
0
 62
     7
 48
0.000021
100
AcDbLine
 10
7.890289
 20
4.06856
 30
0.0
 11
7.889451
 21
4.068727
 31
0.0
210
0.0
220
0.0
230
1.0
  0
LINE
  5
202
100
AcDbEntity
  8
0
370
    35
390
0
 62
     7
 48
0.000022
100
AcDbLine
 10
7.889451
 20
4.068727
 30
0.0
 11
7.888605
 21
4.068888
 31
0.0
210
0.0
220
0.0
230
1.0
  0
LINE
  5
203
100
AcDbEntity
  8
0
370
    35
390
0
 62
     7
 48
0.000022
100
AcDbLine
 10
7.888605
 20
4.068888
 30
0.0
 11
7.88775
 21
4.069045
 31
0.0
210
0.0
220
0.0
230
1.0
  0
LINE
  5
204
100
AcDbEntity
  8
0
370
    35
390
0
 62
     7
 48
0.000022
100
AcDbLine
 10
7.88775
 20
4.069045
 30
0.0
 11
7.886886
 21
4.069195
 31
0.0
210
0.0
220
0.0
230
1.0
  0
LINE
  5
205
100
AcDbEntity
  8
0
370
    35
390
0
 62
     7
 48
0.000874
100
AcDbLine
 10
7.886886
 20
4.069195
 30
0.0
 11
7.856958
 21
4.051109
 31
0.0
210
0.0
220
0.0
230
1.0
  0
LINE
  5
206
100
AcDbEntity
  8
0
370
    35
390
0
 62
     7
 48
0.000096
100
AcDbLine
 10
7.856958
 20
4.051109
 30
0.0
 11
7.859409
 21
4.048131
 31
0.0
210
0.0
220
0.0
230
1.0
  0
LINE
  5
207
100
AcDbEntity
  8
0
370
    35
390
0
 62
     7
 48
0.000535
100
AcDbLine
 10
7.859409
 20
4.048131
 30
0.0
 11
7.838475
 21
4.052576
 31
0.0
210
0.0
220
0.0
230
1.0
  0
LINE
  5
208
100
AcDbEntity
  8
0
370
    35
390
0
 62
     7
 48
0.00024
100
AcDbLine
 10
7.838475
 20
4.052576
 30
0.0
 11
7.848059
 21
4.053179
 31
0.0
210
0.0
220
0.0
230
1.0
  0
LINE
  5
209
100
AcDbEntity
  8
0
370
    35
390
0
 62
     7
 48
0.000793
100
AcDbLine
 10
7.848059
 20
4.053179
 30
0.0
 11
7.875025
 21
4.069887
 31
0.0
210
0.0
220
0.0
230
1.0
  0
LINE
  5
20A
100
AcDbEntity
  8
0
370
    35
390
0
 62
     7
 48
0.000083
100
AcDbLine
 10
7.875025
 20
4.069887
 30
0.0
 11
7.871801
 21
4.070595
 31
0.0
210
0.0
220
0.0
230
1.0
  0
LINE
  5
20B
100
AcDbEntity
  8
0
370
    35
390
0
 62
     7
 48
0.000024
100
AcDbLine
 10
7.871801
 20
4.070595
 30
0.0
 11
7.870873
 21
4.070782
 31
0.0
210
0.0
220
0.0
230
1.0
  0
LINE
  5
20C
100
AcDbEntity
  8
0
370
    35
390
0
 62
     7
 48
0.000023
100
AcDbLine
 10
7.870873
 20
4.070782
 30
0.0
 11
7.869979
 21
4.070945
 31
0.0
210
0.0
220
0.0
230
1.0
  0
LINE
  5
20D
100
AcDbEntity
  8
0
370
    35
390
0
 62
     7
 48
0.000022
100
AcDbLine
 10
7.869979
 20
4.070945
 30
0.0
 11
7.869116
 21
4.071083
 31
0.0
210
0.0
220
0.0
230
1.0
  0
LINE
  5
20E
100
AcDbEntity
  8
0
370
    35
390
0
 62
     7
 48
0.000021
100
AcDbLine
 10
7.869116
 20
4.071083
 30
0.0
 11
7.868286
 21
4.071195
 31
0.0
210
0.0
220
0.0
230
1.0
  0
LINE
  5
20F
100
AcDbEntity
  8
0
370
    35
390
0
 62
     7
 48
0.00002
100
AcDbLine
 10
7.868286
 20
4.071195
 30
0.0
 11
7.867489
 21
4.071282
 31
0.0
210
0.0
220
0.0
230
1.0
  0
LINE
  5
210
100
AcDbEntity
  8
0
370
    35
390
0
 62
     7
 48
0.000019
100
AcDbLine
 10
7.867489
 20
4.071282
 30
0.0
 11
7.866725
 21
4.071344
 31
0.0
210
0.0
220
0.0
230
1.0
  0
LINE
  5
211
100
AcDbEntity
  8
0
370
    35
390
0
 62
     7
 48
0.000018
100
AcDbLine
 10
7.866725
 20
4.071344
 30
0.0
 11
7.865993
 21
4.07138
 31
0.0
210
0.0
220
0.0
230
1.0
  0
LINE
  5
212
100
AcDbEntity
  8
0
370
    35
390
0
 62
     7
 48
0.000034
100
AcDbLine
 10
7.865993
 20
4.07138
 30
0.0
 11
7.864627
 21
4.071378
 31
0.0
210
0.0
220
0.0
230
1.0
  0
LINE
  5
213
100
AcDbEntity
  8
0
370
    35
390
0
 62
     7
 48
0.000031
100
AcDbLine
 10
7.864627
 20
4.071378
 30
0.0
 11
7.863374
 21
4.071274
 31
0.0
210
0.0
220
0.0
230
1.0
  0
LINE
  5
214
100
AcDbEntity
  8
0
370
    35
390
0
 62
     7
 48
0.000031
100
AcDbLine
 10
7.863374
 20
4.071274
 30
0.0
 11
7.862134
 21
4.071061
 31
0.0
210
0.0
220
0.0
230
1.0
  0
LINE
  5
215
100
AcDbEntity
  8
0
370
    35
390
0
 62
     7
 48
0.000032
100
AcDbLine
 10
7.862134
 20
4.071061
 30
0.0
 11
7.860892
 21
4.070738
 31
0.0
210
0.0
220
0.0
230
1.0
  0
LINE
  5
216
100
AcDbEntity
  8
0
370
    35
390
0
 62
     7
 48
0.000016
100
AcDbLine
 10
7.860892
 20
4.070738
 30
0.0
 11
7.860269
 21
4.070535
 31
0.0
210
0.0
220
0.0
230
1.0
  0
LINE
  5
217
100
AcDbEntity
  8
0
370
    35
390
0
 62
     7
 48
0.000017
100
AcDbLine
 10
7.860269
 20
4.070535
 30
0.0
 11
7.859646
 21
4.070305
 31
0.0
210
0.0
220
0.0
230
1.0
  0
LINE
  5
218
100
AcDbEntity
  8
0
370
    35
390
0
 62
     7
 48
0.000017
100
AcDbLine
 10
7.859646
 20
4.070305
 30
0.0
 11
7.859022
 21
4.070046
 31
0.0
210
0.0
220
0.0
230
1.0
  0
LINE
  5
219
100
AcDbEntity
  8
0
370
    35
390
0
 62
     7
 48
0.000017
100
AcDbLine
 10
7.859022
 20
4.070046
 30
0.0
 11
7.858397
 21
4.069761
 31
0.0
210
0.0
220
0.0
230
1.0
  0
LINE
  5
21A
100
AcDbEntity
  8
0
370
    35
390
0
 62
     7
 48
0.000017
100
AcDbLine
 10
7.858397
 20
4.069761
 30
0.0
 11
7.857771
 21
4.069447
 31
0.0
210
0.0
220
0.0
230
1.0
  0
LINE
  5
21B
100
AcDbEntity
  8
0
370
    35
390
0
 62
     7
 48
0.00003
100
AcDbLine
 10
7.857771
 20
4.069447
 30
0.0
 11
7.85658
 21
4.0697
 31
0.0
210
0.0
220
0.0
230
1.0
  0
LINE
  5
21C
100
AcDbEntity
  8
0
370
    35
390
0
 62
     7
 48
0.00002
100
AcDbLine
 10
7.85658
 20
4.0697
 30
0.0
 11
7.857314
 21
4.070056
 31
0.0
210
0.0
220
0.0
230
1.0
  0
LINE
  5
21D
100
AcDbEntity
  8
0
370
    35
390
0
 62
     7
 48
0.00002
100
AcDbLine
 10
7.857314
 20
4.070056
 30
0.0
 11
7.858043
 21
4.070381
 31
0.0
210
0.0
220
0.0
230
1.0
  0
LINE
  5
21E
100
AcDbEntity
  8
0
370
    35
390
0
 62
     7
 48
0.00002
100
AcDbLine
 10
7.858043
 20
4.070381
 30
0.0
 11
7.85877
 21
4.070674
 31
0.0
210
0.0
220
0.0
230
1.0
  0
LINE
  5
21F
100
AcDbEntity
  8
0
370
    35
390
0
 62
     7
 48
0.000019
100
AcDbLine
 10
7.85877
 20
4.070674
 30
0.0
 11
7.859494
 21
4.070936
 31
0.0
210
0.0
220
0.0
230
1.0
  0
LINE
  5
220
100
AcDbEntity
  8
0
370
    35
390
0
 62
     7
 48
0.000019
100
AcDbLine
 10
7.859494
 20
4.070936
 30
0.0
 11
7.860215
 21
4.071167
 31
0.0
210
0.0
220
0.0
230
1.0
  0
LINE
  5
221
100
AcDbEntity
  8
0
370
    35
390
0
 62
     7
 48
0.000019
100
AcDbLine
 10
7.860215
 20
4.071167
 30
0.0
 11
7.860932
 21
4.071366
 31
0.0
210
0.0
220
0.0
230
1.0
  0
LINE
  5
222
100
AcDbEntity
  8
0
370
    35
390
0
 62
     7
 48
0.000018
100
AcDbLine
 10
7.860932
 20
4.071366
 30
0.0
 11
7.861646
 21
4.071533
 31
0.0
210
0.0
220
0.0
230
1.0
  0
LINE
  5
223
100
AcDbEntity
  8
0
370
    35
390
0
 62
     7
 48
0.000018
100
AcDbLine
 10
7.861646
 20
4.071533
 30
0.0
 11
7.862357
 21
4.07167
 31
0.0
210
0.0
220
0.0
230
1.0
  0
LINE
  5
224
100
AcDbEntity
  8
0
370
    35
390
0
 62
     7
 48
0.000018
100
AcDbLine
 10
7.862357
 20
4.07167
 30
0.0
 11
7.863064
 21
4.071775
 31
0.0
210
0.0
220
0.0
230
1.0
  0
LINE
  5
225
100
AcDbEntity
  8
0
370
    35
390
0
 62
     7
 48
0.000036
100
AcDbLine
 10
7.863064
 20
4.071775
 30
0.0
 11
7.864489
 21
4.071893
 31
0.0
210
0.0
220
0.0
230
1.0
  0
LINE
  5
226
100
AcDbEntity
  8
0
370
    35
390
0
 62
     7
 48
0.000019
100
AcDbLine
 10
7.864489
 20
4.071893
 30
0.0
 11
7.865243
 21
4.071909
 31
0.0
210
0.0
220
0.0
230
1.0
  0
LINE
  5
227
100
AcDbEntity
  8
0
370
    35
390
0
 62
     7
 48
0.00002
100
AcDbLine
 10
7.865243
 20
4.071909
 30
0.0
 11
7.866031
 21
4.071898
 31
0.0
210
0.0
220
0.0
230
1.0
  0
LINE
  5
228
100
AcDbEntity
  8
0
370
    35
390
0
 62
     7
 48
0.000021
100
AcDbLine
 10
7.866031
 20
4.071898
 30
0.0
 11
7.866853
 21
4.071858
 31
0.0
210
0.0
220
0.0
230
1.0
  0
LINE
  5
229
100
AcDbEntity
  8
0
370
    35
390
0
 62
     7
 48
0.000021
100
AcDbLine
 10
7.866853
 20
4.071858
 30
0.0
 11
7.86771
 21
4.07179
 31
0.0
210
0.0
220
0.0
230
1.0
  0
LINE
  5
22A
100
AcDbEntity
  8
0
370
    35
390
0
 62
     7
 48
0.000022
100
AcDbLine
 10
7.86771
 20
4.07179
 30
0.0
 11
7.868601
 21
4.071695
 31
0.0
210
0.0
220
0.0
230
1.0
  0
LINE
  5
22B
100
AcDbEntity
  8
0
370
    35
390
0
 62
     7
 48
0.000023
100
AcDbLine
 10
7.868601
 20
4.071695
 30
0.0
 11
7.869526
 21
4.071571
 31
0.0
210
0.0
220
0.0
230
1.0
  0
LINE
  5
22C
100
AcDbEntity
  8
0
370
    35
390
0
 62
     7
 48
0.000024
100
AcDbLine
 10
7.869526
 20
4.071571
 30
0.0
 11
7.870485
 21
4.071419
 31
0.0
210
0.0
220
0.0
230
1.0
  0
LINE
  5
22D
100
AcDbEntity
  8
0
370
    35
390
0
 62
     7
 48
0.000025
100
AcDbLine
 10
7.870485
 20
4.071419
 30
0.0
 11
7.871478
 21
4.071239
 31
0.0
210
0.0
220
0.0
230
1.0
  0
LINE
  5
22E
100
AcDbEntity
  8
0
370
    35
390
0
 62
     7
 48
0.000026
100
AcDbLine
 10
7.871478
 20
4.071239
 30
0.0
 11
7.872505
 21
4.071031
 31
0.0
210
0.0
220
0.0
230
1.0
  0
LINE
  5
22F
100
AcDbEntity
  8
0
370
    35
390
0
 62
     7
 48
0.00007
100
AcDbLine
 10
7.872505
 20
4.071031
 30
0.0
 11
7.875226
 21
4.070431
 31
0.0
210
0.0
220
0.0
230
1.0
  0
LINE
  5
230
100
AcDbEntity
  8
0
370
    35
390
0
 62
     7
 48
0.000049
100
AcDbLine
 10
7.875226
 20
4.070431
 30
0.0
 11
7.877058
 21
4.071147
 31
0.0
210
0.0
220
0.0
230
1.0
  0
LINE
  5
231
100
AcDbEntity
  8
0
370
    35
390
0
 62
     7
 48
0.000022
100
AcDbLine
 10
7.877058
 20
4.071147
 30
0.0
 11
7.876192
 21
4.07138
 31
0.0
210
0.0
220
0.0
230
1.0
  0
LINE
  5
232
100
AcDbEntity
  8
0
370
    35
390
0
 62
     7
 48
0.000022
100
AcDbLine
 10
7.876192
 20
4.07138
 30
0.0
 11
7.87533
 21
4.0716
 31
0.0
210
0.0
220
0.0
230
1.0
  0
LINE
  5
233
100
AcDbEntity
  8
0
370
    35
390
0
 62
     7
 48
0.000022
100
AcDbLine
 10
7.87533
 20
4.0716
 30
0.0
 11
7.874474
 21
4.071809
 31
0.0
210
0.0
220
0.0
230
1.0
  0
LINE
  5
234
100
AcDbEntity
  8
0
370
    35
390
0
 62
     7
 48
0.000022
100
AcDbLine
 10
7.874474
 20
4.071809
 30
0.0
 11
7.873623
 21
4.072006
 31
0.0
210
0.0
220
0.0
230
1.0
  0
LINE
  5
235
100
AcDbEntity
  8
0
370
    35
390
0
 62
     7
 48
0.000022
100
AcDbLine
 10
7.873623
 20
4.072006
 30
0.0
 11
7.872777
 21
4.072191
 31
0.0
210
0.0
220
0.0
230
1.0
  0
LINE
  5
236
100
AcDbEntity
  8
0
370
    35
390
0
 62
     7
 48
0.00003
100
AcDbLine
 10
7.872777
 20
4.072191
 30
0.0
 11
7.871615
 21
4.072426
 31
0.0
210
0.0
220
0.0
230
1.0
  0
LINE
  5
237
100
AcDbEntity
  8
0
370
    35
390
0
 62
     7
 48
0.000029
100
AcDbLine
 10
7.871615
 20
4.072426
 30
0.0
 11
7.870489
 21
4.07263
 31
0.0
210
0.0
220
0.0
230
1.0
  0
LINE
  5
238
100
AcDbEntity
  8
0
370
    35
390
0
 62
     7
 48
0.000028
100
AcDbLine
 10
7.870489
 20
4.07263
 30
0.0
 11
7.869401
 21
4.072801
 31
0.0
210
0.0
220
0.0
230
1.0
  0
LINE
  5
239
100
AcDbEntity
  8
0
370
    35
390
0
 62
     7
 48
0.000027
100
AcDbLine
 10
7.869401
 20
4.072801
 30
0.0
 11
7.86835
 21
4.072942
 31
0.0
210
0.0
220
0.0
230
1.0
  0
LINE
  5
23A
100
AcDbEntity
  8
0
370
    35
390
0
 62
     7
 48
0.000025
100
AcDbLine
 10
7.86835
 20
4.072942
 30
0.0
 11
7.867337
 21
4.07305
 31
0.0
210
0.0
220
0.0
230
1.0
  0
LINE
  5
23B
100
AcDbEntity
  8
0
370
    35
390
0
 62
     7
 48
0.000024
100
AcDbLine
 10
7.867337
 20
4.07305
 30
0.0
 11
7.866362
 21
4.073127
 31
0.0
210
0.0
220
0.0
230
1.0
  0
LINE
  5
23C
100
AcDbEntity
  8
0
370
    35
390
0
 62
     7
 48
0.000023
100
AcDbLine
 10
7.866362
 20
4.073127
 30
0.0
 11
7.865424
 21
4.073172
 31
0.0
210
0.0
220
0.0
230
1.0
  0
LINE
  5
23D
100
AcDbEntity
  8
0
370
    35
390
0
 62
     7
 48
0.000023
100
AcDbLine
 10
7.865424
 20
4.073172
 30
0.0
 11
7.864523
 21
4.073186
 31
0.0
210
0.0
220
0.0
230
1.0
  0
LINE
  5
23E
100
AcDbEntity
  8
0
370
    35
390
0
 62
     7
 48
0.000022
100
AcDbLine
 10
7.864523
 20
4.073186
 30
0.0
 11
7.86366
 21
4.073168
 31
0.0
210
0.0
220
0.0
230
1.0
  0
LINE
  5
23F
100
AcDbEntity
  8
0
370
    35
390
0
 62
     7
 48
0.000021
100
AcDbLine
 10
7.86366
 20
4.073168
 30
0.0
 11
7.862835
 21
4.073119
 31
0.0
210
0.0
220
0.0
230
1.0
  0
LINE
  5
240
100
AcDbEntity
  8
0
370
    35
390
0
 62
     7
 48
0.00002
100
AcDbLine
 10
7.862835
 20
4.073119
 30
0.0
 11
7.862031
 21
4.073036
 31
0.0
210
0.0
220
0.0
230
1.0
  0
LINE
  5
241
100
AcDbEntity
  8
0
370
    35
390
0
 62
     7
 48
0.00002
100
AcDbLine
 10
7.862031
 20
4.073036
 30
0.0
 11
7.861236
 21
4.072919
 31
0.0
210
0.0
220
0.0
230
1.0
  0
LINE
  5
242
100
AcDbEntity
  8
0
370
    35
390
0
 62
     7
 48
0.00002
100
AcDbLine
 10
7.861236
 20
4.072919
 30
0.0
 11
7.860448
 21
4.072768
 31
0.0
210
0.0
220
0.0
230
1.0
  0
LINE
  5
243
100
AcDbEntity
  8
0
370
    35
390
0
 62
     7
 48
0.00002
100
AcDbLine
 10
7.860448
 20
4.072768
 30
0.0
 11
7.859667
 21
4.072582
 31
0.0
210
0.0
220
0.0
230
1.0
  0
LINE
  5
244
100
AcDbEntity
  8
0
370
    35
390
0
 62
     7
 48
0.00002
100
AcDbLine
 10
7.859667
 20
4.072582
 30
0.0
 11
7.858894
 21
4.072363
 31
0.0
210
0.0
220
0.0
230
1.0
  0
LINE
  5
245
100
AcDbEntity
  8
0
370
    35
390
0
 62
     7
 48
0.00002
100
AcDbLine
 10
7.858894
 20
4.072363
 30
0.0
 11
7.858128
 21
4.072109
 31
0.0
210
0.0
220
0.0
230
1.0
  0
LINE
  5
246
100
AcDbEntity
  8
0
370
    35
390
0
 62
     7
 48
0.00002
100
AcDbLine
 10
7.858128
 20
4.072109
 30
0.0
 11
7.857369
 21
4.071821
 31
0.0
210
0.0
220
0.0
230
1.0
  0
LINE
  5
247
100
AcDbEntity
  8
0
370
    35
390
0
 62
     7
 48
0.00002
100
AcDbLine
 10
7.857369
 20
4.071821
 30
0.0
 11
7.856618
 21
4.071498
 31
0.0
210
0.0
220
0.0
230
1.0
  0
LINE
  5
248
100
AcDbEntity
  8
0
370
    35
390
0
 62
     7
 48
0.000021
100
AcDbLine
 10
7.856618
 20
4.071498
 30
0.0
 11
7.855874
 21
4.071142
 31
0.0
210
0.0
220
0.0
230
1.0
  0
LINE
  5
249
100
AcDbEntity
  8
0
370
    35
390
0
 62
     7
 48
0.000021
100
AcDbLine
 10
7.855874
 20
4.071142
 30
0.0
 11
7.855138
 21
4.070751
 31
0.0
210
0.0
220
0.0
230
1.0
  0
LINE
  5
24A
100
AcDbEntity
  8
0
370
    35
390
0
 62
     7
 48
0.000018
100
AcDbLine
 10
7.855138
 20
4.070751
 30
0.0
 11
7.854935
 21
4.071428
 31
0.0
210
0.0
220
0.0
230
1.0
  0
LINE
  5
24B
100
AcDbEntity
  8
0
370
    35
390
0
 62
     7
 48
0.000017
100
AcDbLine
 10
7.854935
 20
4.071428
 30
0.0
 11
7.855256
 21
4.072008
 31
0.0
210
0.0
220
0.0
230
1.0
  0
LINE
  5
24C
100
AcDbEntity
  8
0
370
    35
390
0
 62
     7
 48
0.000017
100
AcDbLine
 10
7.855256
 20
4.072008
 30
0.0
 11
7.855551
 21
4.072608
 31
0.0
210
0.0
220
0.0
230
1.0
  0
LINE
  5
24D
100
AcDbEntity
  8
0
370
    35
390
0
 62
     7
 48
0.000017
100
AcDbLine
 10
7.855551
 20
4.072608
 30
0.0
 11
7.855821
 21
4.073228
 31
0.0
210
0.0
220
0.0
230
1.0
  0
LINE
  5
24E
100
AcDbEntity
  8
0
370
    35
390
0
 62
     7
 48
0.000017
100
AcDbLine
 10
7.855821
 20
4.073228
 30
0.0
 11
7.856065
 21
4.073868
 31
0.0
210
0.0
220
0.0
230
1.0
  0
LINE
  5
24F
100
AcDbEntity
  8
0
370
    35
390
0
 62
     7
 48
0.000017
100
AcDbLine
 10
7.856065
 20
4.073868
 30
0.0
 11
7.856283
 21
4.074528
 31
0.0
210
0.0
220
0.0
230
1.0
  0
LINE
  5
250
100
AcDbEntity
  8
0
370
    35
390
0
 62
     7
 48
0.000018
100
AcDbLine
 10
7.856283
 20
4.074528
 30
0.0
 11
7.856475
 21
4.075208
 31
0.0
210
0.0
220
0.0
230
1.0
  0
LINE
  5
251
100
AcDbEntity
  8
0
370
    35
390
0
 62
     7
 48
0.000018
100
AcDbLine
 10
7.856475
 20
4.075208
 30
0.0
 11
7.856641
 21
4.075908
 31
0.0
210
0.0
220
0.0
230
1.0
  0
LINE
  5
252
100
AcDbEntity
  8
0
370
    35
390
0
 62
     7
 48
0.000018
100
AcDbLine
 10
7.856641
 20
4.075908
 30
0.0
 11
7.856782
 21
4.076627
 31
0.0
210
0.0
220
0.0
230
1.0
  0
LINE
  5
253
100
AcDbEntity
  8
0
370
    35
390
0
 62
     7
 48
0.000019
100
AcDbLine
 10
7.856782
 20
4.076627
 30
0.0
 11
7.856897
 21
4.077366
 31
0.0
210
0.0
220
0.0
230
1.0
  0
LINE
  5
254
100
AcDbEntity
  8
0
370
    35
390
0
 62
     7
 48
0.001408
100
AcDbLine
 10
7.856897
 20
4.077366
 30
0.0
 11
7.912046
 21
4.065883
 31
0.0
210
0.0
220
0.0
230
1.0
  0
LINE
  5
255
100
AcDbEntity
  8
0
370
    35
390
0
 62
     7
 48
0.000019
100
AcDbLine
 10
7.912046
 20
4.065883
 30
0.0
 11
7.911316
 21
4.065716
 31
0.0
210
0.0
220
0.0
230
1.0
  0
LINE
  5
256
100
AcDbEntity
  8
0
370
    35
390
0
 62
     7
 48
0.000031
100
AcDbLine
 10
7.91208
 20
4.064032
 30
0.0
 11
7.910867
 21
4.063814
 31
0.0
210
0.0
220
0.0
230
1.0
  0
LINE
  5
257
100
AcDbEntity
  8
0
370
    35
390
0
 62
     7
 48
0.000033
100
AcDbLine
 10
7.910867
 20
4.063814
 30
0.0
 11
7.909585
 21
4.063559
 31
0.0
210
0.0
220
0.0
230
1.0
  0
LINE
  5
258
100
AcDbEntity
  8
0
370
    35
390
0
 62
     7
 48
0.000035
100
AcDbLine
 10
7.909585
 20
4.063559
 30
0.0
 11
7.908233
 21
4.063266
 31
0.0
210
0.0
220
0.0
230
1.0
  0
LINE
  5
259
100
AcDbEntity
  8
0
370
    35
390
0
 62
     7
 48
0.000036
100
AcDbLine
 10
7.908233
 20
4.063266
 30
0.0
 11
7.906812
 21
4.062935
 31
0.0
210
0.0
220
0.0
230
1.0
  0
LINE
  5
25A
100
AcDbEntity
  8
0
370
    35
390
0
 62
     7
 48
0.000038
100
AcDbLine
 10
7.906812
 20
4.062935
 30
0.0
 11
7.905322
 21
4.062567
 31
0.0
210
0.0
220
0.0
230
1.0
  0
LINE
  5
25B
100
AcDbEntity
  8
0
370
    35
390
0
 62
     7
 48
0.00004
100
AcDbLine
 10
7.905322
 20
4.062567
 30
0.0
 11
7.903762
 21
4.062162
 31
0.0
210
0.0
220
0.0
230
1.0
  0
LINE
  5
25C
100
AcDbEntity
  8
0
370
    35
390
0
 62
     7
 48
0.000042
100
AcDbLine
 10
7.903762
 20
4.062162
 30
0.0
 11
7.902134
 21
4.061718
 31
0.0
210
0.0
220
0.0
230
1.0
  0
LINE
  5
25D
100
AcDbEntity
  8
0
370
    35
390
0
 62
     7
 48
0.000044
100
AcDbLine
 10
7.902134
 20
4.061718
 30
0.0
 11
7.900436
 21
4.061237
 31
0.0
210
0.0
220
0.0
230
1.0
  0
LINE
  5
25E
100
AcDbEntity
  8
0
370
    35
390
0
 62
     7
 48
0.000046
100
AcDbLine
 10
7.900436
 20
4.061237
 30
0.0
 11
7.898668
 21
4.060719
 31
0.0
210
0.0
220
0.0
230
1.0
  0
LINE
  5
25F
100
AcDbEntity
  8
0
370
    35
390
0
 62
     7
 48
0.000026
100
AcDbLine
 10
7.898668
 20
4.060719
 30
0.0
 11
7.897721
 21
4.061123
 31
0.0
210
0.0
220
0.0
230
1.0
  0
LINE
  5
260
100
AcDbEntity
  8
0
370
    35
390
0
 62
     7
 48
0.000056
100
AcDbLine
 10
7.897721
 20
4.061123
 30
0.0
 11
7.899866
 21
4.061775
 31
0.0
210
0.0
220
0.0
230
1.0
  0
LINE
  5
261
100
AcDbEntity
  8
0
370
    35
390
0
 62
     7
 48
0.000044
100
AcDbLine
 10
7.899866
 20
4.061775
 30
0.0
 11
7.901557
 21
4.062265
 31
0.0
210
0.0
220
0.0
230
1.0
  0
LINE
  5
262
100
AcDbEntity
  8
0
370
    35
390
0
 62
     7
 48
0.000042
100
AcDbLine
 10
7.901557
 20
4.062265
 30
0.0
 11
7.903175
 21
4.062713
 31
0.0
210
0.0
220
0.0
230
1.0
  0
LINE
  5
263
100
AcDbEntity
  8
0
370
    35
390
0
 62
     7
 48
0.00004
100
AcDbLine
 10
7.903175
 20
4.062713
 30
0.0
 11
7.90472
 21
4.063119
 31
0.0
210
0.0
220
0.0
230
1.0
  0
LINE
  5
264
100
AcDbEntity
  8
0
370
    35
390
0
 62
     7
 48
0.000038
100
AcDbLine
 10
7.90472
 20
4.063119
 30
0.0
 11
7.906192
 21
4.063485
 31
0.0
210
0.0
220
0.0
230
1.0
  0
LINE
  5
265
100
AcDbEntity
  8
0
370
    35
390
0
 62
     7
 48
0.000036
100
AcDbLine
 10
7.906192
 20
4.063485
 30
0.0
 11
7.907591
 21
4.063808
 31
0.0
210
0.0
220
0.0
230
1.0
  0
LINE
  5
266
100
AcDbEntity
  8
0
370
    35
390
0
 62
     7
 48
0.000034
100
AcDbLine
 10
7.907591
 20
4.063808
 30
0.0
 11
7.908917
 21
4.064091
 31
0.0
210
0.0
220
0.0
230
1.0
  0
LINE
  5
267
100
AcDbEntity
  8
0
370
    35
390
0
 62
     7
 48
0.000032
100
AcDbLine
 10
7.908917
 20
4.064091
 30
0.0
 11
7.91017
 21
4.064332
 31
0.0
210
0.0
220
0.0
230
1.0
  0
LINE
  5
268
100
AcDbEntity
  8
0
370
    35
390
0
 62
     7
 48
0.00003
100
AcDbLine
 10
7.91017
 20
4.064332
 30
0.0
 11
7.911351
 21
4.064532
 31
0.0
210
0.0
220
0.0
230
1.0
  0
LINE
  5
269
100
AcDbEntity
  8
0
370
    35
390
0
 62
     7
 48
0.000028
100
AcDbLine
 10
7.911351
 20
4.064532
 30
0.0
 11
7.912459
 21
4.06469
 31
0.0
210
0.0
220
0.0
230
1.0
  0
LINE
  5
26A
100
AcDbEntity
  8
0
370
    35
390
0
 62
     7
 48
0.000023
100
AcDbLine
 10
7.912459
 20
4.06469
 30
0.0
 11
7.913224
 21
4.064212
 31
0.0
210
0.0
220
0.0
230
1.0
  0
LINE
  5
26B
100
AcDbEntity
  8
0
370
    35
390
0
 62
     7
 48
0.000029
100
AcDbLine
 10
7.913224
 20
4.064212
 30
0.0
 11
7.91208
 21
4.064032
 31
0.0
210
0.0
220
0.0
230
1.0
  0
LINE
  5
26C
100
AcDbEntity
  8
0
370
    35
390
0
 62
     7
 48
0.000015
100
AcDbLine
 10
7.896306
 20
4.064501
 30
0.0
 11
7.895795
 21
4.064801
 31
0.0
210
0.0
220
0.0
230
1.0
  0
LINE
  5
26D
100
AcDbEntity
  8
0
370
    35
390
0
 62
     7
 48
0.000016
100
AcDbLine
 10
7.895795
 20
4.064801
 30
0.0
 11
7.895233
 21
4.06509
 31
0.0
210
0.0
220
0.0
230
1.0
  0
LINE
  5
26E
100
AcDbEntity
  8
0
370
    35
390
0
 62
     7
 48
0.000017
100
AcDbLine
 10
7.895233
 20
4.06509
 30
0.0
 11
7.894621
 21
4.065366
 31
0.0
210
0.0
220
0.0
230
1.0
  0
LINE
  5
26F
100
AcDbEntity
  8
0
370
    35
390
0
 62
     7
 48
0.000018
100
AcDbLine
 10
7.894621
 20
4.065366
 30
0.0
 11
7.893957
 21
4.065631
 31
0.0
210
0.0
220
0.0
230
1.0
  0
LINE
  5
270
100
AcDbEntity
  8
0
370
    35
390
0
 62
     7
 48
0.000019
100
AcDbLine
 10
7.893957
 20
4.065631
 30
0.0
 11
7.893243
 21
4.065884
 31
0.0
210
0.0
220
0.0
230
1.0
  0
LINE
  5
271
100
AcDbEntity
  8
0
370
    35
390
0
 62
     7
 48
0.00002
100
AcDbLine
 10
7.893243
 20
4.065884
 30
0.0
 11
7.892477
 21
4.066126
 31
0.0
210
0.0
220
0.0
230
1.0
  0
LINE
  5
272
100
AcDbEntity
  8
0
370
    35
390
0
 62
     7
 48
0.000021
100
AcDbLine
 10
7.892477
 20
4.066126
 30
0.0
 11
7.891661
 21
4.066355
 31
0.0
210
0.0
220
0.0
230
1.0
  0
LINE
  5
273
100
AcDbEntity
  8
0
370
    35
390
0
 62
     7
 48
0.000022
100
AcDbLine
 10
7.891661
 20
4.066355
 30
0.0
 11
7.890794
 21
4.066573
 31
0.0
210
0.0
220
0.0
230
1.0
  0
LINE
  5
274
100
AcDbEntity
  8
0
370
    35
390
0
 62
     7
 48
0.000024
100
AcDbLine
 10
7.890794
 20
4.066573
 30
0.0
 11
7.889876
 21
4.06678
 31
0.0
210
0.0
220
0.0
230
1.0
  0
LINE
  5
275
100
AcDbEntity
  8
0
370
    35
390
0
 62
     7
 48
0.000017
100
AcDbLine
 10
7.889876
 20
4.06678
 30
0.0
 11
7.889228
 21
4.066911
 31
0.0
210
0.0
220
0.0
230
1.0
  0
LINE
  5
276
100
AcDbEntity
  8
0
370
    35
390
0
 62
     7
 48
0.000017
100
AcDbLine
 10
7.889228
 20
4.066911
 30
0.0
 11
7.888549
 21
4.067037
 31
0.0
210
0.0
220
0.0
230
1.0
  0
LINE
  5
277
100
AcDbEntity
  8
0
370
    35
390
0
 62
     7
 48
0.000018
100
AcDbLine
 10
7.888549
 20
4.067037
 30
0.0
 11
7.887839
 21
4.067157
 31
0.0
210
0.0
220
0.0
230
1.0
  0
LINE
  5
278
100
AcDbEntity
  8
0
370
    35
390
0
 62
     7
 48
0.000802
100
AcDbLine
 10
7.887839
 20
4.067157
 30
0.0
 11
7.860541
 21
4.05028
 31
0.0
210
0.0
220
0.0
230
1.0
  0
LINE
  5
279
100
AcDbEntity
  8
0
370
    35
390
0
 62
     7
 48
0.00013
100
AcDbLine
 10
7.860541
 20
4.05028
 30
0.0
 11
7.862729
 21
4.045577
 31
0.0
210
0.0
220
0.0
230
1.0
  0
LINE
  5
27A
100
AcDbEntity
  8
0
370
    35
390
0
 62
     7
 48
0.000598
100
AcDbLine
 10
7.862729
 20
4.045577
 30
0.0
 11
7.839322
 21
4.050547
 31
0.0
210
0.0
220
0.0
230
1.0
  0
LINE
  5
27B
100
AcDbEntity
  8
0
370
    35
390
0
 62
     7
 48
0.000019
100
AcDbLine
 10
7.839322
 20
4.050547
 30
0.0
 11
7.839
 21
4.051224
 31
0.0
210
0.0
220
0.0
230
1.0
  0
LINE
  5
27C
100
AcDbEntity
  8
0
370
    35
390
0
 62
     7
 48
0.000561
100
AcDbLine
 10
7.839
 20
4.051224
 30
0.0
 11
7.860941
 21
4.046565
 31
0.0
210
0.0
220
0.0
230
1.0
  0
LINE
  5
27D
100
AcDbEntity
  8
0
370
    35
390
0
 62
     7
 48
0.000109
100
AcDbLine
 10
7.860941
 20
4.046565
 30
0.0
 11
7.85895
 21
4.050438
 31
0.0
210
0.0
220
0.0
230
1.0
  0
LINE
  5
27E
100
AcDbEntity
  8
0
370
    35
390
0
 62
     7
 48
0.000831
100
AcDbLine
 10
7.85895
 20
4.050438
 30
0.0
 11
7.887191
 21
4.067936
 31
0.0
210
0.0
220
0.0
230
1.0
  0
LINE
  5
27F
100
AcDbEntity
  8
0
370
    35
390
0
 62
     7
 48
0.000064
100
AcDbLine
 10
7.887191
 20
4.067936
 30
0.0
 11
7.889692
 21
4.067428
 31
0.0
210
0.0
220
0.0
230
1.0
  0
LINE
  5
280
100
AcDbEntity
  8
0
370
    35
390
0
 62
     7
 48
0.000022
100
AcDbLine
 10
7.889692
 20
4.067428
 30
0.0
 11
7.89055
 21
4.067242
 31
0.0
210
0.0
220
0.0
230
1.0
  0
LINE
  5
281
100
AcDbEntity
  8
0
370
    35
390
0
 62
     7
 48
0.00002
100
AcDbLine
 10
7.89055
 20
4.067242
 30
0.0
 11
7.891349
 21
4.067062
 31
0.0
210
0.0
220
0.0
230
1.0
  0
LINE
  5
282
100
AcDbEntity
  8
0
370
    35
390
0
 62
     7
 48
0.000019
100
AcDbLine
 10
7.891349
 20
4.067062
 30
0.0
 11
7.892087
 21
4.066887
 31
0.0
210
0.0
220
0.0
230
1.0
  0
LINE
  5
283
100
AcDbEntity
  8
0
370
    35
390
0
 62
     7
 48
0.000017
100
AcDbLine
 10
7.892087
 20
4.066887
 30
0.0
 11
7.892764
 21
4.066719
 31
0.0
210
0.0
220
0.0
230
1.0
  0
LINE
  5
284
100
AcDbEntity
  8
0
370
    35
390
0
 62
     7
 48
0.000016
100
AcDbLine
 10
7.892764
 20
4.066719
 30
0.0
 11
7.893383
 21
4.066556
 31
0.0
210
0.0
220
0.0
230
1.0
  0
LINE
  5
285
100
AcDbEntity
  8
0
370
    35
390
0
 62
     7
 48
0.000027
100
AcDbLine
 10
7.893383
 20
4.066556
 30
0.0
 11
7.894438
 21
4.066248
 31
0.0
210
0.0
220
0.0
230
1.0
  0
LINE
  5
286
100
AcDbEntity
  8
0
370
    35
390
0
 62
     7
 48
0.000022
100
AcDbLine
 10
7.894438
 20
4.066248
 30
0.0
 11
7.895253
 21
4.065963
 31
0.0
210
0.0
220
0.0
230
1.0
  0
LINE
  5
287
100
AcDbEntity
  8
0
370
    35
390
0
 62
     7
 48
0.000016
100
AcDbLine
 10
7.895253
 20
4.065963
 30
0.0
 11
7.89584
 21
4.065696
 31
0.0
210
0.0
220
0.0
230
1.0
  0
LINE
  5
288
100
AcDbEntity
  8
0
370
    35
390
0
 62
     7
 48
0.000013
100
AcDbLine
 10
7.89584
 20
4.065696
 30
0.0
 11
7.89628
 21
4.065407
 31
0.0
210
0.0
220
0.0
230
1.0
  0
LINE
  5
289
100
AcDbEntity
  8
0
370
    35
390
0
 62
     7
 48
0.000011
100
AcDbLine
 10
7.89628
 20
4.065407
 30
0.0
 11
7.896586
 21
4.065093
 31
0.0
210
0.0
220
0.0
230
1.0
  0
LINE
  5
28A
100
AcDbEntity
  8
0
370
    35
390
0
 62
     7
 48
0.00001
100
AcDbLine
 10
7.896586
 20
4.065093
 30
0.0
 11
7.896759
 21
4.064751
 31
0.0
210
0.0
220
0.0
230
1.0
  0
LINE
  5
28B
100
AcDbEntity
  8
0
370
    35
390
0
 62
     7
 48
0.000009
100
AcDbLine
 10
7.896759
 20
4.064751
 30
0.0
 11
7.896797
 21
4.064383
 31
0.0
210
0.0
220
0.0
230
1.0
  0
LINE
  5
28C
100
AcDbEntity
  8
0
370
    35
390
0
 62
     7
 48
0.000005
100
AcDbLine
 10
7.896797
 20
4.064383
 30
0.0
 11
7.896766
 21
4.064189
 31
0.0
210
0.0
220
0.0
230
1.0
  0
LINE
  5
28D
100
AcDbEntity
  8
0
370
    35
390
0
 62
     7
 48
0.000014
100
AcDbLine
 10
7.896766
 20
4.064189
 30
0.0
 11
7.896306
 21
4.064501
 31
0.0
210
0.0
220
0.0
230
1.0
  0
LINE
  5
28E
100
AcDbEntity
  8
0
370
    35
390
0
 62
     7
 48
0.000025
100
AcDbLine
 10
7.963808
 20
4.054893
 30
0.0
 11
7.962821
 21
4.05474
 31
0.0
210
0.0
220
0.0
230
1.0
  0
LINE
  5
28F
100
AcDbEntity
  8
0
370
    35
390
0
 62
     7
 48
0.000024
100
AcDbLine
 10
7.962821
 20
4.05474
 30
0.0
 11
7.961886
 21
4.054592
 31
0.0
210
0.0
220
0.0
230
1.0
  0
LINE
  5
290
100
AcDbEntity
  8
0
370
    35
390
0
 62
     7
 48
0.000022
100
AcDbLine
 10
7.961886
 20
4.054592
 30
0.0
 11
7.961002
 21
4.05445
 31
0.0
210
0.0
220
0.0
230
1.0
  0
LINE
  5
291
100
AcDbEntity
  8
0
370
    35
390
0
 62
     7
 48
0.000021
100
AcDbLine
 10
7.961002
 20
4.05445
 30
0.0
 11
7.96017
 21
4.054312
 31
0.0
210
0.0
220
0.0
230
1.0
  0
LINE
  5
292
100
AcDbEntity
  8
0
370
    35
390
0
 62
     7
 48
0.00002
100
AcDbLine
 10
7.96017
 20
4.054312
 30
0.0
 11
7.959389
 21
4.054179
 31
0.0
210
0.0
220
0.0
230
1.0
  0
LINE
  5
293
100
AcDbEntity
  8
0
370
    35
390
0
 62
     7
 48
0.000019
100
AcDbLine
 10
7.959389
 20
4.054179
 30
0.0
 11
7.95866
 21
4.054051
 31
0.0
210
0.0
220
0.0
230
1.0
  0
LINE
  5
294
100
AcDbEntity
  8
0
370
    35
390
0
 62
     7
 48
0.000017
100
AcDbLine
 10
7.95866
 20
4.054051
 30
0.0
 11
7.957982
 21
4.053928
 31
0.0
210
0.0
220
0.0
230
1.0
  0
LINE
  5
295
100
AcDbEntity
  8
0
370
    35
390
0
 62
     7
 48
0.000031
100
AcDbLine
 10
7.957982
 20
4.053928
 30
0.0
 11
7.956781
 21
4.053696
 31
0.0
210
0.0
220
0.0
230
1.0
  0
LINE
  5
296
100
AcDbEntity
  8
0
370
    35
390
0
 62
     7
 48
0.000027
100
AcDbLine
 10
7.956781
 20
4.053696
 30
0.0
 11
7.955738
 21
4.053472
 31
0.0
210
0.0
220
0.0
230
1.0
  0
LINE
  5
297
100
AcDbEntity
  8
0
370
    35
390
0
 62
     7
 48
0.00003
100
AcDbLine
 10
7.955738
 20
4.053472
 30
0.0
 11
7.954567
 21
4.053195
 31
0.0
210
0.0
220
0.0
230
1.0
  0
LINE
  5
298
100
AcDbEntity
  8
0
370
    35
390
0
 62
     7
 48
0.000017
100
AcDbLine
 10
7.954567
 20
4.053195
 30
0.0
 11
7.953915
 21
4.053031
 31
0.0
210
0.0
220
0.0
230
1.0
  0
LINE
  5
299
100
AcDbEntity
  8
0
370
    35
390
0
 62
     7
 48
0.000018
100
AcDbLine
 10
7.953915
 20
4.053031
 30
0.0
 11
7.953218
 21
4.052851
 31
0.0
210
0.0
220
0.0
230
1.0
  0
LINE
  5
29A
100
AcDbEntity
  8
0
370
    35
390
0
 62
     7
 48
0.000019
100
AcDbLine
 10
7.953218
 20
4.052851
 30
0.0
 11
7.952477
 21
4.052655
 31
0.0
210
0.0
220
0.0
230
1.0
  0
LINE
  5
29B
100
AcDbEntity
  8
0
370
    35
390
0
 62
     7
 48
0.00002
100
AcDbLine
 10
7.952477
 20
4.052655
 30
0.0
 11
7.951693
 21
4.052443
 31
0.0
210
0.0
220
0.0
230
1.0
  0
LINE
  5
29C
100
AcDbEntity
  8
0
370
    35
390
0
 62
     7
 48
0.000021
100
AcDbLine
 10
7.951693
 20
4.052443
 30
0.0
 11
7.950864
 21
4.052214
 31
0.0
210
0.0
220
0.0
230
1.0
  0
LINE
  5
29D
100
AcDbEntity
  8
0
370
    35
390
0
 62
     7
 48
0.000023
100
AcDbLine
 10
7.950864
 20
4.052214
 30
0.0
 11
7.949991
 21
4.051969
 31
0.0
210
0.0
220
0.0
230
1.0
  0
LINE
  5
29E
100
AcDbEntity
  8
0
370
    35
390
0
 62
     7
 48
0.000024
100
AcDbLine
 10
7.949991
 20
4.051969
 30
0.0
 11
7.949073
 21
4.051708
 31
0.0
210
0.0
220
0.0
230
1.0
  0
LINE
  5
29F
100
AcDbEntity
  8
0
370
    35
390
0
 62
     7
 48
0.000024
100
AcDbLine
 10
7.949073
 20
4.051708
 30
0.0
 11
7.948165
 21
4.05145
 31
0.0
210
0.0
220
0.0
230
1.0
  0
LINE
  5
2A0
100
AcDbEntity
  8
0
370
    35
390
0
 62
     7
 48
0.000014
100
AcDbLine
 10
7.948165
 20
4.05145
 30
0.0
 11
7.948272
 21
4.052019
 31
0.0
210
0.0
220
0.0
230
1.0
  0
LINE
  5
2A1
100
AcDbEntity
  8
0
370
    35
390
0
 62
     7
 48
0.000013
100
AcDbLine
 10
7.948272
 20
4.052019
 30
0.0
 11
7.948329
 21
4.052555
 31
0.0
210
0.0
220
0.0
230
1.0
  0
LINE
  5
2A2
100
AcDbEntity
  8
0
370
    35
390
0
 62
     7
 48
0.000013
100
AcDbLine
 10
7.948329
 20
4.052555
 30
0.0
 11
7.948335
 21
4.053059
 31
0.0
210
0.0
220
0.0
230
1.0
  0
LINE
  5
2A3
100
AcDbEntity
  8
0
370
    35
390
0
 62
     7
 48
0.000012
100
AcDbLine
 10
7.948335
 20
4.053059
 30
0.0
 11
7.94829
 21
4.05353
 31
0.0
210
0.0
220
0.0
230
1.0
  0
LINE
  5
2A4
100
AcDbEntity
  8
0
370
    35
390
0
 62
     7
 48
0.000011
100
AcDbLine
 10
7.94829
 20
4.05353
 30
0.0
 11
7.948195
 21
4.053969
 31
0.0
210
0.0
220
0.0
230
1.0
  0
LINE
  5
2A5
100
AcDbEntity
  8
0
370
    35
390
0
 62
     7
 48
0.000011
100
AcDbLine
 10
7.948195
 20
4.053969
 30
0.0
 11
7.948048
 21
4.054375
 31
0.0
210
0.0
220
0.0
230
1.0
  0
LINE
  5
2A6
100
AcDbEntity
  8
0
370
    35
390
0
 62
     7
 48
0.000011
100
AcDbLine
 10
7.948048
 20
4.054375
 30
0.0
 11
7.947852
 21
4.054749
 31
0.0
210
0.0
220
0.0
230
1.0
  0
LINE
  5
2A7
100
AcDbEntity
  8
0
370
    35
390
0
 62
     7
 48
0.000011
100
AcDbLine
 10
7.947852
 20
4.054749
 30
0.0
 11
7.947604
 21
4.05509
 31
0.0
210
0.0
220
0.0
230
1.0
  0
LINE
  5
2A8
100
AcDbEntity
  8
0
370
    35
390
0
 62
     7
 48
0.000011
100
AcDbLine
 10
7.947604
 20
4.05509
 30
0.0
 11
7.947306
 21
4.055398
 31
0.0
210
0.0
220
0.0
230
1.0
  0
LINE
  5
2A9
100
AcDbEntity
  8
0
370
    35
390
0
 62
     7
 48
0.000011
100
AcDbLine
 10
7.947306
 20
4.055398
 30
0.0
 11
7.946958
 21
4.055675
 31
0.0
210
0.0
220
0.0
230
1.0
  0
LINE
  5
2AA
100
AcDbEntity
  8
0
370
    35
390
0
 62
     7
 48
0.000012
100
AcDbLine
 10
7.946958
 20
4.055675
 30
0.0
 11
7.946532
 21
4.055936
 31
0.0
210
0.0
220
0.0
230
1.0
  0
LINE
  5
2AB
100
AcDbEntity
  8
0
370
    35
390
0
 62
     7
 48
0.000015
100
AcDbLine
 10
7.946532
 20
4.055936
 30
0.0
 11
7.946004
 21
4.056202
 31
0.0
210
0.0
220
0.0
230
1.0
  0
LINE
  5
2AC
100
AcDbEntity
  8
0
370
    35
390
0
 62
     7
 48
0.000017
100
AcDbLine
 10
7.946004
 20
4.056202
 30
0.0
 11
7.945372
 21
4.056471
 31
0.0
210
0.0
220
0.0
230
1.0
  0
LINE
  5
2AD
100
AcDbEntity
  8
0
370
    35
390
0
 62
     7
 48
0.00002
100
AcDbLine
 10
7.945372
 20
4.056471
 30
0.0
 11
7.944639
 21
4.056744
 31
0.0
210
0.0
220
0.0
230
1.0
  0
LINE
  5
2AE
100
AcDbEntity
  8
0
370
    35
390
0
 62
     7
 48
0.000022
100
AcDbLine
 10
7.944639
 20
4.056744
 30
0.0
 11
7.943802
 21
4.057021
 31
0.0
210
0.0
220
0.0
230
1.0
  0
LINE
  5
2AF
100
AcDbEntity
  8
0
370
    35
390
0
 62
     7
 48
0.000025
100
AcDbLine
 10
7.943802
 20
4.057021
 30
0.0
 11
7.942863
 21
4.057301
 31
0.0
210
0.0
220
0.0
230
1.0
  0
LINE
  5
2B0
100
AcDbEntity
  8
0
370
    35
390
0
 62
     7
 48
0.000027
100
AcDbLine
 10
7.942863
 20
4.057301
 30
0.0
 11
7.941821
 21
4.057586
 31
0.0
210
0.0
220
0.0
230
1.0
  0
LINE
  5
2B1
100
AcDbEntity
  8
0
370
    35
390
0
 62
     7
 48
0.00003
100
AcDbLine
 10
7.941821
 20
4.057586
 30
0.0
 11
7.940676
 21
4.057874
 31
0.0
210
0.0
220
0.0
230
1.0
  0
LINE
  5
2B2
100
AcDbEntity
  8
0
370
    35
390
0
 62
     7
 48
0.000032
100
AcDbLine
 10
7.940676
 20
4.057874
 30
0.0
 11
7.939429
 21
4.058166
 31
0.0
210
0.0
220
0.0
230
1.0
  0
LINE
  5
2B3
100
AcDbEntity
  8
0
370
    35
390
0
 62
     7
 48
0.000035
100
AcDbLine
 10
7.939429
 20
4.058166
 30
0.0
 11
7.938078
 21
4.058462
 31
0.0
210
0.0
220
0.0
230
1.0
  0
LINE
  5
2B4
100
AcDbEntity
  8
0
370
    35
390
0
 62
     7
 48
0.000067
100
AcDbLine
 10
7.938078
 20
4.058462
 30
0.0
 11
7.93544
 21
4.058999
 31
0.0
210
0.0
220
0.0
230
1.0
  0
LINE
  5
2B5
100
AcDbEntity
  8
0
370
    35
390
0
 62
     7
 48
0.000113
100
AcDbLine
 10
7.93544
 20
4.058999
 30
0.0
 11
7.931024
 21
4.059959
 31
0.0
210
0.0
220
0.0
230
1.0
  0
LINE
  5
2B6
100
AcDbEntity
  8
0
370
    35
390
0
 62
     7
 48
0.000043
100
AcDbLine
 10
7.931024
 20
4.059959
 30
0.0
 11
7.929356
 21
4.060336
 31
0.0
210
0.0
220
0.0
230
1.0
  0
LINE
  5
2B7
100
AcDbEntity
  8
0
370
    35
390
0
 62
     7
 48
0.000373
100
AcDbLine
 10
7.929356
 20
4.060336
 30
0.0
 11
7.916672
 21
4.052477
 31
0.0
210
0.0
220
0.0
230
1.0
  0
LINE
  5
2B8
100
AcDbEntity
  8
0
370
    35
390
0
 62
     7
 48
0.000071
100
AcDbLine
 10
7.916672
 20
4.052477
 30
0.0
 11
7.919467
 21
4.051884
 31
0.0
210
0.0
220
0.0
230
1.0
  0
LINE
  5
2B9
100
AcDbEntity
  8
0
370
    35
390
0
 62
     7
 48
0.000329
100
AcDbLine
 10
7.919467
 20
4.051884
 30
0.0
 11
7.93066
 21
4.058819
 31
0.0
210
0.0
220
0.0
230
1.0
  0
LINE
  5
2BA
100
AcDbEntity
  8
0
370
    35
390
0
 62
     7
 48
0.000035
100
AcDbLine
 10
7.93066
 20
4.058819
 30
0.0
 11
7.932015
 21
4.058554
 31
0.0
210
0.0
220
0.0
230
1.0
  0
LINE
  5
2BB
100
AcDbEntity
  8
0
370
    35
390
0
 62
     7
 48
0.00003
100
AcDbLine
 10
7.932015
 20
4.058554
 30
0.0
 11
7.933195
 21
4.058328
 31
0.0
210
0.0
220
0.0
230
1.0
  0
LINE
  5
2BC
100
AcDbEntity
  8
0
370
    35
390
0
 62
     7
 48
0.000031
100
AcDbLine
 10
7.933195
 20
4.058328
 30
0.0
 11
7.934398
 21
4.058091
 31
0.0
210
0.0
220
0.0
230
1.0
  0
LINE
  5
2BD
100
AcDbEntity
  8
0
370
    35
390
0
 62
     7
 48
0.000031
100
AcDbLine
 10
7.934398
 20
4.058091
 30
0.0
 11
7.935624
 21
4.057845
 31
0.0
210
0.0
220
0.0
230
1.0
  0
LINE
  5
2BE
100
AcDbEntity
  8
0
370
    35
390
0
 62
     7
 48
0.000032
100
AcDbLine
 10
7.935624
 20
4.057845
 30
0.0
 11
7.936872
 21
4.057588
 31
0.0
210
0.0
220
0.0
230
1.0
  0
LINE
  5
2BF
100
AcDbEntity
  8
0
370
    35
390
0
 62
     7
 48
0.000032
100
AcDbLine
 10
7.936872
 20
4.057588
 30
0.0
 11
7.938143
 21
4.05732
 31
0.0
210
0.0
220
0.0
230
1.0
  0
LINE
  5
2C0
100
AcDbEntity
  8
0
370
    35
390
0
 62
     7
 48
0.000045
100
AcDbLine
 10
7.938143
 20
4.05732
 30
0.0
 11
7.939913
 21
4.056921
 31
0.0
210
0.0
220
0.0
230
1.0
  0
LINE
  5
2C1
100
AcDbEntity
  8
0
370
    35
390
0
 62
     7
 48
0.000041
100
AcDbLine
 10
7.939913
 20
4.056921
 30
0.0
 11
7.941486
 21
4.056515
 31
0.0
210
0.0
220
0.0
230
1.0
  0
LINE
  5
2C2
100
AcDbEntity
  8
0
370
    35
390
0
 62
     7
 48
0.000036
100
AcDbLine
 10
7.941486
 20
4.056515
 30
0.0
 11
7.942861
 21
4.056104
 31
0.0
210
0.0
220
0.0
230
1.0
  0
LINE
  5
2C3
100
AcDbEntity
  8
0
370
    35
390
0
 62
     7
 48
0.000031
100
AcDbLine
 10
7.942861
 20
4.056104
 30
0.0
 11
7.944038
 21
4.055687
 31
0.0
210
0.0
220
0.0
230
1.0
  0
LINE
  5
2C4
100
AcDbEntity
  8
0
370
    35
390
0
 62
     7
 48
0.000027
100
AcDbLine
 10
7.944038
 20
4.055687
 30
0.0
 11
7.945018
 21
4.055263
 31
0.0
210
0.0
220
0.0
230
1.0
  0
LINE
  5
2C5
100
AcDbEntity
  8
0
370
    35
390
0
 62
     7
 48
0.000022
100
AcDbLine
 10
7.945018
 20
4.055263
 30
0.0
 11
7.9458
 21
4.054834
 31
0.0
210
0.0
220
0.0
230
1.0
  0
LINE
  5
2C6
100
AcDbEntity
  8
0
370
    35
390
0
 62
     7
 48
0.000018
100
AcDbLine
 10
7.9458
 20
4.054834
 30
0.0
 11
7.946383
 21
4.0544
 31
0.0
210
0.0
220
0.0
230
1.0
  0
LINE
  5
2C7
100
AcDbEntity
  8
0
370
    35
390
0
 62
     7
 48
0.000015
100
AcDbLine
 10
7.946383
 20
4.0544
 30
0.0
 11
7.94677
 21
4.053959
 31
0.0
210
0.0
220
0.0
230
1.0
  0
LINE
  5
2C8
100
AcDbEntity
  8
0
370
    35
390
0
 62
     7
 48
0.000012
100
AcDbLine
 10
7.94677
 20
4.053959
 30
0.0
 11
7.946959
 21
4.053513
 31
0.0
210
0.0
220
0.0
230
1.0
  0
LINE
  5
2C9
100
AcDbEntity
  8
0
370
    35
390
0
 62
     7
 48
0.000011
100
AcDbLine
 10
7.946959
 20
4.053513
 30
0.0
 11
7.946951
 21
4.05306
 31
0.0
210
0.0
220
0.0
230
1.0
  0
LINE
  5
2CA
100
AcDbEntity
  8
0
370
    35
390
0
 62
     7
 48
0.000016
100
AcDbLine
 10
7.946951
 20
4.05306
 30
0.0
 11
7.946514
 21
4.05355
 31
0.0
210
0.0
220
0.0
230
1.0
  0
LINE
  5
2CB
100
AcDbEntity
  8
0
370
    35
390
0
 62
     7
 48
0.000018
100
AcDbLine
 10
7.946514
 20
4.05355
 30
0.0
 11
7.94598
 21
4.054004
 31
0.0
210
0.0
220
0.0
230
1.0
  0
LINE
  5
2CC
100
AcDbEntity
  8
0
370
    35
390
0
 62
     7
 48
0.000019
100
AcDbLine
 10
7.94598
 20
4.054004
 30
0.0
 11
7.945348
 21
4.054425
 31
0.0
210
0.0
220
0.0
230
1.0
  0
LINE
  5
2CD
100
AcDbEntity
  8
0
370
    35
390
0
 62
     7
 48
0.000021
100
AcDbLine
 10
7.945348
 20
4.054425
 30
0.0
 11
7.944619
 21
4.054811
 31
0.0
210
0.0
220
0.0
230
1.0
  0
LINE
  5
2CE
100
AcDbEntity
  8
0
370
    35
390
0
 62
     7
 48
0.000022
100
AcDbLine
 10
7.944619
 20
4.054811
 30
0.0
 11
7.943793
 21
4.055163
 31
0.0
210
0.0
220
0.0
230
1.0
  0
LINE
  5
2CF
100
AcDbEntity
  8
0
370
    35
390
0
 62
     7
 48
0.000027
100
AcDbLine
 10
7.943793
 20
4.055163
 30
0.0
 11
7.942787
 21
4.05551
 31
0.0
210
0.0
220
0.0
230
1.0
  0
LINE
  5
2D0
100
AcDbEntity
  8
0
370
    35
390
0
 62
     7
 48
0.000016
100
AcDbLine
 10
7.942787
 20
4.05551
 30
0.0
 11
7.942184
 21
4.055694
 31
0.0
210
0.0
220
0.0
230
1.0
  0
LINE
  5
2D1
100
AcDbEntity
  8
0
370
    35
390
0
 62
     7
 48
0.000017
100
AcDbLine
 10
7.942184
 20
4.055694
 30
0.0
 11
7.941515
 21
4.055884
 31
0.0
210
0.0
220
0.0
230
1.0
  0
LINE
  5
2D2
100
AcDbEntity
  8
0
370
    35
390
0
 62
     7
 48
0.000019
100
AcDbLine
 10
7.941515
 20
4.055884
 30
0.0
 11
7.940779
 21
4.056081
 31
0.0
210
0.0
220
0.0
230
1.0
  0
LINE
  5
2D3
100
AcDbEntity
  8
0
370
    35
390
0
 62
     7
 48
0.000021
100
AcDbLine
 10
7.940779
 20
4.056081
 30
0.0
 11
7.939978
 21
4.056285
 31
0.0
210
0.0
220
0.0
230
1.0
  0
LINE
  5
2D4
100
AcDbEntity
  8
0
370
    35
390
0
 62
     7
 48
0.000022
100
AcDbLine
 10
7.939978
 20
4.056285
 30
0.0
 11
7.939111
 21
4.056495
 31
0.0
210
0.0
220
0.0
230
1.0
  0
LINE
  5
2D5
100
AcDbEntity
  8
0
370
    35
390
0
 62
     7
 48
0.000024
100
AcDbLine
 10
7.939111
 20
4.056495
 30
0.0
 11
7.938177
 21
4.056712
 31
0.0
210
0.0
220
0.0
230
1.0
  0
LINE
  5
2D6
100
AcDbEntity
  8
0
370
    35
390
0
 62
     7
 48
0.000026
100
AcDbLine
 10
7.938177
 20
4.056712
 30
0.0
 11
7.937176
 21
4.056936
 31
0.0
210
0.0
220
0.0
230
1.0
  0
LINE
  5
2D7
100
AcDbEntity
  8
0
370
    35
390
0
 62
     7
 48
0.000027
100
AcDbLine
 10
7.937176
 20
4.056936
 30
0.0
 11
7.93611
 21
4.057166
 31
0.0
210
0.0
220
0.0
230
1.0
  0
LINE
  5
2D8
100
AcDbEntity
  8
0
370
    35
390
0
 62
     7
 48
0.000021
100
AcDbLine
 10
7.93611
 20
4.057166
 30
0.0
 11
7.935278
 21
4.057338
 31
0.0
210
0.0
220
0.0
230
1.0
  0
LINE
  5
2D9
100
AcDbEntity
  8
0
370
    35
390
0
 62
     7
 48
0.000023
100
AcDbLine
 10
7.935278
 20
4.057338
 30
0.0
 11
7.934359
 21
4.05752
 31
0.0
210
0.0
220
0.0
230
1.0
  0
LINE
  5
2DA
100
AcDbEntity
  8
0
370
    35
390
0
 62
     7
 48
0.000026
100
AcDbLine
 10
7.934359
 20
4.05752
 30
0.0
 11
7.933351
 21
4.057711
 31
0.0
210
0.0
220
0.0
230
1.0
  0
LINE
  5
2DB
100
AcDbEntity
  8
0
370
    35
390
0
 62
     7
 48
0.000028
100
AcDbLine
 10
7.933351
 20
4.057711
 30
0.0
 11
7.932256
 21
4.057912
 31
0.0
210
0.0
220
0.0
230
1.0
  0
LINE
  5
2DC
100
AcDbEntity
  8
0
370
    35
390
0
 62
     7
 48
0.00003
100
AcDbLine
 10
7.932256
 20
4.057912
 30
0.0
 11
7.931073
 21
4.058123
 31
0.0
210
0.0
220
0.0
230
1.0
  0
LINE
  5
2DD
100
AcDbEntity
  8
0
370
    35
390
0
 62
     7
 48
0.000308
100
AcDbLine
 10
7.931073
 20
4.058123
 30
0.0
 11
7.920612
 21
4.051641
 31
0.0
210
0.0
220
0.0
230
1.0
  0
LINE
  5
2DE
100
AcDbEntity
  8
0
370
    35
390
0
 62
     7
 48
0.000177
100
AcDbLine
 10
7.920612
 20
4.051641
 30
0.0
 11
7.927528
 21
4.050172
 31
0.0
210
0.0
220
0.0
230
1.0
  0
LINE
  5
2DF
100
AcDbEntity
  8
0
370
    35
390
0
 62
     7
 48
0.000299
100
AcDbLine
 10
7.927528
 20
4.050172
 30
0.0
 11
7.939438
 21
4.051454
 31
0.0
210
0.0
220
0.0
230
1.0
  0
LINE
  5
2E0
100
AcDbEntity
  8
0
370
    35
390
0
 62
     7
 48
0.000334
100
AcDbLine
 10
7.939438
 20
4.051454
 30
0.0
 11
7.928082
 21
4.044418
 31
0.0
210
0.0
220
0.0
230
1.0
  0
LINE
  5
2E1
100
AcDbEntity
  8
0
370
    35
390
0
 62
     7
 48
0.000136
100
AcDbLine
 10
7.928082
 20
4.044418
 30
0.0
 11
7.924885
 21
4.048839
 31
0.0
210
0.0
220
0.0
230
1.0
  0
LINE
  5
2E2
100
AcDbEntity
  8
0
370
    35
390
0
 62
     7
 48
0.000268
100
AcDbLine
 10
7.924885
 20
4.048839
 30
0.0
 11
7.914396
 21
4.051066
 31
0.0
210
0.0
220
0.0
230
1.0
  0
LINE
  5
2E3
100
AcDbEntity
  8
0
370
    35
390
0
 62
     7
 48
0.000402
100
AcDbLine
 10
7.914396
 20
4.051066
 30
0.0
 11
7.900736
 21
4.042603
 31
0.0
210
0.0
220
0.0
230
1.0
  0
LINE
  5
2E4
100
AcDbEntity
  8
0
370
    35
390
0
 62
     7
 48
0.000104
100
AcDbLine
 10
7.900736
 20
4.042603
 30
0.0
 11
7.903077
 21
4.039175
 31
0.0
210
0.0
220
0.0
230
1.0
  0
LINE
  5
2E5
100
AcDbEntity
  8
0
370
    35
390
0
 62
     7
 48
0.000575
100
AcDbLine
 10
7.903077
 20
4.039175
 30
0.0
 11
7.880585
 21
4.04395
 31
0.0
210
0.0
220
0.0
230
1.0
  0
LINE
  5
2E6
100
AcDbEntity
  8
0
370
    35
390
0
 62
     7
 48
0.000275
100
AcDbLine
 10
7.880585
 20
4.04395
 30
0.0
 11
7.891575
 21
4.044548
 31
0.0
210
0.0
220
0.0
230
1.0
  0
LINE
  5
2E7
100
AcDbEntity
  8
0
370
    35
390
0
 62
     7
 48
0.000343
100
AcDbLine
 10
7.891575
 20
4.044548
 30
0.0
 11
7.903229
 21
4.051769
 31
0.0
210
0.0
220
0.0
230
1.0
  0
LINE
  5
2E8
100
AcDbEntity
  8
0
370
    35
390
0
 62
     7
 48
0.000018
100
AcDbLine
 10
7.903229
 20
4.051769
 30
0.0
 11
7.902516
 21
4.051907
 31
0.0
210
0.0
220
0.0
230
1.0
  0
LINE
  5
2E9
100
AcDbEntity
  8
0
370
    35
390
0
 62
     7
 48
0.000018
100
AcDbLine
 10
7.902516
 20
4.051907
 30
0.0
 11
7.90179
 21
4.052022
 31
0.0
210
0.0
220
0.0
230
1.0
  0
LINE
  5
2EA
100
AcDbEntity
  8
0
370
    35
390
0
 62
     7
 48
0.000019
100
AcDbLine
 10
7.90179
 20
4.052022
 30
0.0
 11
7.901049
 21
4.052114
 31
0.0
210
0.0
220
0.0
230
1.0
  0
LINE
  5
2EB
100
AcDbEntity
  8
0
370
    35
390
0
 62
     7
 48
0.000019
100
AcDbLine
 10
7.901049
 20
4.052114
 30
0.0
 11
7.900294
 21
4.052183
 31
0.0
210
0.0
220
0.0
230
1.0
  0
LINE
  5
2EC
100
AcDbEntity
  8
0
370
    35
390
0
 62
     7
 48
0.000019
100
AcDbLine
 10
7.900294
 20
4.052183
 30
0.0
 11
7.899526
 21
4.052228
 31
0.0
210
0.0
220
0.0
230
1.0
  0
LINE
  5
2ED
100
AcDbEntity
  8
0
370
    35
390
0
 62
     7
 48
0.00002
100
AcDbLine
 10
7.899526
 20
4.052228
 30
0.0
 11
7.898744
 21
4.052251
 31
0.0
210
0.0
220
0.0
230
1.0
  0
LINE
  5
2EE
100
AcDbEntity
  8
0
370
    35
390
0
 62
     7
 48
0.00002
100
AcDbLine
 10
7.898744
 20
4.052251
 30
0.0
 11
7.897947
 21
4.05225
 31
0.0
210
0.0
220
0.0
230
1.0
  0
LINE
  5
2EF
100
AcDbEntity
  8
0
370
    35
390
0
 62
     7
 48
0.00002
100
AcDbLine
 10
7.897947
 20
4.05225
 30
0.0
 11
7.897136
 21
4.052226
 31
0.0
210
0.0
220
0.0
230
1.0
  0
LINE
  5
2F0
100
AcDbEntity
  8
0
370
    35
390
0
 62
     7
 48
0.000021
100
AcDbLine
 10
7.897136
 20
4.052226
 30
0.0
 11
7.896312
 21
4.052178
 31
0.0
210
0.0
220
0.0
230
1.0
  0
LINE
  5
2F1
100
AcDbEntity
  8
0
370
    35
390
0
 62
     7
 48
0.000021
100
AcDbLine
 10
7.896312
 20
4.052178
 30
0.0
 11
7.895472
 21
4.052108
 31
0.0
210
0.0
220
0.0
230
1.0
  0
LINE
  5
2F2
100
AcDbEntity
  8
0
370
    35
390
0
 62
     7
 48
0.000015
100
AcDbLine
 10
7.895472
 20
4.052108
 30
0.0
 11
7.895171
 21
4.052645
 31
0.0
210
0.0
220
0.0
230
1.0
  0
LINE
  5
2F3
100
AcDbEntity
  8
0
370
    35
390
0
 62
     7
 48
0.000022
100
AcDbLine
 10
7.895171
 20
4.052645
 30
0.0
 11
7.89605
 21
4.052733
 31
0.0
210
0.0
220
0.0
230
1.0
  0
LINE
  5
2F4
100
AcDbEntity
  8
0
370
    35
390
0
 62
     7
 48
0.000022
100
AcDbLine
 10
7.89605
 20
4.052733
 30
0.0
 11
7.896929
 21
4.052792
 31
0.0
210
0.0
220
0.0
230
1.0
  0
LINE
  5
2F5
100
AcDbEntity
  8
0
370
    35
390
0
 62
     7
 48
0.000022
100
AcDbLine
 10
7.896929
 20
4.052792
 30
0.0
 11
7.897807
 21
4.052822
 31
0.0
210
0.0
220
0.0
230
1.0
  0
LINE
  5
2F6
100
AcDbEntity
  8
0
370
    35
390
0
 62
     7
 48
0.000022
100
AcDbLine
 10
7.897807
 20
4.052822
 30
0.0
 11
7.898686
 21
4.052823
 31
0.0
210
0.0
220
0.0
230
1.0
  0
LINE
  5
2F7
100
AcDbEntity
  8
0
370
    35
390
0
 62
     7
 48
0.000022
100
AcDbLine
 10
7.898686
 20
4.052823
 30
0.0
 11
7.899565
 21
4.052795
 31
0.0
210
0.0
220
0.0
230
1.0
  0
LINE
  5
2F8
100
AcDbEntity
  8
0
370
    35
390
0
 62
     7
 48
0.000022
100
AcDbLine
 10
7.899565
 20
4.052795
 30
0.0
 11
7.900443
 21
4.052738
 31
0.0
210
0.0
220
0.0
230
1.0
  0
LINE
  5
2F9
100
AcDbEntity
  8
0
370
    35
390
0
 62
     7
 48
0.000022
100
AcDbLine
 10
7.900443
 20
4.052738
 30
0.0
 11
7.901323
 21
4.052653
 31
0.0
210
0.0
220
0.0
230
1.0
  0
LINE
  5
2FA
100
AcDbEntity
  8
0
370
    35
390
0
 62
     7
 48
0.000022
100
AcDbLine
 10
7.901323
 20
4.052653
 30
0.0
 11
7.902202
 21
4.052538
 31
0.0
210
0.0
220
0.0
230
1.0
  0
LINE
  5
2FB
100
AcDbEntity
  8
0
370
    35
390
0
 62
     7
 48
0.000022
100
AcDbLine
 10
7.902202
 20
4.052538
 30
0.0
 11
7.903081
 21
4.052395
 31
0.0
210
0.0
220
0.0
230
1.0
  0
LINE
  5
2FC
100
AcDbEntity
  8
0
370
    35
390
0
 62
     7
 48
0.000022
100
AcDbLine
 10
7.903081
 20
4.052395
 30
0.0
 11
7.90396
 21
4.052222
 31
0.0
210
0.0
220
0.0
230
1.0
  0
LINE
  5
2FD
100
AcDbEntity
  8
0
370
    35
390
0
 62
     7
 48
0.000037
100
AcDbLine
 10
7.90396
 20
4.052222
 30
0.0
 11
7.905234
 21
4.053012
 31
0.0
210
0.0
220
0.0
230
1.0
  0
LINE
  5
2FE
100
AcDbEntity
  8
0
370
    35
390
0
 62
     7
 48
0.000017
100
AcDbLine
 10
7.905234
 20
4.053012
 30
0.0
 11
7.904587
 21
4.053178
 31
0.0
210
0.0
220
0.0
230
1.0
  0
LINE
  5
2FF
100
AcDbEntity
  8
0
370
    35
390
0
 62
     7
 48
0.000017
100
AcDbLine
 10
7.904587
 20
4.053178
 30
0.0
 11
7.903914
 21
4.053337
 31
0.0
210
0.0
220
0.0
230
1.0
  0
LINE
  5
300
100
AcDbEntity
  8
0
370
    35
390
0
 62
     7
 48
0.000022
100
AcDbLine
 10
7.903914
 20
4.053337
 30
0.0
 11
7.903053
 21
4.053503
 31
0.0
210
0.0
220
0.0
230
1.0
  0
LINE
  5
301
100
AcDbEntity
  8
0
370
    35
390
0
 62
     7
 48
0.000022
100
AcDbLine
 10
7.903053
 20
4.053503
 30
0.0
 11
7.902173
 21
4.053638
 31
0.0
210
0.0
220
0.0
230
1.0
  0
LINE
  5
302
100
AcDbEntity
  8
0
370
    35
390
0
 62
     7
 48
0.000023
100
AcDbLine
 10
7.902173
 20
4.053638
 30
0.0
 11
7.901276
 21
4.053743
 31
0.0
210
0.0
220
0.0
230
1.0
  0
LINE
  5
303
100
AcDbEntity
  8
0
370
    35
390
0
 62
     7
 48
0.000023
100
AcDbLine
 10
7.901276
 20
4.053743
 30
0.0
 11
7.90036
 21
4.053818
 31
0.0
210
0.0
220
0.0
230
1.0
  0
LINE
  5
304
100
AcDbEntity
  8
0
370
    35
390
0
 62
     7
 48
0.000023
100
AcDbLine
 10
7.90036
 20
4.053818
 30
0.0
 11
7.899425
 21
4.053862
 31
0.0
210
0.0
220
0.0
230
1.0
  0
LINE
  5
305
100
AcDbEntity
  8
0
370
    35
390
0
 62
     7
 48
0.000024
100
AcDbLine
 10
7.899425
 20
4.053862
 30
0.0
 11
7.898473
 21
4.053876
 31
0.0
210
0.0
220
0.0
230
1.0
  0
LINE
  5
306
100
AcDbEntity
  8
0
370
    35
390
0
 62
     7
 48
0.000024
100
AcDbLine
 10
7.898473
 20
4.053876
 30
0.0
 11
7.897502
 21
4.053859
 31
0.0
210
0.0
220
0.0
230
1.0
  0
LINE
  5
307
100
AcDbEntity
  8
0
370
    35
390
0
 62
     7
 48
0.000025
100
AcDbLine
 10
7.897502
 20
4.053859
 30
0.0
 11
7.896513
 21
4.053812
 31
0.0
210
0.0
220
0.0
230
1.0
  0
LINE
  5
308
100
AcDbEntity
  8
0
370
    35
390
0
 62
     7
 48
0.000025
100
AcDbLine
 10
7.896513
 20
4.053812
 30
0.0
 11
7.895505
 21
4.053734
 31
0.0
210
0.0
220
0.0
230
1.0
  0
LINE
  5
309
100
AcDbEntity
  8
0
370
    35
390
0
 62
     7
 48
0.000026
100
AcDbLine
 10
7.895505
 20
4.053734
 30
0.0
 11
7.89448
 21
4.053627
 31
0.0
210
0.0
220
0.0
230
1.0
  0
LINE
  5
30A
100
AcDbEntity
  8
0
370
    35
390
0
 62
     7
 48
0.000009
100
AcDbLine
 10
7.89448
 20
4.053627
 30
0.0
 11
7.894593
 21
4.053963
 31
0.0
210
0.0
220
0.0
230
1.0
  0
LINE
  5
30B
100
AcDbEntity
  8
0
370
    35
390
0
 62
     7
 48
0.000029
100
AcDbLine
 10
7.894593
 20
4.053963
 30
0.0
 11
7.895727
 21
4.054282
 31
0.0
210
0.0
220
0.0
230
1.0
  0
LINE
  5
30C
100
AcDbEntity
  8
0
370
    35
390
0
 62
     7
 48
0.00003
100
AcDbLine
 10
7.895727
 20
4.054282
 30
0.0
 11
7.896896
 21
4.05454
 31
0.0
210
0.0
220
0.0
230
1.0
  0
LINE
  5
30D
100
AcDbEntity
  8
0
370
    35
390
0
 62
     7
 48
0.000031
100
AcDbLine
 10
7.896896
 20
4.05454
 30
0.0
 11
7.898101
 21
4.054738
 31
0.0
210
0.0
220
0.0
230
1.0
  0
LINE
  5
30E
100
AcDbEntity
  8
0
370
    35
390
0
 62
     7
 48
0.000031
100
AcDbLine
 10
7.898101
 20
4.054738
 30
0.0
 11
7.89934
 21
4.054875
 31
0.0
210
0.0
220
0.0
230
1.0
  0
LINE
  5
30F
100
AcDbEntity
  8
0
370
    35
390
0
 62
     7
 48
0.000032
100
AcDbLine
 10
7.89934
 20
4.054875
 30
0.0
 11
7.900615
 21
4.054951
 31
0.0
210
0.0
220
0.0
230
1.0
  0
LINE
  5
310
100
AcDbEntity
  8
0
370
    35
390
0
 62
     7
 48
0.000033
100
AcDbLine
 10
7.900615
 20
4.054951
 30
0.0
 11
7.901924
 21
4.054966
 31
0.0
210
0.0
220
0.0
230
1.0
  0
LINE
  5
311
100
AcDbEntity
  8
0
370
    35
390
0
 62
     7
 48
0.000034
100
AcDbLine
 10
7.901924
 20
4.054966
 30
0.0
 11
7.903268
 21
4.054921
 31
0.0
210
0.0
220
0.0
230
1.0
  0
LINE
  5
312
100
AcDbEntity
  8
0
370
    35
390
0
 62
     7
 48
0.000035
100
AcDbLine
 10
7.903268
 20
4.054921
 30
0.0
 11
7.904647
 21
4.054815
 31
0.0
210
0.0
220
0.0
230
1.0
  0
LINE
  5
313
100
AcDbEntity
  8
0
370
    35
390
0
 62
     7
 48
0.000036
100
AcDbLine
 10
7.904647
 20
4.054815
 30
0.0
 11
7.906061
 21
4.054649
 31
0.0
210
0.0
220
0.0
230
1.0
  0
LINE
  5
314
100
AcDbEntity
  8
0
370
    35
390
0
 62
     7
 48
0.000037
100
AcDbLine
 10
7.906061
 20
4.054649
 30
0.0
 11
7.907511
 21
4.054422
 31
0.0
210
0.0
220
0.0
230
1.0
  0
LINE
  5
315
100
AcDbEntity
  8
0
370
    35
390
0
 62
     7
 48
0.000336
100
AcDbLine
 10
7.907511
 20
4.054422
 30
0.0
 11
7.918948
 21
4.061509
 31
0.0
210
0.0
220
0.0
230
1.0
  0
LINE
  5
316
100
AcDbEntity
  8
0
370
    35
390
0
 62
     7
 48
0.00011
100
AcDbLine
 10
7.918948
 20
4.061509
 30
0.0
 11
7.91626
 21
4.064988
 31
0.0
210
0.0
220
0.0
230
1.0
  0
LINE
  5
317
100
AcDbEntity
  8
0
370
    35
390
0
 62
     7
 48
0.001215
100
AcDbLine
 10
7.91626
 20
4.064988
 30
0.0
 11
7.963808
 21
4.054893
 31
0.0
210
0.0
220
0.0
230
1.0
  0
LINE
  5
318
100
AcDbEntity
  8
0
370
    35
390
0
 62
     7
 48
0.000052
100
AcDbLine
 10
7.963477
 20
4.052841
 30
0.0
 11
7.96143
 21
4.052541
 31
0.0
210
0.0
220
0.0
230
1.0
  0
LINE
  5
319
100
AcDbEntity
  8
0
370
    35
390
0
 62
     7
 48
0.000049
100
AcDbLine
 10
7.96143
 20
4.052541
 30
0.0
 11
7.959496
 21
4.05223
 31
0.0
210
0.0
220
0.0
230
1.0
  0
LINE
  5
31A
100
AcDbEntity
  8
0
370
    35
390
0
 62
     7
 48
0.000046
100
AcDbLine
 10
7.959496
 20
4.05223
 30
0.0
 11
7.957673
 21
4.051908
 31
0.0
210
0.0
220
0.0
230
1.0
  0
LINE
  5
31B
100
AcDbEntity
  8
0
370
    35
390
0
 62
     7
 48
0.000044
100
AcDbLine
 10
7.957673
 20
4.051908
 30
0.0
 11
7.955964
 21
4.051575
 31
0.0
210
0.0
220
0.0
230
1.0
  0
LINE
  5
31C
100
AcDbEntity
  8
0
370
    35
390
0
 62
     7
 48
0.000041
100
AcDbLine
 10
7.955964
 20
4.051575
 30
0.0
 11
7.954366
 21
4.051231
 31
0.0
210
0.0
220
0.0
230
1.0
  0
LINE
  5
31D
100
AcDbEntity
  8
0
370
    35
390
0
 62
     7
 48
0.000038
100
AcDbLine
 10
7.954366
 20
4.051231
 30
0.0
 11
7.95288
 21
4.050875
 31
0.0
210
0.0
220
0.0
230
1.0
  0
LINE
  5
31E
100
AcDbEntity
  8
0
370
    35
390
0
 62
     7
 48
0.000036
100
AcDbLine
 10
7.95288
 20
4.050875
 30
0.0
 11
7.951507
 21
4.050508
 31
0.0
210
0.0
220
0.0
230
1.0
  0
LINE
  5
31F
100
AcDbEntity
  8
0
370
    35
390
0
 62
     7
 48
0.000033
100
AcDbLine
 10
7.951507
 20
4.050508
 30
0.0
 11
7.950246
 21
4.05013
 31
0.0
210
0.0
220
0.0
230
1.0
  0
LINE
  5
320
100
AcDbEntity
  8
0
370
    35
390
0
 62
     7
 48
0.00003
100
AcDbLine
 10
7.950246
 20
4.05013
 30
0.0
 11
7.949098
 21
4.049741
 31
0.0
210
0.0
220
0.0
230
1.0
  0
LINE
  5
321
100
AcDbEntity
  8
0
370
    35
390
0
 62
     7
 48
0.000018
100
AcDbLine
 10
7.949098
 20
4.049741
 30
0.0
 11
7.948515
 21
4.05018
 31
0.0
210
0.0
220
0.0
230
1.0
  0
LINE
  5
322
100
AcDbEntity
  8
0
370
    35
390
0
 62
     7
 48
0.000033
100
AcDbLine
 10
7.948515
 20
4.05018
 30
0.0
 11
7.949762
 21
4.050623
 31
0.0
210
0.0
220
0.0
230
1.0
  0
LINE
  5
323
100
AcDbEntity
  8
0
370
    35
390
0
 62
     7
 48
0.000035
100
AcDbLine
 10
7.949762
 20
4.050623
 30
0.0
 11
7.951104
 21
4.051042
 31
0.0
210
0.0
220
0.0
230
1.0
  0
LINE
  5
324
100
AcDbEntity
  8
0
370
    35
390
0
 62
     7
 48
0.000037
100
AcDbLine
 10
7.951104
 20
4.051042
 30
0.0
 11
7.952541
 21
4.051439
 31
0.0
210
0.0
220
0.0
230
1.0
  0
LINE
  5
325
100
AcDbEntity
  8
0
370
    35
390
0
 62
     7
 48
0.000039
100
AcDbLine
 10
7.952541
 20
4.051439
 30
0.0
 11
7.954074
 21
4.051814
 31
0.0
210
0.0
220
0.0
230
1.0
  0
LINE
  5
326
100
AcDbEntity
  8
0
370
    35
390
0
 62
     7
 48
0.000042
100
AcDbLine
 10
7.954074
 20
4.051814
 30
0.0
 11
7.955702
 21
4.052166
 31
0.0
210
0.0
220
0.0
230
1.0
  0
LINE
  5
327
100
AcDbEntity
  8
0
370
    35
390
0
 62
     7
 48
0.000044
100
AcDbLine
 10
7.955702
 20
4.052166
 30
0.0
 11
7.957426
 21
4.052496
 31
0.0
210
0.0
220
0.0
230
1.0
  0
LINE
  5
328
100
AcDbEntity
  8
0
370
    35
390
0
 62
     7
 48
0.000046
100
AcDbLine
 10
7.957426
 20
4.052496
 30
0.0
 11
7.959244
 21
4.052803
 31
0.0
210
0.0
220
0.0
230
1.0
  0
LINE
  5
329
100
AcDbEntity
  8
0
370
    35
390
0
 62
     7
 48
0.000048
100
AcDbLine
 10
7.959244
 20
4.052803
 30
0.0
 11
7.961158
 21
4.053088
 31
0.0
210
0.0
220
0.0
230
1.0
  0
LINE
  5
32A
100
AcDbEntity
  8
0
370
    35
390
0
 62
     7
 48
0.000051
100
AcDbLine
 10
7.961158
 20
4.053088
 30
0.0
 11
7.963168
 21
4.05335
 31
0.0
210
0.0
220
0.0
230
1.0
  0
LINE
  5
32B
100
AcDbEntity
  8
0
370
    35
390
0
 62
     7
 48
0.000053
100
AcDbLine
 10
7.963168
 20
4.05335
 30
0.0
 11
7.965272
 21
4.05359
 31
0.0
210
0.0
220
0.0
230
1.0
  0
LINE
  5
32C
100
AcDbEntity
  8
0
370
    35
390
0
 62
     7
 48
0.000015
100
AcDbLine
 10
7.965272
 20
4.05359
 30
0.0
 11
7.965636
 21
4.053129
 31
0.0
210
0.0
220
0.0
230
1.0
  0
LINE
  5
32D
100
AcDbEntity
  8
0
370
    35
390
0
 62
     7
 48
0.000054
100
AcDbLine
 10
7.965636
 20
4.053129
 30
0.0
 11
7.963477
 21
4.052841
 31
0.0
210
0.0
220
0.0
230
1.0
  0
LINE
  5
32E
100
AcDbEntity
  8
0
370
    35
390
0
 62
     7
 48
0.000023
100
AcDbLine
 10
7.930125
 20
4.042902
 30
0.0
 11
7.929341
 21
4.043406
 31
0.0
210
0.0
220
0.0
230
1.0
  0
LINE
  5
32F
100
AcDbEntity
  8
0
370
    35
390
0
 62
     7
 48
0.000344
100
AcDbLine
 10
7.929341
 20
4.043406
 30
0.0
 11
7.941049
 21
4.050661
 31
0.0
210
0.0
220
0.0
230
1.0
  0
LINE
  5
330
100
AcDbEntity
  8
0
370
    35
390
0
 62
     7
 48
0.000023
100
AcDbLine
 10
7.941049
 20
4.050661
 30
0.0
 11
7.941833
 21
4.050156
 31
0.0
210
0.0
220
0.0
230
1.0
  0
LINE
  5
331
100
AcDbEntity
  8
0
370
    35
390
0
 62
     7
 48
0.000344
100
AcDbLine
 10
7.941833
 20
4.050156
 30
0.0
 11
7.930125
 21
4.042902
 31
0.0
210
0.0
220
0.0
230
1.0
  0
LINE
  5
332
100
AcDbEntity
  8
0
370
    35
390
0
 62
     7
 48
0.000341
100
AcDbLine
 10
7.916058
 20
4.048819
 30
0.0
 11
7.904459
 21
4.041632
 31
0.0
210
0.0
220
0.0
230
1.0
  0
LINE
  5
333
100
AcDbEntity
  8
0
370
    35
390
0
 62
     7
 48
0.000145
100
AcDbLine
 10
7.904459
 20
4.041632
 30
0.0
 11
7.906612
 21
4.03626
 31
0.0
210
0.0
220
0.0
230
1.0
  0
LINE
  5
334
100
AcDbEntity
  8
0
370
    35
390
0
 62
     7
 48
0.000678
100
AcDbLine
 10
7.906612
 20
4.03626
 30
0.0
 11
7.88009
 21
4.041891
 31
0.0
210
0.0
220
0.0
230
1.0
  0
LINE
  5
335
100
AcDbEntity
  8
0
370
    35
390
0
 62
     7
 48
0.00002
100
AcDbLine
 10
7.88009
 20
4.041891
 30
0.0
 11
7.879677
 21
4.042587
 31
0.0
210
0.0
220
0.0
230
1.0
  0
LINE
  5
336
100
AcDbEntity
  8
0
370
    35
390
0
 62
     7
 48
0.000642
100
AcDbLine
 10
7.879677
 20
4.042587
 30
0.0
 11
7.904779
 21
4.037258
 31
0.0
210
0.0
220
0.0
230
1.0
  0
LINE
  5
337
100
AcDbEntity
  8
0
370
    35
390
0
 62
     7
 48
0.000119
100
AcDbLine
 10
7.904779
 20
4.037258
 30
0.0
 11
7.902989
 21
4.041674
 31
0.0
210
0.0
220
0.0
230
1.0
  0
LINE
  5
338
100
AcDbEntity
  8
0
370
    35
390
0
 62
     7
 48
0.000372
100
AcDbLine
 10
7.902989
 20
4.041674
 30
0.0
 11
7.915645
 21
4.049516
 31
0.0
210
0.0
220
0.0
230
1.0
  0
LINE
  5
339
100
AcDbEntity
  8
0
370
    35
390
0
 62
     7
 48
0.000235
100
AcDbLine
 10
7.915645
 20
4.049516
 30
0.0
 11
7.924852
 21
4.047561
 31
0.0
210
0.0
220
0.0
230
1.0
  0
LINE
  5
33A
100
AcDbEntity
  8
0
370
    35
390
0
 62
     7
 48
0.000024
100
AcDbLine
 10
7.924852
 20
4.047561
 30
0.0
 11
7.925449
 21
4.046826
 31
0.0
210
0.0
220
0.0
230
1.0
  0
LINE
  5
33B
100
AcDbEntity
  8
0
370
    35
390
0
 62
     7
 48
0.00024
100
AcDbLine
 10
7.925449
 20
4.046826
 30
0.0
 11
7.916058
 21
4.048819
 31
0.0
210
0.0
220
0.0
230
1.0
  0
ELLIPSE
  5
33C
100
AcDbEntity
  8
0
370
    35
390
0
 62
     7
 48
0.03937
100
AcDbEllipse
 10
7.948901
 20
4.088745
 30
0.0
 11
0.0073813623896464
 21
0.0000288465643824
 31
0.0
210
0.0
220
0.0
230
1.0
 40
0.364583
 41
0.0000000540707226
 42
3.1415927076605157
  0
ELLIPSE
  5
33D
100
AcDbEntity
  8
0
370
    35
390
0
 62
     7
 48
0.03937
100
AcDbEllipse
 10
7.948901
 20
4.088745
 30
0.0
 11
0.0073813623896464
 21
0.0000288465643824
 31
0.0
210
0.0
220
0.0
230
1.0
 40
0.364583
 41
3.1415927076605157
 42
5.7474983606722532
  0
ELLIPSE
  5
33E
100
AcDbEntity
  8
0
370
    35
390
0
 62
     7
 48
0.03937
100
AcDbEllipse
 10
7.948901
 20
4.088745
 30
0.0
 11
0.0073813623896464
 21
0.0000288465643824
 31
0.0
210
0.0
220
0.0
230
1.0
 40
0.364583
 41
5.7474983606722585
 42
6.2831853612503084
  0
ELLIPSE
  5
33F
100
AcDbEntity
  8
0
370
    35
390
0
 62
     7
 48
0.03937
100
AcDbEllipse
 10
7.987164
 20
4.034499
 30
0.0
 11
0.0073813623896464
 21
0.0000288465643824
 31
0.0
210
0.0
220
0.0
230
1.0
 40
0.364583
 41
0.0000000540707226
 42
3.1415927076605161
  0
ELLIPSE
  5
340
100
AcDbEntity
  8
0
370
    35
390
0
 62
     7
 48
0.03937
100
AcDbEllipse
 10
7.987164
 20
4.034499
 30
0.0
 11
0.0073813623896464
 21
0.0000288465643824
 31
0.0
210
0.0
220
0.0
230
1.0
 40
0.364583
 41
3.1415927076605157
 42
5.7474983606722585
  0
ELLIPSE
  5
341
100
AcDbEntity
  8
0
370
    35
390
0
 62
     7
 48
0.03937
100
AcDbEllipse
 10
7.987164
 20
4.034499
 30
0.0
 11
0.0073813623896464
 21
0.0000288465643824
 31
0.0
210
0.0
220
0.0
230
1.0
 40
0.364583
 41
5.7474983606722585
 42
6.2831853612503092
  0
ELLIPSE
  5
342
100
AcDbEntity
  8
0
370
    35
390
0
 62
     7
 48
0.03937
100
AcDbEllipse
 10
7.998921
 20
4.064616
 30
0.0
 11
0.0073813623896464
 21
0.0000288465643824
 31
0.0
210
0.0
220
0.0
230
1.0
 40
0.364583
 41
0.0000000540707226
 42
3.1415927076605161
  0
ELLIPSE
  5
343
100
AcDbEntity
  8
0
370
    35
390
0
 62
     7
 48
0.03937
100
AcDbEllipse
 10
7.998921
 20
4.064616
 30
0.0
 11
0.0073813623896464
 21
0.0000288465643824
 31
0.0
210
0.0
220
0.0
230
1.0
 40
0.364583
 41
3.1415927076605157
 42
5.7474983606722585
  0
ELLIPSE
  5
344
100
AcDbEntity
  8
0
370
    35
390
0
 62
     7
 48
0.03937
100
AcDbEllipse
 10
7.998921
 20
4.064616
 30
0.0
 11
0.0073813623896464
 21
0.0000288465643824
 31
0.0
210
0.0
220
0.0
230
1.0
 40
0.364583
 41
5.7474983606722585
 42
6.2831853612503092
  0
ELLIPSE
  5
345
100
AcDbEntity
  8
0
370
    35
390
0
 62
     7
 48
0.03937
100
AcDbEllipse
 10
7.838021
 20
4.020043
 30
0.0
 11
0.0073813623896464
 21
0.0000288465643824
 31
0.0
210
0.0
220
0.0
230
1.0
 40
0.364583
 41
0.0000000540707226
 42
3.1415927076605157
  0
ELLIPSE
  5
346
100
AcDbEntity
  8
0
370
    35
390
0
 62
     7
 48
0.03937
100
AcDbEllipse
 10
7.838021
 20
4.020043
 30
0.0
 11
0.0073813623896464
 21
0.0000288465643824
 31
0.0
210
0.0
220
0.0
230
1.0
 40
0.364583
 41
3.1415927076605157
 42
5.7474983606722585
  0
ELLIPSE
  5
347
100
AcDbEntity
  8
0
370
    35
390
0
 62
     7
 48
0.03937
100
AcDbEllipse
 10
7.838021
 20
4.020043
 30
0.0
 11
0.0073813623896464
 21
0.0000288465643824
 31
0.0
210
0.0
220
0.0
230
1.0
 40
0.364583
 41
5.7474983606722585
 42
6.2831853612503084
  0
ELLIPSE
  5
348
100
AcDbEntity
  8
0
370
    35
390
0
 62
     7
 48
0.03937
100
AcDbEllipse
 10
7.920517
 20
4.016036
 30
0.0
 11
0.0073813623896464
 21
0.0000288465643824
 31
0.0
210
0.0
220
0.0
230
1.0
 40
0.364583
 41
0.0000000540707226
 42
3.1415927076605161
  0
ELLIPSE
  5
349
100
AcDbEntity
  8
0
370
    35
390
0
 62
     7
 48
0.03937
100
AcDbEllipse
 10
7.920517
 20
4.016036
 30
0.0
 11
0.0073813623896464
 21
0.0000288465643824
 31
0.0
210
0.0
220
0.0
230
1.0
 40
0.364583
 41
3.1415927076605157
 42
5.7474983606722585
  0
ELLIPSE
  5
34A
100
AcDbEntity
  8
0
370
    35
390
0
 62
     7
 48
0.03937
100
AcDbEllipse
 10
7.920517
 20
4.016036
 30
0.0
 11
0.0073813623896464
 21
0.0000288465643824
 31
0.0
210
0.0
220
0.0
230
1.0
 40
0.364583
 41
5.7474983606722585
 42
6.2831853612503092
  0
ELLIPSE
  5
34B
100
AcDbEntity
  8
0
370
    35
390
0
 62
     7
 48
0.03937
100
AcDbEllipse
 10
7.799758
 20
4.074289
 30
0.0
 11
0.0073813623896464
 21
0.0000288465643824
 31
0.0
210
0.0
220
0.0
230
1.0
 40
0.364583
 41
3.1415927076605157
 42
6.2831853612503039
  0
ELLIPSE
  5
34C
100
AcDbEntity
  8
0
370
    35
390
0
 62
     7
 48
0.03937
100
AcDbEllipse
 10
7.799758
 20
4.074289
 30
0.0
 11
0.0073813623896464
 21
0.0000288465643824
 31
0.0
210
0.0
220
0.0
230
1.0
 40
0.364583
 41
0.0000000540707183
 42
2.6059057070824632
  0
ELLIPSE
  5
34D
100
AcDbEntity
  8
0
370
    35
390
0
 62
     7
 48
0.03937
100
AcDbEllipse
 10
7.799758
 20
4.074289
 30
0.0
 11
0.0073813623896464
 21
0.0000288465643824
 31
0.0
210
0.0
220
0.0
230
1.0
 40
0.364583
 41
2.6059057070824632
 42
3.1415927076605157
  0
ELLIPSE
  5
34E
100
AcDbEntity
  8
0
370
    35
390
0
 62
     7
 48
0.03937
100
AcDbEllipse
 10
7.866405
 20
4.092752
 30
0.0
 11
0.0073813623896464
 21
0.0000288465643824
 31
0.0
210
0.0
220
0.0
230
1.0
 40
0.364583
 41
3.1415927076605157
 42
6.2831853612503039
  0
ELLIPSE
  5
34F
100
AcDbEntity
  8
0
370
    35
390
0
 62
     7
 48
0.03937
100
AcDbEllipse
 10
7.866405
 20
4.092752
 30
0.0
 11
0.0073813623896464
 21
0.0000288465643824
 31
0.0
210
0.0
220
0.0
230
1.0
 40
0.364583
 41
0.0000000540707183
 42
2.6059057070824632
  0
ELLIPSE
  5
350
100
AcDbEntity
  8
0
370
    35
390
0
 62
     7
 48
0.03937
100
AcDbEllipse
 10
7.866405
 20
4.092752
 30
0.0
 11
0.0073813623896464
 21
0.0000288465643824
 31
0.0
210
0.0
220
0.0
230
1.0
 40
0.364583
 41
2.6059057070824632
 42
3.1415927076605157
  0
ELLIPSE
  5
351
100
AcDbEntity
  8
0
370
    35
390
0
 62
     7
 48
0.03937
100
AcDbEllipse
 10
7.788001
 20
4.044172
 30
0.0
 11
0.0073813623896464
 21
0.0000288465643824
 31
0.0
210
0.0
220
0.0
230
1.0
 40
0.364583
 41
3.1415927076605157
 42
6.2831853612503092
  0
ELLIPSE
  5
352
100
AcDbEntity
  8
0
370
    35
390
0
 62
     7
 48
0.03937
100
AcDbEllipse
 10
7.788001
 20
4.044172
 30
0.0
 11
0.0073813623896464
 21
0.0000288465643824
 31
0.0
210
0.0
220
0.0
230
1.0
 40
0.364583
 41
0.0000000540707226
 42
2.6059057070824614
  0
ELLIPSE
  5
353
100
AcDbEntity
  8
0
370
    35
390
0
 62
     7
 48
0.03937
100
AcDbEllipse
 10
7.788001
 20
4.044172
 30
0.0
 11
0.0073813623896464
 21
0.0000288465643824
 31
0.0
210
0.0
220
0.0
230
1.0
 40
0.364583
 41
2.6059057070824654
 42
3.1415927076605157
  0
LINE
  5
354
100
AcDbEntity
  8
0
370
    35
390
0
 62
     7
 48
0.000033
100
AcDbLine
 10
7.918948
 20
4.061509
 30
0.0
 11
7.918953
 21
4.060174
 31
0.0
210
0.0
220
0.0
230
1.0
  0
LINE
  5
355
100
AcDbEntity
  8
0
370
    35
390
0
 62
     7
 48
0.000336
100
AcDbLine
 10
7.907516
 20
4.053088
 30
0.0
 11
7.918953
 21
4.060174
 31
0.0
210
0.0
220
0.0
230
1.0
  0
LINE
  5
356
100
AcDbEntity
  8
0
370
    35
390
0
 62
     7
 48
0.000037
100
AcDbLine
 10
7.906067
 20
4.053315
 30
0.0
 11
7.907516
 21
4.053088
 31
0.0
210
0.0
220
0.0
230
1.0
  0
LINE
  5
357
100
AcDbEntity
  8
0
370
    35
390
0
 62
     7
 48
0.000036
100
AcDbLine
 10
7.904653
 20
4.053481
 30
0.0
 11
7.906067
 21
4.053315
 31
0.0
210
0.0
220
0.0
230
1.0
  0
LINE
  5
358
100
AcDbEntity
  8
0
370
    35
390
0
 62
     7
 48
0.000035
100
AcDbLine
 10
7.903273
 20
4.053587
 30
0.0
 11
7.904653
 21
4.053481
 31
0.0
210
0.0
220
0.0
230
1.0
  0
LINE
  5
359
100
AcDbEntity
  8
0
370
    35
390
0
 62
     7
 48
0.000025
100
AcDbLine
 10
7.902291
 20
4.05362
 30
0.0
 11
7.903273
 21
4.053587
 31
0.0
210
0.0
220
0.0
230
1.0
  0
LINE
  5
35A
100
AcDbEntity
  8
0
370
    35
390
0
 62
     7
 48
0.000037
100
AcDbLine
 10
7.903966
 20
4.050888
 30
0.0
 11
7.90524
 21
4.051677
 31
0.0
210
0.0
220
0.0
230
1.0
  0
LINE
  5
35B
100
AcDbEntity
  8
0
370
    35
390
0
 62
     7
 48
0.000019
100
AcDbLine
 10
7.903232
 20
4.051032
 30
0.0
 11
7.903966
 21
4.050888
 31
0.0
210
0.0
220
0.0
230
1.0
  0
LINE
  5
35C
100
AcDbEntity
  8
0
370
    35
390
0
 62
     7
 48
0.000343
100
AcDbLine
 10
7.89158
 20
4.043214
 30
0.0
 11
7.903234
 21
4.050435
 31
0.0
210
0.0
220
0.0
230
1.0
  0
LINE
  5
35D
100
AcDbEntity
  8
0
370
    35
390
0
 62
     7
 48
0.00015
100
AcDbLine
 10
7.885589
 20
4.042888
 30
0.0
 11
7.89158
 21
4.043214
 31
0.0
210
0.0
220
0.0
230
1.0
  0
LINE
  5
35E
100
AcDbEntity
  8
0
370
    35
390
0
 62
     7
 48
0.000057
100
AcDbLine
 10
7.900741
 20
4.041269
 30
0.0
 11
7.902017
 21
4.0394
 31
0.0
210
0.0
220
0.0
230
1.0
  0
LINE
  5
35F
100
AcDbEntity
  8
0
370
    35
390
0
 62
     7
 48
0.000234
100
AcDbLine
 10
7.927534
 20
4.048838
 30
0.0
 11
7.936831
 21
4.049838
 31
0.0
210
0.0
220
0.0
230
1.0
  0
LINE
  5
360
100
AcDbEntity
  8
0
370
    35
390
0
 62
     7
 48
0.000177
100
AcDbLine
 10
7.920617
 20
4.050306
 30
0.0
 11
7.927534
 21
4.048838
 31
0.0
210
0.0
220
0.0
230
1.0
  0
LINE
  5
361
100
AcDbEntity
  8
0
370
    35
390
0
 62
     7
 48
0.000034
100
AcDbLine
 10
7.919472
 20
4.050549
 30
0.0
 11
7.920613
 21
4.051256
 31
0.0
210
0.0
220
0.0
230
1.0
  0
LINE
  5
362
100
AcDbEntity
  8
0
370
    35
390
0
 62
     7
 48
0.000071
100
AcDbLine
 10
7.916677
 20
4.051143
 30
0.0
 11
7.919472
 21
4.050549
 31
0.0
210
0.0
220
0.0
230
1.0
  0
LINE
  5
363
100
AcDbEntity
  8
0
370
    35
390
0
 62
     7
 48
0.000006
100
AcDbLine
 10
7.948337
 20
4.051499
 30
0.0
 11
7.94834
 21
4.051725
 31
0.0
210
0.0
220
0.0
230
1.0
  0
LINE
  5
364
100
AcDbEntity
  8
0
370
    35
390
0
 62
     7
 48
0.001092
100
AcDbLine
 10
7.917492
 20
4.063393
 30
0.0
 11
7.960223
 21
4.054321
 31
0.0
210
0.0
220
0.0
230
1.0
  0
LINE
  5
365
100
AcDbEntity
  8
0
370
    35
390
0
 62
     7
 48
0.000033
100
AcDbLine
 10
7.907511
 20
4.054422
 30
0.0
 11
7.907516
 21
4.053088
 31
0.0
210
0.0
220
0.0
230
1.0
  0
LINE
  5
366
100
AcDbEntity
  8
0
370
    35
390
0
 62
     7
 48
0.000033
100
AcDbLine
 10
7.906061
 20
4.054649
 30
0.0
 11
7.906067
 21
4.053315
 31
0.0
210
0.0
220
0.0
230
1.0
  0
LINE
  5
367
100
AcDbEntity
  8
0
370
    35
390
0
 62
     7
 48
0.000033
100
AcDbLine
 10
7.904647
 20
4.054815
 30
0.0
 11
7.904653
 21
4.053481
 31
0.0
210
0.0
220
0.0
230
1.0
  0
LINE
  5
368
100
AcDbEntity
  8
0
370
    35
390
0
 62
     7
 48
0.000033
100
AcDbLine
 10
7.903268
 20
4.054921
 30
0.0
 11
7.903273
 21
4.053587
 31
0.0
210
0.0
220
0.0
230
1.0
  0
LINE
  5
369
100
AcDbEntity
  8
0
370
    35
390
0
 62
     7
 48
0.000033
100
AcDbLine
 10
7.901924
 20
4.054966
 30
0.0
 11
7.901929
 21
4.053632
 31
0.0
210
0.0
220
0.0
230
1.0
  0
LINE
  5
36A
100
AcDbEntity
  8
0
370
    35
390
0
 62
     7
 48
0.000029
100
AcDbLine
 10
7.900615
 20
4.054951
 30
0.0
 11
7.900619
 21
4.053797
 31
0.0
210
0.0
220
0.0
230
1.0
  0
LINE
  5
36B
100
AcDbEntity
  8
0
370
    35
390
0
 62
     7
 48
0.000025
100
AcDbLine
 10
7.89934
 20
4.054875
 30
0.0
 11
7.899344
 21
4.053863
 31
0.0
210
0.0
220
0.0
230
1.0
  0
LINE
  5
36C
100
AcDbEntity
  8
0
370
    35
390
0
 62
     7
 48
0.000022
100
AcDbLine
 10
7.898101
 20
4.054738
 30
0.0
 11
7.898104
 21
4.053869
 31
0.0
210
0.0
220
0.0
230
1.0
  0
LINE
  5
36D
100
AcDbEntity
  8
0
370
    35
390
0
 62
     7
 48
0.000018
100
AcDbLine
 10
7.896896
 20
4.05454
 30
0.0
 11
7.896899
 21
4.05383
 31
0.0
210
0.0
220
0.0
230
1.0
  0
LINE
  5
36E
100
AcDbEntity
  8
0
370
    35
390
0
 62
     7
 48
0.000013
100
AcDbLine
 10
7.895727
 20
4.054282
 30
0.0
 11
7.895729
 21
4.053752
 31
0.0
210
0.0
220
0.0
230
1.0
  0
LINE
  5
36F
100
AcDbEntity
  8
0
370
    35
390
0
 62
     7
 48
0.000008
100
AcDbLine
 10
7.894593
 20
4.053963
 30
0.0
 11
7.894594
 21
4.053639
 31
0.0
210
0.0
220
0.0
230
1.0
  0
LINE
  5
370
100
AcDbEntity
  8
0
370
    35
390
0
 62
     7
 48
0.000033
100
AcDbLine
 10
7.905234
 20
4.053012
 30
0.0
 11
7.90524
 21
4.051677
 31
0.0
210
0.0
220
0.0
230
1.0
  0
LINE
  5
371
100
AcDbEntity
  8
0
370
    35
390
0
 62
     7
 48
0.000033
100
AcDbLine
 10
7.90396
 20
4.052222
 30
0.0
 11
7.903966
 21
4.050888
 31
0.0
210
0.0
220
0.0
230
1.0
  0
LINE
  5
372
100
AcDbEntity
  8
0
370
    35
390
0
 62
     7
 48
0.000015
100
AcDbLine
 10
7.903081
 20
4.052395
 30
0.0
 11
7.903083
 21
4.051797
 31
0.0
210
0.0
220
0.0
230
1.0
  0
LINE
  5
373
100
AcDbEntity
  8
0
370
    35
390
0
 62
     7
 48
0.000015
100
AcDbLine
 10
7.902202
 20
4.052538
 30
0.0
 11
7.902204
 21
4.051957
 31
0.0
210
0.0
220
0.0
230
1.0
  0
LINE
  5
374
100
AcDbEntity
  8
0
370
    35
390
0
 62
     7
 48
0.000014
100
AcDbLine
 10
7.901323
 20
4.052653
 30
0.0
 11
7.901325
 21
4.05208
 31
0.0
210
0.0
220
0.0
230
1.0
  0
LINE
  5
375
100
AcDbEntity
  8
0
370
    35
390
0
 62
     7
 48
0.000014
100
AcDbLine
 10
7.900443
 20
4.052738
 30
0.0
 11
7.900445
 21
4.052169
 31
0.0
210
0.0
220
0.0
230
1.0
  0
LINE
  5
376
100
AcDbEntity
  8
0
370
    35
390
0
 62
     7
 48
0.000014
100
AcDbLine
 10
7.899565
 20
4.052795
 30
0.0
 11
7.899567
 21
4.052226
 31
0.0
210
0.0
220
0.0
230
1.0
  0
LINE
  5
377
100
AcDbEntity
  8
0
370
    35
390
0
 62
     7
 48
0.000014
100
AcDbLine
 10
7.898686
 20
4.052823
 30
0.0
 11
7.898688
 21
4.05225
 31
0.0
210
0.0
220
0.0
230
1.0
  0
LINE
  5
378
100
AcDbEntity
  8
0
370
    35
390
0
 62
     7
 48
0.000014
100
AcDbLine
 10
7.897807
 20
4.052822
 30
0.0
 11
7.897809
 21
4.052246
 31
0.0
210
0.0
220
0.0
230
1.0
  0
LINE
  5
379
100
AcDbEntity
  8
0
370
    35
390
0
 62
     7
 48
0.000014
100
AcDbLine
 10
7.896929
 20
4.052792
 30
0.0
 11
7.896931
 21
4.052214
 31
0.0
210
0.0
220
0.0
230
1.0
  0
LINE
  5
37A
100
AcDbEntity
  8
0
370
    35
390
0
 62
     7
 48
0.000014
100
AcDbLine
 10
7.89605
 20
4.052733
 30
0.0
 11
7.896052
 21
4.052157
 31
0.0
210
0.0
220
0.0
230
1.0
  0
LINE
  5
37B
100
AcDbEntity
  8
0
370
    35
390
0
 62
     7
 48
0.000033
100
AcDbLine
 10
7.903229
 20
4.051769
 30
0.0
 11
7.903234
 21
4.050435
 31
0.0
210
0.0
220
0.0
230
1.0
  0
LINE
  5
37C
100
AcDbEntity
  8
0
370
    35
390
0
 62
     7
 48
0.000033
100
AcDbLine
 10
7.891575
 20
4.044548
 30
0.0
 11
7.89158
 21
4.043214
 31
0.0
210
0.0
220
0.0
230
1.0
  0
LINE
  5
37D
100
AcDbEntity
  8
0
370
    35
390
0
 62
     7
 48
0.000033
100
AcDbLine
 10
7.900736
 20
4.042603
 30
0.0
 11
7.900741
 21
4.041269
 31
0.0
210
0.0
220
0.0
230
1.0
  0
LINE
  5
37E
100
AcDbEntity
  8
0
370
    35
390
0
 62
     7
 48
0.000033
100
AcDbLine
 10
7.927528
 20
4.050172
 30
0.0
 11
7.927534
 21
4.048838
 31
0.0
210
0.0
220
0.0
230
1.0
  0
LINE
  5
37F
100
AcDbEntity
  8
0
370
    35
390
0
 62
     7
 48
0.000033
100
AcDbLine
 10
7.920612
 20
4.051641
 30
0.0
 11
7.920617
 21
4.050306
 31
0.0
210
0.0
220
0.0
230
1.0
  0
LINE
  5
380
100
AcDbEntity
  8
0
370
    35
390
0
 62
     7
 48
0.000017
100
AcDbLine
 10
7.94677
 20
4.053959
 30
0.0
 11
7.946773
 21
4.05326
 31
0.0
210
0.0
220
0.0
230
1.0
  0
LINE
  5
381
100
AcDbEntity
  8
0
370
    35
390
0
 62
     7
 48
0.000019
100
AcDbLine
 10
7.946383
 20
4.0544
 30
0.0
 11
7.946386
 21
4.053658
 31
0.0
210
0.0
220
0.0
230
1.0
  0
LINE
  5
382
100
AcDbEntity
  8
0
370
    35
390
0
 62
     7
 48
0.000018
100
AcDbLine
 10
7.9458
 20
4.054834
 30
0.0
 11
7.945802
 21
4.054123
 31
0.0
210
0.0
220
0.0
230
1.0
  0
LINE
  5
383
100
AcDbEntity
  8
0
370
    35
390
0
 62
     7
 48
0.000017
100
AcDbLine
 10
7.945018
 20
4.055263
 30
0.0
 11
7.945021
 21
4.054598
 31
0.0
210
0.0
220
0.0
230
1.0
  0
LINE
  5
384
100
AcDbEntity
  8
0
370
    35
390
0
 62
     7
 48
0.000016
100
AcDbLine
 10
7.944038
 20
4.055687
 30
0.0
 11
7.94404
 21
4.055057
 31
0.0
210
0.0
220
0.0
230
1.0
  0
LINE
  5
385
100
AcDbEntity
  8
0
370
    35
390
0
 62
     7
 48
0.000016
100
AcDbLine
 10
7.942861
 20
4.056104
 30
0.0
 11
7.942863
 21
4.055484
 31
0.0
210
0.0
220
0.0
230
1.0
  0
LINE
  5
386
100
AcDbEntity
  8
0
370
    35
390
0
 62
     7
 48
0.000016
100
AcDbLine
 10
7.941486
 20
4.056515
 30
0.0
 11
7.941488
 21
4.055891
 31
0.0
210
0.0
220
0.0
230
1.0
  0
LINE
  5
387
100
AcDbEntity
  8
0
370
    35
390
0
 62
     7
 48
0.000016
100
AcDbLine
 10
7.939913
 20
4.056921
 30
0.0
 11
7.939915
 21
4.0563
 31
0.0
210
0.0
220
0.0
230
1.0
  0
LINE
  5
388
100
AcDbEntity
  8
0
370
    35
390
0
 62
     7
 48
0.000015
100
AcDbLine
 10
7.938143
 20
4.05732
 30
0.0
 11
7.938145
 21
4.056719
 31
0.0
210
0.0
220
0.0
230
1.0
  0
LINE
  5
389
100
AcDbEntity
  8
0
370
    35
390
0
 62
     7
 48
0.000015
100
AcDbLine
 10
7.936872
 20
4.057588
 30
0.0
 11
7.936874
 21
4.057001
 31
0.0
210
0.0
220
0.0
230
1.0
  0
LINE
  5
38A
100
AcDbEntity
  8
0
370
    35
390
0
 62
     7
 48
0.000014
100
AcDbLine
 10
7.935624
 20
4.057845
 30
0.0
 11
7.935626
 21
4.057266
 31
0.0
210
0.0
220
0.0
230
1.0
  0
LINE
  5
38B
100
AcDbEntity
  8
0
370
    35
390
0
 62
     7
 48
0.000014
100
AcDbLine
 10
7.934398
 20
4.058091
 30
0.0
 11
7.9344
 21
4.057512
 31
0.0
210
0.0
220
0.0
230
1.0
  0
LINE
  5
38C
100
AcDbEntity
  8
0
370
    35
390
0
 62
     7
 48
0.000015
100
AcDbLine
 10
7.933195
 20
4.058328
 30
0.0
 11
7.933198
 21
4.057739
 31
0.0
210
0.0
220
0.0
230
1.0
  0
LINE
  5
38D
100
AcDbEntity
  8
0
370
    35
390
0
 62
     7
 48
0.000024
100
AcDbLine
 10
7.93066
 20
4.058819
 30
0.0
 11
7.930664
 21
4.057869
 31
0.0
210
0.0
220
0.0
230
1.0
  0
LINE
  5
38E
100
AcDbEntity
  8
0
370
    35
390
0
 62
     7
 48
0.000033
100
AcDbLine
 10
7.919467
 20
4.051884
 30
0.0
 11
7.919472
 21
4.050549
 31
0.0
210
0.0
220
0.0
230
1.0
  0
LINE
  5
38F
100
AcDbEntity
  8
0
370
    35
390
0
 62
     7
 48
0.000033
100
AcDbLine
 10
7.916672
 20
4.052477
 30
0.0
 11
7.916677
 21
4.051143
 31
0.0
210
0.0
220
0.0
230
1.0
  0
LINE
  5
390
100
AcDbEntity
  8
0
370
    35
390
0
 62
     7
 48
0.000033
100
AcDbLine
 10
7.948335
 20
4.053059
 30
0.0
 11
7.94834
 21
4.051725
 31
0.0
210
0.0
220
0.0
230
1.0
  0
LINE
  5
391
100
AcDbEntity
  8
0
370
    35
390
0
 62
     7
 48
0.000026
100
AcDbLine
 10
7.948329
 20
4.052555
 30
0.0
 11
7.948333
 21
4.051498
 31
0.0
210
0.0
220
0.0
230
1.0
  0
LINE
  5
392
100
AcDbEntity
  8
0
370
    35
390
0
 62
     7
 48
0.000013
100
AcDbLine
 10
7.948272
 20
4.052019
 30
0.0
 11
7.948275
 21
4.051481
 31
0.0
210
0.0
220
0.0
230
1.0
  0
LINE
  5
393
100
AcDbEntity
  8
0
370
    35
390
0
 62
     7
 48
0.000033
100
AcDbLine
 10
7.856897
 20
4.077366
 30
0.0
 11
7.856903
 21
4.076032
 31
0.0
210
0.0
220
0.0
230
1.0
  0
LINE
  5
394
100
AcDbEntity
  8
0
370
    35
390
0
 62
     7
 48
0.001328
100
AcDbLine
 10
7.856903
 20
4.076032
 30
0.0
 11
7.908912
 21
4.065202
 31
0.0
210
0.0
220
0.0
230
1.0
  0
LINE
  5
395
100
AcDbEntity
  8
0
370
    35
390
0
 62
     7
 48
0.000019
100
AcDbLine
 10
7.856788
 20
4.075293
 30
0.0
 11
7.856903
 21
4.076032
 31
0.0
210
0.0
220
0.0
230
1.0
  0
LINE
  5
396
100
AcDbEntity
  8
0
370
    35
390
0
 62
     7
 48
0.000018
100
AcDbLine
 10
7.856647
 20
4.074573
 30
0.0
 11
7.856788
 21
4.075293
 31
0.0
210
0.0
220
0.0
230
1.0
  0
LINE
  5
397
100
AcDbEntity
  8
0
370
    35
390
0
 62
     7
 48
0.000018
100
AcDbLine
 10
7.85648
 20
4.073874
 30
0.0
 11
7.856647
 21
4.074573
 31
0.0
210
0.0
220
0.0
230
1.0
  0
LINE
  5
398
100
AcDbEntity
  8
0
370
    35
390
0
 62
     7
 48
0.000018
100
AcDbLine
 10
7.856288
 20
4.073194
 30
0.0
 11
7.85648
 21
4.073874
 31
0.0
210
0.0
220
0.0
230
1.0
  0
LINE
  5
399
100
AcDbEntity
  8
0
370
    35
390
0
 62
     7
 48
0.000017
100
AcDbLine
 10
7.85607
 20
4.072534
 30
0.0
 11
7.856288
 21
4.073194
 31
0.0
210
0.0
220
0.0
230
1.0
  0
LINE
  5
39A
100
AcDbEntity
  8
0
370
    35
390
0
 62
     7
 48
0.000017
100
AcDbLine
 10
7.855826
 20
4.071894
 30
0.0
 11
7.85607
 21
4.072534
 31
0.0
210
0.0
220
0.0
230
1.0
  0
LINE
  5
39B
100
AcDbEntity
  8
0
370
    35
390
0
 62
     7
 48
0.000017
100
AcDbLine
 10
7.855556
 20
4.071274
 30
0.0
 11
7.855826
 21
4.071894
 31
0.0
210
0.0
220
0.0
230
1.0
  0
LINE
  5
39C
100
AcDbEntity
  8
0
370
    35
390
0
 62
     7
 48
0.000011
100
AcDbLine
 10
7.855356
 20
4.070866
 30
0.0
 11
7.855556
 21
4.071274
 31
0.0
210
0.0
220
0.0
230
1.0
  0
LINE
  5
39D
100
AcDbEntity
  8
0
370
    35
390
0
 62
     7
 48
0.000049
100
AcDbLine
 10
7.875231
 20
4.069097
 30
0.0
 11
7.877063
 21
4.069813
 31
0.0
210
0.0
220
0.0
230
1.0
  0
LINE
  5
39E
100
AcDbEntity
  8
0
370
    35
390
0
 62
     7
 48
0.000005
100
AcDbLine
 10
7.875028
 20
4.069142
 30
0.0
 11
7.875231
 21
4.069097
 31
0.0
210
0.0
220
0.0
230
1.0
  0
LINE
  5
39F
100
AcDbEntity
  8
0
370
    35
390
0
 62
     7
 48
0.000793
100
AcDbLine
 10
7.848064
 20
4.051845
 30
0.0
 11
7.87503
 21
4.068553
 31
0.0
210
0.0
220
0.0
230
1.0
  0
LINE
  5
3A0
100
AcDbEntity
  8
0
370
    35
390
0
 62
     7
 48
0.000119
100
AcDbLine
 10
7.843323
 20
4.051546
 30
0.0
 11
7.848064
 21
4.051845
 31
0.0
210
0.0
220
0.0
230
1.0
  0
LINE
  5
3A1
100
AcDbEntity
  8
0
370
    35
390
0
 62
     7
 48
0.000044
100
AcDbLine
 10
7.856963
 20
4.049775
 30
0.0
 11
7.858085
 21
4.048412
 31
0.0
210
0.0
220
0.0
230
1.0
  0
LINE
  5
3A2
100
AcDbEntity
  8
0
370
    35
390
0
 62
     7
 48
0.000008
100
AcDbLine
 10
7.897923
 20
4.06323
 30
0.0
 11
7.897943
 21
4.063567
 31
0.0
210
0.0
220
0.0
230
1.0
  0
LINE
  5
3A3
100
AcDbEntity
  8
0
370
    35
390
0
 62
     7
 48
0.000009
100
AcDbLine
 10
7.897842
 20
4.062876
 30
0.0
 11
7.897923
 21
4.06323
 31
0.0
210
0.0
220
0.0
230
1.0
  0
LINE
  5
3A4
100
AcDbEntity
  8
0
370
    35
390
0
 62
     7
 48
0.00001
100
AcDbLine
 10
7.897702
 20
4.062502
 30
0.0
 11
7.897842
 21
4.062876
 31
0.0
210
0.0
220
0.0
230
1.0
  0
LINE
  5
3A5
100
AcDbEntity
  8
0
370
    35
390
0
 62
     7
 48
0.000004
100
AcDbLine
 10
7.897621
 20
4.062345
 30
0.0
 11
7.897702
 21
4.062502
 31
0.0
210
0.0
220
0.0
230
1.0
  0
LINE
  5
3A6
100
AcDbEntity
  8
0
370
    35
390
0
 62
     7
 48
0.000033
100
AcDbLine
 10
7.856782
 20
4.076627
 30
0.0
 11
7.856788
 21
4.075293
 31
0.0
210
0.0
220
0.0
230
1.0
  0
LINE
  5
3A7
100
AcDbEntity
  8
0
370
    35
390
0
 62
     7
 48
0.000033
100
AcDbLine
 10
7.856641
 20
4.075908
 30
0.0
 11
7.856647
 21
4.074573
 31
0.0
210
0.0
220
0.0
230
1.0
  0
LINE
  5
3A8
100
AcDbEntity
  8
0
370
    35
390
0
 62
     7
 48
0.000033
100
AcDbLine
 10
7.856475
 20
4.075208
 30
0.0
 11
7.85648
 21
4.073874
 31
0.0
210
0.0
220
0.0
230
1.0
  0
LINE
  5
3A9
100
AcDbEntity
  8
0
370
    35
390
0
 62
     7
 48
0.000033
100
AcDbLine
 10
7.856283
 20
4.074528
 30
0.0
 11
7.856288
 21
4.073194
 31
0.0
210
0.0
220
0.0
230
1.0
  0
LINE
  5
3AA
100
AcDbEntity
  8
0
370
    35
390
0
 62
     7
 48
0.000033
100
AcDbLine
 10
7.856065
 20
4.073868
 30
0.0
 11
7.85607
 21
4.072534
 31
0.0
210
0.0
220
0.0
230
1.0
  0
LINE
  5
3AB
100
AcDbEntity
  8
0
370
    35
390
0
 62
     7
 48
0.000033
100
AcDbLine
 10
7.855821
 20
4.073228
 30
0.0
 11
7.855826
 21
4.071894
 31
0.0
210
0.0
220
0.0
230
1.0
  0
LINE
  5
3AC
100
AcDbEntity
  8
0
370
    35
390
0
 62
     7
 48
0.000033
100
AcDbLine
 10
7.855551
 20
4.072608
 30
0.0
 11
7.855556
 21
4.071274
 31
0.0
210
0.0
220
0.0
230
1.0
  0
LINE
  5
3AD
100
AcDbEntity
  8
0
370
    35
390
0
 62
     7
 48
0.00003
100
AcDbLine
 10
7.855256
 20
4.072008
 30
0.0
 11
7.855261
 21
4.070816
 31
0.0
210
0.0
220
0.0
230
1.0
  0
LINE
  5
3AE
100
AcDbEntity
  8
0
370
    35
390
0
 62
     7
 48
0.000033
100
AcDbLine
 10
7.877058
 20
4.071147
 30
0.0
 11
7.877063
 21
4.069813
 31
0.0
210
0.0
220
0.0
230
1.0
  0
LINE
  5
3AF
100
AcDbEntity
  8
0
370
    35
390
0
 62
     7
 48
0.000033
100
AcDbLine
 10
7.875226
 20
4.070431
 30
0.0
 11
7.875231
 21
4.069097
 31
0.0
210
0.0
220
0.0
230
1.0
  0
LINE
  5
3B0
100
AcDbEntity
  8
0
370
    35
390
0
 62
     7
 48
0.000015
100
AcDbLine
 10
7.872505
 20
4.071031
 30
0.0
 11
7.872507
 21
4.07044
 31
0.0
210
0.0
220
0.0
230
1.0
  0
LINE
  5
3B1
100
AcDbEntity
  8
0
370
    35
390
0
 62
     7
 48
0.000014
100
AcDbLine
 10
7.871478
 20
4.071239
 30
0.0
 11
7.87148
 21
4.07066
 31
0.0
210
0.0
220
0.0
230
1.0
  0
LINE
  5
3B2
100
AcDbEntity
  8
0
370
    35
390
0
 62
     7
 48
0.000014
100
AcDbLine
 10
7.870485
 20
4.071419
 30
0.0
 11
7.870487
 21
4.070853
 31
0.0
210
0.0
220
0.0
230
1.0
  0
LINE
  5
3B3
100
AcDbEntity
  8
0
370
    35
390
0
 62
     7
 48
0.000014
100
AcDbLine
 10
7.869526
 20
4.071571
 30
0.0
 11
7.869528
 21
4.071017
 31
0.0
210
0.0
220
0.0
230
1.0
  0
LINE
  5
3B4
100
AcDbEntity
  8
0
370
    35
390
0
 62
     7
 48
0.000014
100
AcDbLine
 10
7.868601
 20
4.071695
 30
0.0
 11
7.868603
 21
4.071152
 31
0.0
210
0.0
220
0.0
230
1.0
  0
LINE
  5
3B5
100
AcDbEntity
  8
0
370
    35
390
0
 62
     7
 48
0.000013
100
AcDbLine
 10
7.86771
 20
4.07179
 30
0.0
 11
7.867712
 21
4.071257
 31
0.0
210
0.0
220
0.0
230
1.0
  0
LINE
  5
3B6
100
AcDbEntity
  8
0
370
    35
390
0
 62
     7
 48
0.000013
100
AcDbLine
 10
7.866853
 20
4.071858
 30
0.0
 11
7.866855
 21
4.071333
 31
0.0
210
0.0
220
0.0
230
1.0
  0
LINE
  5
3B7
100
AcDbEntity
  8
0
370
    35
390
0
 62
     7
 48
0.000013
100
AcDbLine
 10
7.866031
 20
4.071898
 30
0.0
 11
7.866033
 21
4.071378
 31
0.0
210
0.0
220
0.0
230
1.0
  0
LINE
  5
3B8
100
AcDbEntity
  8
0
370
    35
390
0
 62
     7
 48
0.000013
100
AcDbLine
 10
7.865243
 20
4.071909
 30
0.0
 11
7.865245
 21
4.071379
 31
0.0
210
0.0
220
0.0
230
1.0
  0
LINE
  5
3B9
100
AcDbEntity
  8
0
370
    35
390
0
 62
     7
 48
0.000013
100
AcDbLine
 10
7.864489
 20
4.071893
 30
0.0
 11
7.864491
 21
4.071367
 31
0.0
210
0.0
220
0.0
230
1.0
  0
LINE
  5
3BA
100
AcDbEntity
  8
0
370
    35
390
0
 62
     7
 48
0.000014
100
AcDbLine
 10
7.863064
 20
4.071775
 30
0.0
 11
7.863066
 21
4.071221
 31
0.0
210
0.0
220
0.0
230
1.0
  0
LINE
  5
3BB
100
AcDbEntity
  8
0
370
    35
390
0
 62
     7
 48
0.000014
100
AcDbLine
 10
7.862357
 20
4.07167
 30
0.0
 11
7.862359
 21
4.0711
 31
0.0
210
0.0
220
0.0
230
1.0
  0
LINE
  5
3BC
100
AcDbEntity
  8
0
370
    35
390
0
 62
     7
 48
0.000015
100
AcDbLine
 10
7.861646
 20
4.071533
 30
0.0
 11
7.861648
 21
4.070935
 31
0.0
210
0.0
220
0.0
230
1.0
  0
LINE
  5
3BD
100
AcDbEntity
  8
0
370
    35
390
0
 62
     7
 48
0.000015
100
AcDbLine
 10
7.860932
 20
4.071366
 30
0.0
 11
7.860934
 21
4.070749
 31
0.0
210
0.0
220
0.0
230
1.0
  0
LINE
  5
3BE
100
AcDbEntity
  8
0
370
    35
390
0
 62
     7
 48
0.000016
100
AcDbLine
 10
7.860215
 20
4.071167
 30
0.0
 11
7.860217
 21
4.070516
 31
0.0
210
0.0
220
0.0
230
1.0
  0
LINE
  5
3BF
100
AcDbEntity
  8
0
370
    35
390
0
 62
     7
 48
0.000017
100
AcDbLine
 10
7.859494
 20
4.070936
 30
0.0
 11
7.859497
 21
4.070243
 31
0.0
210
0.0
220
0.0
230
1.0
  0
LINE
  5
3C0
100
AcDbEntity
  8
0
370
    35
390
0
 62
     7
 48
0.000019
100
AcDbLine
 10
7.85877
 20
4.070674
 30
0.0
 11
7.858773
 21
4.069933
 31
0.0
210
0.0
220
0.0
230
1.0
  0
LINE
  5
3C1
100
AcDbEntity
  8
0
370
    35
390
0
 62
     7
 48
0.00002
100
AcDbLine
 10
7.858043
 20
4.070381
 30
0.0
 11
7.858046
 21
4.069585
 31
0.0
210
0.0
220
0.0
230
1.0
  0
LINE
  5
3C2
100
AcDbEntity
  8
0
370
    35
390
0
 62
     7
 48
0.000013
100
AcDbLine
 10
7.857314
 20
4.070056
 30
0.0
 11
7.857316
 21
4.069544
 31
0.0
210
0.0
220
0.0
230
1.0
  0
LINE
  5
3C3
100
AcDbEntity
  8
0
370
    35
390
0
 62
     7
 48
0.000033
100
AcDbLine
 10
7.875025
 20
4.069887
 30
0.0
 11
7.87503
 21
4.068553
 31
0.0
210
0.0
220
0.0
230
1.0
  0
LINE
  5
3C4
100
AcDbEntity
  8
0
370
    35
390
0
 62
     7
 48
0.000033
100
AcDbLine
 10
7.848059
 20
4.053179
 30
0.0
 11
7.848064
 21
4.051845
 31
0.0
210
0.0
220
0.0
230
1.0
  0
LINE
  5
3C5
100
AcDbEntity
  8
0
370
    35
390
0
 62
     7
 48
0.000033
100
AcDbLine
 10
7.856958
 20
4.051109
 30
0.0
 11
7.856963
 21
4.049775
 31
0.0
210
0.0
220
0.0
230
1.0
  0
LINE
  5
3C6
100
AcDbEntity
  8
0
370
    35
390
0
 62
     7
 48
0.000033
100
AcDbLine
 10
7.897937
 20
4.064901
 30
0.0
 11
7.897943
 21
4.063567
 31
0.0
210
0.0
220
0.0
230
1.0
  0
LINE
  5
3C7
100
AcDbEntity
  8
0
370
    35
390
0
 62
     7
 48
0.000033
100
AcDbLine
 10
7.897918
 20
4.064565
 30
0.0
 11
7.897923
 21
4.06323
 31
0.0
210
0.0
220
0.0
230
1.0
  0
LINE
  5
3C8
100
AcDbEntity
  8
0
370
    35
390
0
 62
     7
 48
0.000033
100
AcDbLine
 10
7.897837
 20
4.06421
 30
0.0
 11
7.897842
 21
4.062876
 31
0.0
210
0.0
220
0.0
230
1.0
  0
LINE
  5
3C9
100
AcDbEntity
  8
0
370
    35
390
0
 62
     7
 48
0.000033
100
AcDbLine
 10
7.897696
 20
4.063836
 30
0.0
 11
7.897702
 21
4.062502
 31
0.0
210
0.0
220
0.0
230
1.0
  0
LINE
  5
3CA
100
AcDbEntity
  8
0
370
    35
390
0
 62
     7
 48
0.000028
100
AcDbLine
 10
7.897495
 20
4.063444
 30
0.0
 11
7.897499
 21
4.062305
 31
0.0
210
0.0
220
0.0
230
1.0
  0
LINE
  5
3CB
100
AcDbEntity
  8
0
370
    35
390
0
 62
     7
 48
0.00002
100
AcDbLine
 10
7.897233
 20
4.063032
 30
0.0
 11
7.897236
 21
4.062219
 31
0.0
210
0.0
220
0.0
230
1.0
  0
LINE
  5
3CC
100
AcDbEntity
  8
0
370
    35
390
0
 62
     7
 48
0.000025
100
AcDbLine
 10
7.941049
 20
4.050661
 30
0.0
 11
7.941053
 21
4.049672
 31
0.0
210
0.0
220
0.0
230
1.0
  0
LINE
  5
3CD
100
AcDbEntity
  8
0
370
    35
390
0
 62
     7
 48
0.000015
100
AcDbLine
 10
7.912459
 20
4.06469
 30
0.0
 11
7.912461
 21
4.064092
 31
0.0
210
0.0
220
0.0
230
1.0
  0
LINE
  5
3CE
100
AcDbEntity
  8
0
370
    35
390
0
 62
     7
 48
0.000016
100
AcDbLine
 10
7.911351
 20
4.064532
 30
0.0
 11
7.911354
 21
4.063901
 31
0.0
210
0.0
220
0.0
230
1.0
  0
LINE
  5
3CF
100
AcDbEntity
  8
0
370
    35
390
0
 62
     7
 48
0.000016
100
AcDbLine
 10
7.91017
 20
4.064332
 30
0.0
 11
7.910173
 21
4.063676
 31
0.0
210
0.0
220
0.0
230
1.0
  0
LINE
  5
3D0
100
AcDbEntity
  8
0
370
    35
390
0
 62
     7
 48
0.000017
100
AcDbLine
 10
7.908917
 20
4.064091
 30
0.0
 11
7.908919
 21
4.063415
 31
0.0
210
0.0
220
0.0
230
1.0
  0
LINE
  5
3D1
100
AcDbEntity
  8
0
370
    35
390
0
 62
     7
 48
0.000017
100
AcDbLine
 10
7.907591
 20
4.063808
 30
0.0
 11
7.907593
 21
4.063117
 31
0.0
210
0.0
220
0.0
230
1.0
  0
LINE
  5
3D2
100
AcDbEntity
  8
0
370
    35
390
0
 62
     7
 48
0.000018
100
AcDbLine
 10
7.906192
 20
4.063485
 30
0.0
 11
7.906194
 21
4.062783
 31
0.0
210
0.0
220
0.0
230
1.0
  0
LINE
  5
3D3
100
AcDbEntity
  8
0
370
    35
390
0
 62
     7
 48
0.000018
100
AcDbLine
 10
7.90472
 20
4.063119
 30
0.0
 11
7.904723
 21
4.062411
 31
0.0
210
0.0
220
0.0
230
1.0
  0
LINE
  5
3D4
100
AcDbEntity
  8
0
370
    35
390
0
 62
     7
 48
0.000018
100
AcDbLine
 10
7.903175
 20
4.062713
 30
0.0
 11
7.903178
 21
4.062003
 31
0.0
210
0.0
220
0.0
230
1.0
  0
LINE
  5
3D5
100
AcDbEntity
  8
0
370
    35
390
0
 62
     7
 48
0.000018
100
AcDbLine
 10
7.901557
 20
4.062265
 30
0.0
 11
7.901559
 21
4.061556
 31
0.0
210
0.0
220
0.0
230
1.0
  0
LINE
  5
3D6
100
AcDbEntity
  8
0
370
    35
390
0
 62
     7
 48
0.000018
100
AcDbLine
 10
7.899866
 20
4.061775
 30
0.0
 11
7.899869
 21
4.061071
 31
0.0
210
0.0
220
0.0
230
1.0
  0
LINE
  5
3D7
100
AcDbEntity
  8
0
370
    35
390
0
 62
     7
 48
0.000013
100
AcDbLine
 10
7.965272
 20
4.05359
 30
0.0
 11
7.965274
 21
4.053081
 31
0.0
210
0.0
220
0.0
230
1.0
  0
LINE
  5
3D8
100
AcDbEntity
  8
0
370
    35
390
0
 62
     7
 48
0.000014
100
AcDbLine
 10
7.963168
 20
4.05335
 30
0.0
 11
7.96317
 21
4.052796
 31
0.0
210
0.0
220
0.0
230
1.0
  0
LINE
  5
3D9
100
AcDbEntity
  8
0
370
    35
390
0
 62
     7
 48
0.000015
100
AcDbLine
 10
7.961158
 20
4.053088
 30
0.0
 11
7.961161
 21
4.052498
 31
0.0
210
0.0
220
0.0
230
1.0
  0
LINE
  5
3DA
100
AcDbEntity
  8
0
370
    35
390
0
 62
     7
 48
0.000015
100
AcDbLine
 10
7.959244
 20
4.052803
 30
0.0
 11
7.959247
 21
4.052186
 31
0.0
210
0.0
220
0.0
230
1.0
  0
LINE
  5
3DB
100
AcDbEntity
  8
0
370
    35
390
0
 62
     7
 48
0.000016
100
AcDbLine
 10
7.957426
 20
4.052496
 30
0.0
 11
7.957428
 21
4.051861
 31
0.0
210
0.0
220
0.0
230
1.0
  0
LINE
  5
3DC
100
AcDbEntity
  8
0
370
    35
390
0
 62
     7
 48
0.000016
100
AcDbLine
 10
7.955702
 20
4.052166
 30
0.0
 11
7.955705
 21
4.051519
 31
0.0
210
0.0
220
0.0
230
1.0
  0
LINE
  5
3DD
100
AcDbEntity
  8
0
370
    35
390
0
 62
     7
 48
0.000016
100
AcDbLine
 10
7.954074
 20
4.051814
 30
0.0
 11
7.954077
 21
4.051162
 31
0.0
210
0.0
220
0.0
230
1.0
  0
LINE
  5
3DE
100
AcDbEntity
  8
0
370
    35
390
0
 62
     7
 48
0.000016
100
AcDbLine
 10
7.952541
 20
4.051439
 30
0.0
 11
7.952544
 21
4.050785
 31
0.0
210
0.0
220
0.0
230
1.0
  0
LINE
  5
3DF
100
AcDbEntity
  8
0
370
    35
390
0
 62
     7
 48
0.000016
100
AcDbLine
 10
7.951104
 20
4.051042
 30
0.0
 11
7.951106
 21
4.050388
 31
0.0
210
0.0
220
0.0
230
1.0
  0
LINE
  5
3E0
100
AcDbEntity
  8
0
370
    35
390
0
 62
     7
 48
0.000016
100
AcDbLine
 10
7.949762
 20
4.050623
 30
0.0
 11
7.949765
 21
4.049967
 31
0.0
210
0.0
220
0.0
230
1.0
  0
LINE
  5
3E1
100
AcDbEntity
  8
0
370
    35
390
0
 62
     7
 48
0.000031
100
AcDbLine
 10
7.859472
 20
4.049424
 30
0.0
 11
7.860542
 21
4.050087
 31
0.0
210
0.0
220
0.0
230
1.0
  0
LINE
  5
3E2
100
AcDbEntity
  8
0
370
    35
390
0
 62
     7
 48
0.000089
100
AcDbLine
 10
7.860546
 20
4.048946
 30
0.0
 11
7.862046
 21
4.045722
 31
0.0
210
0.0
220
0.0
230
1.0
  0
LINE
  5
3E3
100
AcDbEntity
  8
0
370
    35
390
0
 62
     7
 48
0.000014
100
AcDbLine
 10
7.896759
 20
4.064751
 30
0.0
 11
7.896761
 21
4.064193
 31
0.0
210
0.0
220
0.0
230
1.0
  0
LINE
  5
3E4
100
AcDbEntity
  8
0
370
    35
390
0
 62
     7
 48
0.00002
100
AcDbLine
 10
7.896586
 20
4.065093
 30
0.0
 11
7.896589
 21
4.064309
 31
0.0
210
0.0
220
0.0
230
1.0
  0
LINE
  5
3E5
100
AcDbEntity
  8
0
370
    35
390
0
 62
     7
 48
0.000022
100
AcDbLine
 10
7.89628
 20
4.065407
 30
0.0
 11
7.896284
 21
4.064514
 31
0.0
210
0.0
220
0.0
230
1.0
  0
LINE
  5
3E6
100
AcDbEntity
  8
0
370
    35
390
0
 62
     7
 48
0.000023
100
AcDbLine
 10
7.89584
 20
4.065696
 30
0.0
 11
7.895843
 21
4.064773
 31
0.0
210
0.0
220
0.0
230
1.0
  0
LINE
  5
3E7
100
AcDbEntity
  8
0
370
    35
390
0
 62
     7
 48
0.000022
100
AcDbLine
 10
7.895253
 20
4.065963
 30
0.0
 11
7.895256
 21
4.065078
 31
0.0
210
0.0
220
0.0
230
1.0
  0
LINE
  5
3E8
100
AcDbEntity
  8
0
370
    35
390
0
 62
     7
 48
0.00002
100
AcDbLine
 10
7.894438
 20
4.066248
 30
0.0
 11
7.894441
 21
4.065438
 31
0.0
210
0.0
220
0.0
230
1.0
  0
LINE
  5
3E9
100
AcDbEntity
  8
0
370
    35
390
0
 62
     7
 48
0.000018
100
AcDbLine
 10
7.893383
 20
4.066556
 30
0.0
 11
7.893386
 21
4.065834
 31
0.0
210
0.0
220
0.0
230
1.0
  0
LINE
  5
3EA
100
AcDbEntity
  8
0
370
    35
390
0
 62
     7
 48
0.000017
100
AcDbLine
 10
7.892764
 20
4.066719
 30
0.0
 11
7.892767
 21
4.066034
 31
0.0
210
0.0
220
0.0
230
1.0
  0
LINE
  5
3EB
100
AcDbEntity
  8
0
370
    35
390
0
 62
     7
 48
0.000016
100
AcDbLine
 10
7.892087
 20
4.066887
 30
0.0
 11
7.892089
 21
4.066235
 31
0.0
210
0.0
220
0.0
230
1.0
  0
LINE
  5
3EC
100
AcDbEntity
  8
0
370
    35
390
0
 62
     7
 48
0.000016
100
AcDbLine
 10
7.891349
 20
4.067062
 30
0.0
 11
7.891351
 21
4.066433
 31
0.0
210
0.0
220
0.0
230
1.0
  0
LINE
  5
3ED
100
AcDbEntity
  8
0
370
    35
390
0
 62
     7
 48
0.000015
100
AcDbLine
 10
7.89055
 20
4.067242
 30
0.0
 11
7.890552
 21
4.066628
 31
0.0
210
0.0
220
0.0
230
1.0
  0
LINE
  5
3EE
100
AcDbEntity
  8
0
370
    35
390
0
 62
     7
 48
0.000015
100
AcDbLine
 10
7.889692
 20
4.067428
 30
0.0
 11
7.889694
 21
4.066816
 31
0.0
210
0.0
220
0.0
230
1.0
  0
LINE
  5
3EF
100
AcDbEntity
  8
0
370
    35
390
0
 62
     7
 48
0.000029
100
AcDbLine
 10
7.887191
 20
4.067936
 30
0.0
 11
7.887195
 21
4.066759
 31
0.0
210
0.0
220
0.0
230
1.0
  0
LINE
  5
3F0
100
AcDbEntity
  8
0
370
    35
390
0
 62
     7
 48
0.000015
100
AcDbLine
 10
7.860941
 20
4.046565
 30
0.0
 11
7.860944
 21
4.045956
 31
0.0
210
0.0
220
0.0
230
1.0
  0
LINE
  5
3F1
100
AcDbEntity
  8
0
370
    35
390
0
 62
     7
 48
0.000033
100
AcDbLine
 10
7.860541
 20
4.05028
 30
0.0
 11
7.860546
 21
4.048946
 31
0.0
210
0.0
220
0.0
230
1.0
  0
LINE
  5
3F2
100
AcDbEntity
  8
0
370
    35
390
0
 62
     7
 48
0.000015
100
AcDbLine
 10
7.924852
 20
4.047561
 30
0.0
 11
7.924855
 21
4.046952
 31
0.0
210
0.0
220
0.0
230
1.0
  0
LINE
  5
3F3
100
AcDbEntity
  8
0
370
    35
390
0
 62
     7
 48
0.000031
100
AcDbLine
 10
7.903422
 20
4.040605
 30
0.0
 11
7.90446
 21
4.041248
 31
0.0
210
0.0
220
0.0
230
1.0
  0
LINE
  5
3F4
100
AcDbEntity
  8
0
370
    35
390
0
 62
     7
 48
0.000105
100
AcDbLine
 10
7.904464
 20
4.040298
 30
0.0
 11
7.906034
 21
4.036382
 31
0.0
210
0.0
220
0.0
230
1.0
  0
LINE
  5
3F5
100
AcDbEntity
  8
0
370
    35
390
0
 62
     7
 48
0.000024
100
AcDbLine
 10
7.915645
 20
4.049516
 30
0.0
 11
7.915649
 21
4.048566
 31
0.0
210
0.0
220
0.0
230
1.0
  0
LINE
  5
3F6
100
AcDbEntity
  8
0
370
    35
390
0
 62
     7
 48
0.000015
100
AcDbLine
 10
7.904779
 20
4.037258
 30
0.0
 11
7.904781
 21
4.036648
 31
0.0
210
0.0
220
0.0
230
1.0
  0
LINE
  5
3F7
100
AcDbEntity
  8
0
370
    35
390
0
 62
     7
 48
0.000033
100
AcDbLine
 10
7.904459
 20
4.041632
 30
0.0
 11
7.904464
 21
4.040298
 31
0.0
210
0.0
220
0.0
230
1.0
  0
ELLIPSE
  5
3F8
100
AcDbEntity
  8
0
370
    35
390
0
 62
     7
 48
0.03937
100
AcDbEllipse
 10
7.893466
 20
4.05306
 30
0.0
 11
0.1217924794291657
 21
0.0004759683123099
 31
0.0
210
0.0
220
0.0
230
1.0
 40
0.364583
 41
0.0150159492562036
 42
2.6059057070824596
  0
ELLIPSE
  5
3F9
100
AcDbEntity
  8
0
370
    35
390
0
 62
     7
 48
0.03937
100
AcDbEllipse
 10
7.893466
 20
4.05306
 30
0.0
 11
0.1217924794291657
 21
0.0004759683123099
 31
0.0
210
0.0
220
0.0
230
1.0
 40
0.364583
 41
2.6059057070824596
 42
3.1265596290168354
  0
ELLIPSE
  5
3FA
100
AcDbEntity
  8
0
370
    35
390
0
 62
     7
 48
0.03937
100
AcDbEllipse
 10
7.893466
 20
4.05306
 30
0.0
 11
0.0959577110654033
 21
0.0003750053369714
 31
0.0
210
0.0
220
0.0
230
1.0
 40
0.364583
 41
3.1415927076605121
 42
5.7474983606722532
  0
ELLIPSE
  5
3FB
100
AcDbEntity
  8
0
370
    35
390
0
 62
     7
 48
0.03937
100
AcDbEllipse
 10
7.893466
 20
4.05306
 30
0.0
 11
0.0959577110654033
 21
0.0003750053369714
 31
0.0
210
0.0
220
0.0
230
1.0
 40
0.364583
 41
5.7474983606722532
 42
6.2831853612503048
  0
ELLIPSE
  5
3FC
100
AcDbEntity
  8
0
370
    35
390
0
 62
     7
 48
0.03937
100
AcDbEllipse
 10
7.948906
 20
4.087411
 30
0.0
 11
0.0073813623896464
 21
0.0000288465643824
 31
0.0
210
0.0
220
0.0
230
1.0
 40
0.364583
 41
3.1415927076605157
 42
5.7474983606722532
  0
ELLIPSE
  5
3FD
100
AcDbEntity
  8
0
370
    35
390
0
 62
     7
 48
0.03937
100
AcDbEllipse
 10
7.948906
 20
4.087411
 30
0.0
 11
0.0073813623896464
 21
0.0000288465643824
 31
0.0
210
0.0
220
0.0
230
1.0
 40
0.364583
 41
5.7474983606722585
 42
6.2831853612503084
  0
ELLIPSE
  5
3FE
100
AcDbEntity
  8
0
370
    35
390
0
 62
     7
 48
0.03937
100
AcDbEllipse
 10
7.987169
 20
4.033164
 30
0.0
 11
0.0073813623896464
 21
0.0000288465643824
 31
0.0
210
0.0
220
0.0
230
1.0
 40
0.364583
 41
3.1415927076605157
 42
5.7474983606722585
  0
ELLIPSE
  5
3FF
100
AcDbEntity
  8
0
370
    35
390
0
 62
     7
 48
0.03937
100
AcDbEllipse
 10
7.987169
 20
4.033164
 30
0.0
 11
0.0073813623896464
 21
0.0000288465643824
 31
0.0
210
0.0
220
0.0
230
1.0
 40
0.364583
 41
5.7474983606722585
 42
6.2831853612503092
  0
ELLIPSE
  5
400
100
AcDbEntity
  8
0
370
    35
390
0
 62
     7
 48
0.03937
100
AcDbEllipse
 10
7.998926
 20
4.063281
 30
0.0
 11
0.0073813623896464
 21
0.0000288465643824
 31
0.0
210
0.0
220
0.0
230
1.0
 40
0.364583
 41
3.1415927076605157
 42
5.7474983606722585
  0
ELLIPSE
  5
401
100
AcDbEntity
  8
0
370
    35
390
0
 62
     7
 48
0.03937
100
AcDbEllipse
 10
7.998926
 20
4.063281
 30
0.0
 11
0.0073813623896464
 21
0.0000288465643824
 31
0.0
210
0.0
220
0.0
230
1.0
 40
0.364583
 41
5.7474983606722585
 42
6.2831853612503092
  0
ELLIPSE
  5
402
100
AcDbEntity
  8
0
370
    35
390
0
 62
     7
 48
0.03937
100
AcDbEllipse
 10
7.838026
 20
4.018709
 30
0.0
 11
0.0073813623896464
 21
0.0000288465643824
 31
0.0
210
0.0
220
0.0
230
1.0
 40
0.364583
 41
3.1415927076605157
 42
5.7474983606722532
  0
ELLIPSE
  5
403
100
AcDbEntity
  8
0
370
    35
390
0
 62
     7
 48
0.03937
100
AcDbEllipse
 10
7.838026
 20
4.018709
 30
0.0
 11
0.0073813623896464
 21
0.0000288465643824
 31
0.0
210
0.0
220
0.0
230
1.0
 40
0.364583
 41
5.7474983606722585
 42
6.2831853612503084
  0
ELLIPSE
  5
404
100
AcDbEntity
  8
0
370
    35
390
0
 62
     7
 48
0.03937
100
AcDbEllipse
 10
7.920522
 20
4.014702
 30
0.0
 11
0.0073813623896464
 21
0.0000288465643824
 31
0.0
210
0.0
220
0.0
230
1.0
 40
0.364583
 41
3.1415927076605157
 42
5.7474983606722585
  0
ELLIPSE
  5
405
100
AcDbEntity
  8
0
370
    35
390
0
 62
     7
 48
0.03937
100
AcDbEllipse
 10
7.920522
 20
4.014702
 30
0.0
 11
0.0073813623896464
 21
0.0000288465643824
 31
0.0
210
0.0
220
0.0
230
1.0
 40
0.364583
 41
5.7474983606722585
 42
6.2831853612503092
  0
ELLIPSE
  5
406
100
AcDbEntity
  8
0
370
    35
390
0
 62
     7
 48
0.03937
100
AcDbEllipse
 10
7.799763
 20
4.072955
 30
0.0
 11
0.0073813623896464
 21
0.0000288465643824
 31
0.0
210
0.0
220
0.0
230
1.0
 40
0.364583
 41
3.1415927076605157
 42
6.2831853612503039
  0
ELLIPSE
  5
407
100
AcDbEntity
  8
0
370
    35
390
0
 62
     7
 48
0.03937
100
AcDbEllipse
 10
7.86641
 20
4.091417
 30
0.0
 11
0.0073813623896464
 21
0.0000288465643824
 31
0.0
210
0.0
220
0.0
230
1.0
 40
0.364583
 41
3.1415927076605157
 42
6.2831853612503039
  0
ELLIPSE
  5
408
100
AcDbEntity
  8
0
370
    35
390
0
 62
     7
 48
0.03937
100
AcDbEllipse
 10
7.788006
 20
4.042838
 30
0.0
 11
0.0073813623896464
 21
0.0000288465643824
 31
0.0
210
0.0
220
0.0
230
1.0
 40
0.364583
 41
3.1415927076605157
 42
6.2831853612503092
  0
LINE
  5
409
100
AcDbEntity
  8
0
370
    35
390
0
 62
     7
 48
0.010807
100
AcDbLine
 10
9.819079
 20
4.398837
 30
0.0
 11
9.820768
 21
3.966547
 31
0.0
210
0.0
220
0.0
230
1.0
  0
LINE
  5
40A
100
AcDbEntity
  8
0
370
    35
390
0
 62
     7
 48
0.010807
100
AcDbLine
 10
7.06227
 20
4.388062
 30
0.0
 11
7.06396
 21
3.955772
 31
0.0
210
0.0
220
0.0
230
1.0
  0
LINE
  5
40B
100
AcDbEntity
  8
0
370
    35
390
0
 62
     7
 48
0.000127
100
AcDbLine
 10
7.932194
 20
4.227635
 30
0.0
 11
7.927448
 21
4.229489
 31
0.0
210
0.0
220
0.0
230
1.0
  0
LINE
  5
40C
100
AcDbEntity
  8
0
370
    35
390
0
 62
     7
 48
0.000127
100
AcDbLine
 10
8.950436
 20
4.231614
 30
0.0
 11
8.955167
 21
4.233505
 31
0.0
210
0.0
220
0.0
230
1.0
  0
LINE
  5
40D
100
AcDbEntity
  8
0
370
    35
390
0
 62
     7
 48
0.005574
100
AcDbLine
 10
7.740528
 20
4.624627
 30
0.0
 11
7.7414
 21
4.401654
 31
0.0
210
0.0
220
0.0
230
1.0
  0
LINE
  5
40E
100
AcDbEntity
  8
0
370
    35
390
0
 62
     7
 48
0.005574
100
AcDbLine
 10
9.138993
 20
4.630092
 30
0.0
 11
9.139864
 21
4.407117
 31
0.0
210
0.0
220
0.0
230
1.0
  0
LINE
  5
40F
100
AcDbEntity
  8
0
370
    35
390
0
 62
     7
 48
0.013417
100
AcDbLine
 10
7.926187
 20
4.552111
 30
0.0
 11
7.426298
 21
4.747362
 31
0.0
210
0.0
220
0.0
230
1.0
  0
LINE
  5
410
100
AcDbEntity
  8
0
370
    35
390
0
 62
     7
 48
0.013417
100
AcDbLine
 10
8.953906
 20
4.556127
 30
0.0
 11
9.452254
 21
4.75528
 31
0.0
210
0.0
220
0.0
230
1.0
  0
LINE
  5
411
100
AcDbEntity
  8
0
370
    35
390
0
 62
     7
 48
0.03937
100
AcDbLine
 10
7.054835
 20
6.290675
 30
0.0
 11
7.05954
 21
5.086751
 31
0.0
210
0.0
220
0.0
230
1.0
  0
LINE
  5
412
100
AcDbEntity
  8
0
370
    35
390
0
 62
     7
 48
0.03937
100
AcDbLine
 10
9.811643
 20
6.30145
 30
0.0
 11
9.816348
 21
5.097526
 31
0.0
210
0.0
220
0.0
230
1.0
  0
LINE
  5
413
100
AcDbEntity
  8
0
370
    35
390
0
 62
     7
 48
0.000033
100
AcDbLine
 10
7.797508
 20
4.052685
 30
0.0
 11
7.797503
 21
4.054019
 31
0.0
210
0.0
220
0.0
230
1.0
  0
LINE
  5
414
100
AcDbEntity
  8
0
370
    35
390
0
 62
     7
 48
0.000033
100
AcDbLine
 10
7.989424
 20
4.053435
 30
0.0
 11
7.989419
 21
4.054769
 31
0.0
210
0.0
220
0.0
230
1.0
  0
LINE
  5
415
100
AcDbEntity
  8
0
370
    35
390
0
 62
     7
 48
0.000033
100
AcDbLine
 10
7.941525
 20
4.087382
 30
0.0
 11
7.94152
 21
4.088716
 31
0.0
210
0.0
220
0.0
230
1.0
  0
LINE
  5
416
100
AcDbEntity
  8
0
370
    35
390
0
 62
     7
 48
0.000033
100
AcDbLine
 10
7.956287
 20
4.087439
 30
0.0
 11
7.956282
 21
4.088774
 31
0.0
210
0.0
220
0.0
230
1.0
  0
LINE
  5
417
100
AcDbEntity
  8
0
370
    35
390
0
 62
     7
 48
0.000033
100
AcDbLine
 10
7.979788
 20
4.033136
 30
0.0
 11
7.979782
 21
4.03447
 31
0.0
210
0.0
220
0.0
230
1.0
  0
LINE
  5
418
100
AcDbEntity
  8
0
370
    35
390
0
 62
     7
 48
0.000033
100
AcDbLine
 10
7.99455
 20
4.033193
 30
0.0
 11
7.994545
 21
4.034528
 31
0.0
210
0.0
220
0.0
230
1.0
  0
LINE
  5
419
100
AcDbEntity
  8
0
370
    35
390
0
 62
     7
 48
0.000033
100
AcDbLine
 10
7.991545
 20
4.063252
 30
0.0
 11
7.991539
 21
4.064587
 31
0.0
210
0.0
220
0.0
230
1.0
  0
LINE
  5
41A
100
AcDbEntity
  8
0
370
    35
390
0
 62
     7
 48
0.000033
100
AcDbLine
 10
8.006307
 20
4.06331
 30
0.0
 11
8.006302
 21
4.064644
 31
0.0
210
0.0
220
0.0
230
1.0
  0
LINE
  5
41B
100
AcDbEntity
  8
0
370
    35
390
0
 62
     7
 48
0.000033
100
AcDbLine
 10
7.830645
 20
4.01868
 30
0.0
 11
7.83064
 21
4.020014
 31
0.0
210
0.0
220
0.0
230
1.0
  0
LINE
  5
41C
100
AcDbEntity
  8
0
370
    35
390
0
 62
     7
 48
0.000033
100
AcDbLine
 10
7.845408
 20
4.018738
 30
0.0
 11
7.845402
 21
4.020072
 31
0.0
210
0.0
220
0.0
230
1.0
  0
LINE
  5
41D
100
AcDbEntity
  8
0
370
    35
390
0
 62
     7
 48
0.000033
100
AcDbLine
 10
7.913141
 20
4.014673
 30
0.0
 11
7.913136
 21
4.016007
 31
0.0
210
0.0
220
0.0
230
1.0
  0
LINE
  5
41E
100
AcDbEntity
  8
0
370
    35
390
0
 62
     7
 48
0.000033
100
AcDbLine
 10
7.927903
 20
4.014731
 30
0.0
 11
7.927898
 21
4.016065
 31
0.0
210
0.0
220
0.0
230
1.0
  0
LINE
  5
41F
100
AcDbEntity
  8
0
370
    35
390
0
 62
     7
 48
0.000033
100
AcDbLine
 10
7.807145
 20
4.072984
 30
0.0
 11
7.807139
 21
4.074318
 31
0.0
210
0.0
220
0.0
230
1.0
  0
LINE
  5
420
100
AcDbEntity
  8
0
370
    35
390
0
 62
     7
 48
0.000033
100
AcDbLine
 10
7.792382
 20
4.072926
 30
0.0
 11
7.792377
 21
4.07426
 31
0.0
210
0.0
220
0.0
230
1.0
  0
LINE
  5
421
100
AcDbEntity
  8
0
370
    35
390
0
 62
     7
 48
0.000033
100
AcDbLine
 10
7.873792
 20
4.091446
 30
0.0
 11
7.873786
 21
4.092781
 31
0.0
210
0.0
220
0.0
230
1.0
  0
LINE
  5
422
100
AcDbEntity
  8
0
370
    35
390
0
 62
     7
 48
0.000033
100
AcDbLine
 10
7.859029
 20
4.091389
 30
0.0
 11
7.859024
 21
4.092723
 31
0.0
210
0.0
220
0.0
230
1.0
  0
LINE
  5
423
100
AcDbEntity
  8
0
370
    35
390
0
 62
     7
 48
0.000033
100
AcDbLine
 10
7.795388
 20
4.042867
 30
0.0
 11
7.795382
 21
4.044201
 31
0.0
210
0.0
220
0.0
230
1.0
  0
LINE
  5
424
100
AcDbEntity
  8
0
370
    35
390
0
 62
     7
 48
0.000033
100
AcDbLine
 10
7.780625
 20
4.042809
 30
0.0
 11
7.78062
 21
4.044143
 31
0.0
210
0.0
220
0.0
230
1.0
  0
LINE
  5
425
100
AcDbEntity
  8
0
370
    35
390
0
 62
     7
 48
0.003582
100
AcDbLine
 10
4.843207
 20
3.387416
 30
0.0
 11
4.986494
 21
3.387416
 31
0.0
210
0.0
220
0.0
230
1.0
  0
LINE
  5
426
100
AcDbEntity
  8
0
370
    35
390
0
 62
     7
 48
0.011606
100
AcDbLine
 10
4.843207
 20
3.851664
 30
0.0
 11
4.843207
 21
3.387416
 31
0.0
210
0.0
220
0.0
230
1.0
  0
LINE
  5
427
100
AcDbEntity
  8
0
370
    35
390
0
 62
     7
 48
0.003582
100
AcDbLine
 10
4.843207
 20
3.851664
 30
0.0
 11
4.986494
 21
3.851664
 31
0.0
210
0.0
220
0.0
230
1.0
  0
LINE
  5
428
100
AcDbEntity
  8
0
370
    35
390
0
 62
     7
 48
0.011606
100
AcDbLine
 10
4.986494
 20
3.387416
 30
0.0
 11
4.986494
 21
3.851664
 31
0.0
210
0.0
220
0.0
230
1.0
  0
LINE
  5
429
100
AcDbEntity
  8
0
370
    35
390
0
 62
     7
 48
0.005481
100
AcDbLine
 10
4.303018
 20
3.387416
 30
0.0
 11
4.522246
 21
3.387416
 31
0.0
210
0.0
220
0.0
230
1.0
  0
LINE
  5
42A
100
AcDbEntity
  8
0
370
    35
390
0
 62
     7
 48
0.005481
100
AcDbLine
 10
2.693912
 20
3.387416
 30
0.0
 11
2.91314
 21
3.387416
 31
0.0
210
0.0
220
0.0
230
1.0
  0
LINE
  5
42B
100
AcDbEntity
  8
0
370
    35
390
0
 62
     7
 48
0.007533
100
AcDbLine
 10
2.693912
 20
3.387416
 30
0.0
 11
2.392596
 21
3.387416
 31
0.0
210
0.0
220
0.0
230
1.0
  0
LINE
  5
42C
100
AcDbEntity
  8
0
370
    35
390
0
 62
     7
 48
0.000491
100
AcDbLine
 10
2.392596
 20
3.387416
 30
0.0
 11
2.37295
 21
3.387416
 31
0.0
210
0.0
220
0.0
230
1.0
  0
LINE
  5
42D
100
AcDbEntity
  8
0
370
    35
390
0
 62
     7
 48
0.003582
100
AcDbLine
 10
2.229664
 20
3.387416
 30
0.0
 11
2.37295
 21
3.387416
 31
0.0
210
0.0
220
0.0
230
1.0
  0
LINE
  5
42E
100
AcDbEntity
  8
0
370
    35
390
0
 62
     7
 48
0.007533
100
AcDbLine
 10
4.843207
 20
3.387416
 30
0.0
 11
4.541891
 21
3.387416
 31
0.0
210
0.0
220
0.0
230
1.0
  0
LINE
  5
42F
100
AcDbEntity
  8
0
370
    35
390
0
 62
     7
 48
0.000491
100
AcDbLine
 10
4.541891
 20
3.387416
 30
0.0
 11
4.522246
 21
3.387416
 31
0.0
210
0.0
220
0.0
230
1.0
  0
LINE
  5
430
100
AcDbEntity
  8
0
370
    35
390
0
 62
     7
 48
0.000491
100
AcDbLine
 10
4.541891
 20
3.851664
 30
0.0
 11
4.522246
 21
3.851664
 31
0.0
210
0.0
220
0.0
230
1.0
  0
LINE
  5
431
100
AcDbEntity
  8
0
370
    35
390
0
 62
     7
 48
0.007533
100
AcDbLine
 10
4.843207
 20
3.851664
 30
0.0
 11
4.541891
 21
3.851664
 31
0.0
210
0.0
220
0.0
230
1.0
  0
LINE
  5
432
100
AcDbEntity
  8
0
370
    35
390
0
 62
     7
 48
0.003582
100
AcDbLine
 10
2.229664
 20
3.851664
 30
0.0
 11
2.37295
 21
3.851664
 31
0.0
210
0.0
220
0.0
230
1.0
  0
LINE
  5
433
100
AcDbEntity
  8
0
370
    35
390
0
 62
     7
 48
0.000491
100
AcDbLine
 10
2.392596
 20
3.851664
 30
0.0
 11
2.37295
 21
3.851664
 31
0.0
210
0.0
220
0.0
230
1.0
  0
LINE
  5
434
100
AcDbEntity
  8
0
370
    35
390
0
 62
     7
 48
0.007533
100
AcDbLine
 10
2.693912
 20
3.851664
 30
0.0
 11
2.392596
 21
3.851664
 31
0.0
210
0.0
220
0.0
230
1.0
  0
LINE
  5
435
100
AcDbEntity
  8
0
370
    35
390
0
 62
     7
 48
0.008096
100
AcDbLine
 10
2.693912
 20
3.851664
 30
0.0
 11
3.017739
 21
3.851664
 31
0.0
210
0.0
220
0.0
230
1.0
  0
LINE
  5
436
100
AcDbEntity
  8
0
370
    35
390
0
 62
     7
 48
0.008096
100
AcDbLine
 10
4.198418
 20
3.851664
 30
0.0
 11
4.522246
 21
3.851664
 31
0.0
210
0.0
220
0.0
230
1.0
  0
LINE
  5
437
100
AcDbEntity
  8
0
370
    35
390
0
 62
     7
 48
0.011606
100
AcDbLine
 10
4.522246
 20
3.851664
 30
0.0
 11
4.522246
 21
3.387416
 31
0.0
210
0.0
220
0.0
230
1.0
  0
LINE
  5
438
100
AcDbEntity
  8
0
370
    35
390
0
 62
     7
 48
0.011606
100
AcDbLine
 10
2.229664
 20
3.387416
 30
0.0
 11
2.229664
 21
3.851664
 31
0.0
210
0.0
220
0.0
230
1.0
  0
LINE
  5
439
100
AcDbEntity
  8
0
370
    35
390
0
 62
     7
 48
0.011606
100
AcDbLine
 10
2.37295
 20
3.851664
 30
0.0
 11
2.37295
 21
3.387416
 31
0.0
210
0.0
220
0.0
230
1.0
  0
LINE
  5
43A
100
AcDbEntity
  8
0
370
    35
390
0
 62
     7
 48
0.011606
100
AcDbLine
 10
2.693912
 20
3.851664
 30
0.0
 11
2.693912
 21
3.387416
 31
0.0
210
0.0
220
0.0
230
1.0
  0
POLYLINE
  5
43B
100
AcDbEntity
  8
0
370
    35
390
0
 62
     7
 48
0.03937
100
AcDb2dPolyline
 66
     1
 10
0.0
 20
0.0
 30
0.0
 71
     2
  0
VERTEX
  5
43C
100
AcDbEntity
  8
0
370
     0
390
0
100
AcDbVertex
100
AcDb2dVertex
 10
2.915289
 20
3.379394
 30
0.0
 42
0.767327
  0
VERTEX
  5
43D
100
AcDbEntity
  8
0
370
     0
390
0
100
AcDbVertex
100
AcDb2dVertex
 10
2.91314
 20
3.387416
 30
0.0
  0
SEQEND
  5
43E
100
AcDbEntity
  8
0
370
     0
390
0
  0
POLYLINE
  5
43F
100
AcDbEntity
  8
0
370
    35
390
0
 62
     7
 48
0.03937
100
AcDb2dPolyline
 66
     1
 10
0.0
 20
0.0
 30
0.0
 71
     2
  0
VERTEX
  5
440
100
AcDbEntity
  8
0
370
     0
390
0
100
AcDbVertex
100
AcDb2dVertex
 10
4.303018
 20
3.387416
 30
0.0
 42
0.767327
  0
VERTEX
  5
441
100
AcDbEntity
  8
0
370
     0
390
0
100
AcDbVertex
100
AcDb2dVertex
 10
4.300868
 20
3.379394
 30
0.0
  0
SEQEND
  5
442
100
AcDbEntity
  8
0
370
     0
390
0
  0
LINE
  5
443
100
AcDbEntity
  8
0
370
    35
390
0
 62
     7
 48
0.001791
100
AcDbLine
 10
3.017739
 20
3.851664
 30
0.0
 11
3.017739
 21
3.923307
 31
0.0
210
0.0
220
0.0
230
1.0
  0
LINE
  5
444
100
AcDbEntity
  8
0
370
    35
390
0
 62
     7
 48
0.001791
100
AcDbLine
 10
4.198418
 20
3.851664
 30
0.0
 11
4.198418
 21
3.923307
 31
0.0
210
0.0
220
0.0
230
1.0
  0
LINE
  5
445
100
AcDbEntity
  8
0
370
    35
390
0
 62
     7
 48
0.000186
100
AcDbLine
 10
2.915289
 20
3.379394
 30
0.0
 11
2.908841
 21
3.375672
 31
0.0
210
0.0
220
0.0
230
1.0
  0
LINE
  5
446
100
AcDbEntity
  8
0
370
    35
390
0
 62
     7
 48
0.000186
100
AcDbLine
 10
4.300868
 20
3.379394
 30
0.0
 11
4.307316
 21
3.375672
 31
0.0
210
0.0
220
0.0
230
1.0
  0
LINE
  5
447
100
AcDbEntity
  8
0
370
    35
390
0
 62
     7
 48
0.005803
100
AcDbLine
 10
3.017739
 20
3.923307
 30
0.0
 11
3.249863
 21
3.923307
 31
0.0
210
0.0
220
0.0
230
1.0
  0
LINE
  5
448
100
AcDbEntity
  8
0
370
    35
390
0
 62
     7
 48
0.004662
100
AcDbLine
 10
3.436341
 20
3.923307
 30
0.0
 11
3.249863
 21
3.923307
 31
0.0
210
0.0
220
0.0
230
1.0
  0
LINE
  5
449
100
AcDbEntity
  8
0
370
    35
390
0
 62
     7
 48
0.013249
100
AcDbLine
 10
3.966295
 20
3.923307
 30
0.0
 11
3.436341
 21
3.923307
 31
0.0
210
0.0
220
0.0
230
1.0
  0
LINE
  5
44A
100
AcDbEntity
  8
0
370
    35
390
0
 62
     7
 48
0.005803
100
AcDbLine
 10
3.966295
 20
3.923307
 30
0.0
 11
4.198418
 21
3.923307
 31
0.0
210
0.0
220
0.0
230
1.0
  0
LINE
  5
44B
100
AcDbEntity
  8
0
370
    35
390
0
 62
     7
 48
0.008662
100
AcDbLine
 10
2.908841
 20
3.0292
 30
0.0
 11
2.908841
 21
3.375672
 31
0.0
210
0.0
220
0.0
230
1.0
  0
LINE
  5
44C
100
AcDbEntity
  8
0
370
    35
390
0
 62
     7
 48
0.008662
100
AcDbLine
 10
4.307316
 20
3.0292
 30
0.0
 11
4.307316
 21
3.375672
 31
0.0
210
0.0
220
0.0
230
1.0
  0
LINE
  5
44D
100
AcDbEntity
  8
0
370
    35
390
0
 62
     7
 48
0.03937
100
AcDbLine
 10
3.249863
 20
1.344152
 30
0.0
 11
3.249863
 21
3.923307
 31
0.0
210
0.0
220
0.0
230
1.0
  0
LINE
  5
44E
100
AcDbEntity
  8
0
370
    35
390
0
 62
     7
 48
0.004662
100
AcDbLine
 10
3.436341
 20
1.344152
 30
0.0
 11
3.249863
 21
1.344152
 31
0.0
210
0.0
220
0.0
230
1.0
  0
LINE
  5
44F
100
AcDbEntity
  8
0
370
    35
390
0
 62
     7
 48
0.03937
100
AcDbLine
 10
3.966295
 20
1.344152
 30
0.0
 11
3.966295
 21
3.923307
 31
0.0
210
0.0
220
0.0
230
1.0
  0
LINE
  5
450
100
AcDbEntity
  8
0
370
    35
390
0
 62
     7
 48
0.013249
100
AcDbLine
 10
3.966295
 20
1.344152
 30
0.0
 11
3.436341
 21
1.344152
 31
0.0
210
0.0
220
0.0
230
1.0
  0
LINE
  5
451
100
AcDbEntity
  8
0
370
    35
390
0
 62
     7
 48
0.019606
100
AcDbLine
 10
2.908841
 20
3.0292
 30
0.0
 11
2.229664
 21
2.637077
 31
0.0
210
0.0
220
0.0
230
1.0
  0
LINE
  5
452
100
AcDbEntity
  8
0
370
    35
390
0
 62
     7
 48
0.019606
100
AcDbLine
 10
4.307316
 20
3.0292
 30
0.0
 11
4.986494
 21
2.637077
 31
0.0
210
0.0
220
0.0
230
1.0
  0
LINE
  5
453
100
AcDbEntity
  8
0
370
    35
390
0
 62
     7
 48
0.03937
100
AcDbLine
 10
3.966295
 20
1.344152
 30
0.0
 11
4.986494
 21
1.344152
 31
0.0
210
0.0
220
0.0
230
1.0
  0
LINE
  5
454
100
AcDbEntity
  8
0
370
    35
390
0
 62
     7
 48
0.03937
100
AcDbLine
 10
2.229664
 20
1.344152
 30
0.0
 11
3.249863
 21
1.344152
 31
0.0
210
0.0
220
0.0
230
1.0
  0
LINE
  5
455
100
AcDbEntity
  8
0
370
    35
390
0
 62
     7
 48
0.03937
100
AcDbLine
 10
2.229664
 20
1.344152
 30
0.0
 11
2.229664
 21
2.637077
 31
0.0
210
0.0
220
0.0
230
1.0
  0
LINE
  5
456
100
AcDbEntity
  8
0
370
    35
390
0
 62
     7
 48
0.03937
100
AcDbLine
 10
4.986494
 20
1.344152
 30
0.0
 11
4.986494
 21
2.637077
 31
0.0
210
0.0
220
0.0
230
1.0
  0
INSERT
  5
6D8
100
AcDbEntity
  8
0
370
     0
390
0
100
AcDbBlockReference
  2
BLOCK1
 10
0.0
 20
0.0
 30
0.0
210
0.0
220
0.0
230
1.0
  0
INSERT
  5
6D9
100
AcDbEntity
  8
0
370
     0
390
0
100
AcDbBlockReference
  2
BLOCK2
 10
0.0
 20
0.0
 30
0.0
210
0.0
220
0.0
230
1.0
  0
INSERT
  5
6DA
100
AcDbEntity
  8
0
370
     0
390
0
100
AcDbBlockReference
  2
BLOCK3
 10
0.0
 20
0.0
 30
0.0
210
0.0
220
0.0
230
1.0
  0
INSERT
  5
6DB
100
AcDbEntity
  8
0
370
     0
390
0
100
AcDbBlockReference
  2
BLOCK4
 10
0.0
 20
0.0
 30
0.0
210
0.0
220
0.0
230
1.0
  0
INSERT
  5
6DC
100
AcDbEntity
  8
0
370
     0
390
0
100
AcDbBlockReference
  2
BLOCK5
 10
0.0
 20
0.0
 30
0.0
210
0.0
220
0.0
230
1.0
  0
INSERT
  5
6DD
100
AcDbEntity
  8
0
370
     0
390
0
100
AcDbBlockReference
  2
BLOCK6
 10
0.0
 20
0.0
 30
0.0
210
0.0
220
0.0
230
1.0
  0
INSERT
  5
6DE
100
AcDbEntity
  8
0
370
     0
390
0
100
AcDbBlockReference
  2
BLOCK7
 10
3.608079
 20
6.423557
 30
0.0
 41
0.286573
 42
0.286573
 43
0.286573
210
0.0
220
0.0
230
1.0
  0
INSERT
  5
6DF
100
AcDbEntity
  8
0
370
     0
390
0
100
AcDbBlockReference
  2
BLOCK8
 10
3.608079
 20
6.423557
 30
0.0
 41
0.286573
 42
0.286573
 43
0.286573
210
0.0
220
0.0
230
1.0
  0
INSERT
  5
6E0
100
AcDbEntity
  8
0
370
     0
390
0
100
AcDbBlockReference
  2
BLOCK9
 10
3.608079
 20
6.423557
 30
0.0
 41
0.286573
 42
0.286573
 43
0.286573
210
0.0
220
0.0
230
1.0
  0
INSERT
  5
6E1
100
AcDbEntity
  8
0
370
     0
390
0
100
AcDbBlockReference
  2
BLOCK10
 10
3.608079
 20
6.423557
 30
0.0
 41
0.286573
 42
0.286573
 43
0.286573
210
0.0
220
0.0
230
1.0
  0
INSERT
  5
6E2
100
AcDbEntity
  8
0
370
     0
390
0
100
AcDbBlockReference
  2
BLOCK11
 10
3.608079
 20
6.423557
 30
0.0
 41
0.286573
 42
0.286573
 43
0.286573
210
0.0
220
0.0
230
1.0
  0
INSERT
  5
6E3
100
AcDbEntity
  8
0
370
     0
390
0
100
AcDbBlockReference
  2
BLOCK12
 10
3.608079
 20
6.423557
 30
0.0
 41
0.286573
 42
0.286573
 43
0.286573
210
0.0
220
0.0
230
1.0
  0
INSERT
  5
6E4
100
AcDbEntity
  8
0
370
     0
390
0
100
AcDbBlockReference
  2
BLOCK13
 10
3.608079
 20
6.423557
 30
0.0
 41
0.286573
 42
0.286573
 43
0.286573
210
0.0
220
0.0
230
1.0
  0
INSERT
  5
6E5
100
AcDbEntity
  8
0
370
     0
390
0
100
AcDbBlockReference
  2
BLOCK14
 10
3.608079
 20
6.423557
 30
0.0
 41
0.286573
 42
0.286573
 43
0.286573
210
0.0
220
0.0
230
1.0
  0
INSERT
  5
6E6
100
AcDbEntity
  8
0
370
     0
390
0
100
AcDbBlockReference
  2
BLOCK15
 10
3.608079
 20
3.851664
 30
0.0
 41
0.286573
 42
0.286573
 43
0.286573
210
0.0
220
0.0
230
1.0
  0
INSERT
  5
6E7
100
AcDbEntity
  8
0
370
     0
390
0
100
AcDbBlockReference
  2
BLOCK16
 10
3.608079
 20
3.851664
 30
0.0
 41
0.286573
 42
0.286573
 43
0.286573
210
0.0
220
0.0
230
1.0
  0
INSERT
  5
6E8
100
AcDbEntity
  8
0
370
     0
390
0
100
AcDbBlockReference
  2
BLOCK17
 10
3.608079
 20
3.851664
 30
0.0
 41
0.286573
 42
0.286573
 43
0.286573
210
0.0
220
0.0
230
1.0
  0
INSERT
  5
6E9
100
AcDbEntity
  8
0
370
     0
390
0
100
AcDbBlockReference
  2
BLOCK18
 10
3.608079
 20
3.851664
 30
0.0
 41
0.286573
 42
0.286573
 43
0.286573
210
0.0
220
0.0
230
1.0
  0
INSERT
  5
6EA
100
AcDbEntity
  8
0
370
     0
390
0
100
AcDbBlockReference
  2
BLOCK19
 10
3.608079
 20
3.851664
 30
0.0
 41
0.286573
 42
0.286573
 43
0.286573
210
0.0
220
0.0
230
1.0
  0
INSERT
  5
6EB
100
AcDbEntity
  8
0
370
     0
390
0
100
AcDbBlockReference
  2
BLOCK20
 10
3.608079
 20
3.851664
 30
0.0
 41
0.286573
 42
0.286573
 43
0.286573
210
0.0
220
0.0
230
1.0
  0
INSERT
  5
6EC
100
AcDbEntity
  8
0
370
     0
390
0
100
AcDbBlockReference
  2
BLOCK21
 10
3.608079
 20
3.851664
 30
0.0
 41
0.286573
 42
0.286573
 43
0.286573
210
0.0
220
0.0
230
1.0
  0
INSERT
  5
6ED
100
AcDbEntity
  8
0
370
     0
390
0
100
AcDbBlockReference
  2
BLOCK22
 10
3.608079
 20
3.851664
 30
0.0
 41
0.286573
 42
0.286573
 43
0.286573
210
0.0
220
0.0
230
1.0
  0
INSERT
  5
6EE
100
AcDbEntity
  8
0
370
     0
390
0
100
AcDbBlockReference
  2
BLOCK23
 10
3.608079
 20
3.851664
 30
0.0
 41
0.286573
 42
0.286573
 43
0.286573
210
0.0
220
0.0
230
1.0
  0
INSERT
  5
6EF
100
AcDbEntity
  8
0
370
     0
390
0
100
AcDbBlockReference
  2
BLOCK24
 10
3.608079
 20
3.851664
 30
0.0
 41
0.286573
 42
0.286573
 43
0.286573
210
0.0
220
0.0
230
1.0
  0
INSERT
  5
6F0
100
AcDbEntity
  8
0
370
     0
390
0
100
AcDbBlockReference
  2
BLOCK25
 10
3.608079
 20
3.851664
 30
0.0
 41
0.286573
 42
0.286573
 43
0.286573
210
0.0
220
0.0
230
1.0
  0
INSERT
  5
6F1
100
AcDbEntity
  8
0
370
     0
390
0
100
AcDbBlockReference
  2
BLOCK26
 10
3.608079
 20
3.851664
 30
0.0
 41
0.286573
 42
0.286573
 43
0.286573
210
0.0
220
0.0
230
1.0
  0
ENDSEC
  0
SECTION
  2
OBJECTS
  0
DICTIONARY
  5
19
100
AcDbDictionary
280
     0
281
     1
  3
ACAD_GROUP
350
1A
  3
ACAD_MLINESTYLE
350
1B
  3
ACAD_LAYOUT
350
1E
  3
ACAD_PLOTSETTINGS
350
22
  3
ACAD_PLOTSTYLENAME
350
1F
  3
ACAD_WIPEOUT_VARS
350
23
  0
DICTIONARY
  5
1A
102
{ACAD_REACTORS
330
19
102
}
100
AcDbDictionary
280
     0
281
     1
  0
DICTIONARY
  5
1B
102
{ACAD_REACTORS
330
19
102
}
100
AcDbDictionary
280
     0
281
     1
  3
Standard
350
1C
  0
MLINESTYLE
  5
1C
102
{ACAD_REACTORS
330
1B
102
}
100
AcDbMlineStyle
  2
Standard
 70
     0
  3

 62
     0
 51
90.0
 52
90.0
 71
     2
 49
0.5
 62
   256
  6
ByLayer
 49
-0.5
 62
   256
  6
ByLayer
  0
ACDBDICTIONARYWDFLT
  5
1F
102
{ACAD_REACTORS
330
19
102
}
100
AcDbDictionary
281
     1
  3
Normal
350
1D
100
AcDbDictionaryWithDefault
340
1D
  0
ACDBPLACEHOLDER
  5
1D
102
{ACAD_REACTORS
330
1F
102
}
  0
LAYOUT
  5
20
102
{ACAD_REACTORS
330
1E
102
}
100
AcDbPlotSettings
  1

  2

  4

  6

 40
0.0
 41
0.0
 42
0.0
 43
0.0
 44
0.0
 45
0.0
 46
0.0
 47
0.0
 48
0.0
 49
0.0
140
0.0
141
0.0
142
1.0
143
1.0
 70
  1024
 72
     0
 73
     0
 74
     0
  7

 75
     0
147
1.0
148
0.0
149
0.0
100
AcDbLayout
  1
Model
 70
     0
 71
     0
 10
0.0
 20
0.0
 11
0.0
 21
0.0
 12
0.0
 22
0.0
 32
0.0
 14
0.0
 24
0.0
 34
0.0
 15
0.0
 25
0.0
 35
0.0
146
0.0
 13
0.0
 23
0.0
 33
0.0
 16
0.0
 26
0.0
 36
0.0
 17
0.0
 27
0.0
 37
0.0
 76
     0
330
A
331
0
345
0
346
0
  0
LAYOUT
  5
21
102
{ACAD_REACTORS
330
1E
102
}
100
AcDbPlotSettings
  1

  2

  4

  6

 40
0.0
 41
0.0
 42
0.0
 43
0.0
 44
0.0
 45
0.0
 46
0.0
 47
0.0
 48
0.0
 49
0.0
140
0.0
141
0.0
142
1.0
143
1.0
 70
     0
 72
     0
 73
     0
 74
     0
  7

 75
     0
147
1.0
148
0.0
149
0.0
100
AcDbLayout
  1
Layout1
 70
     0
 71
     0
 10
0.0
 20
0.0
 11
0.0
 21
0.0
 12
0.0
 22
0.0
 32
0.0
 14
0.0
 24
0.0
 34
0.0
 15
0.0
 25
0.0
 35
0.0
146
0.0
 13
0.0
 23
0.0
 33
0.0
 16
0.0
 26
0.0
 36
0.0
 17
0.0
 27
0.0
 37
0.0
 76
     0
330
B
331
0
345
0
346
0
  0
DICTIONARY
  5
1E
102
{ACAD_REACTORS
330
19
102
}
100
AcDbDictionary
280
     0
281
     1
  3
Layout1
350
21
  3
Model
350
20
  0
DICTIONARY
  5
22
102
{ACAD_REACTORS
330
19
102
}
100
AcDbDictionary
280
     0
281
     1
  0
WIPEOUTVARIABLES
  5
23
100
AcDbWipeoutVariables
 70
     1
  0
ENDSEC
  0
EOF
