  0
SECTION
  2
HEADER
  9
$ACADVER
  1
AC1015
  9
$ACADMAINTVER
 70
     6
  9
$DWGCODEPAGE
  3
ANSI_1252
  9
$INSBASE
 10
0.0
 20
0.0
 30
0.0
  9
$EXTMIN
 10
0.0
 20
0.0
 30
0.0
  9
$EXTMAX
 10
164.397858
 20
2.134871
 30
2.0
  9
$LIMMIN
 10
0.0
 20
0.0
  9
$LIMMAX
 10
17.0
 20
11.0
  9
$ORTHOMODE
 70
     0
  9
$REGENMODE
 70
     1
  9
$FILLMODE
 70
     1
  9
$QTEXTMODE
 70
     0
  9
$MIRRTEXT
 70
     1
  9
$LTSCALE
 40
1.0
  9
$ATTMODE
 70
     1
  9
$TEXTSIZE
 40
0.2
  9
$TRACEWID
 40
0.05
  9
$TEXTSTYLE
  7
STANDARD
  9
$CLAYER
  8
0
  9
$CELTYPE
  6
ByLayer
  9
$CECOLOR
 62
   256
  9
$CELTSCALE
 40
1.0
  9
$DISPSILH
 70
     0
  9
$DIMSCALE
 40
1.0
  9
$DIMASZ
 40
0.18
  9
$DIMEXO
 40
0.0625
  9
$DIMDLI
 40
0.38
  9
$DIMRND
 40
0.0
  9
$DIMDLE
 40
0.0
  9
$DIMEXE
 40
0.18
  9
$DIMTP
 40
0.0
  9
$DIMTM
 40
0.0
  9
$DIMTXT
 40
0.18
  9
$DIMCEN
 40
0.09
  9
$DIMTSZ
 40
0.0
  9
$DIMTOL
 70
     0
  9
$DIMLIM
 70
     0
  9
$DIMTIH
 70
     1
  9
$DIMTOH
 70
     1
  9
$DIMSE1
 70
     0
  9
$DIMSE2
 70
     0
  9
$DIMTAD
 70
     0
  9
$DIMZIN
 70
     0
  9
$DIMBLK
  1

  9
$DIMASO
 70
     1
  9
$DIMSHO
 70
     1
  9
$DIMPOST
  1

  9
$DIMAPOST
  1

  9
$DIMALT
 70
     0
  9
$DIMALTD
 70
     2
  9
$DIMALTF
 40
25.4
  9
$DIMLFAC
 40
1.0
  9
$DIMTOFL
 70
     0
  9
$DIMTVP
 40
0.0
  9
$DIMTIX
 70
     0
  9
$DIMSOXD
 70
     0
  9
$DIMSAH
 70
     0
  9
$DIMBLK1
  1

  9
$DIMBLK2
  1

  9
$DIMSTYLE
  2
STANDARD
  9
$DIMCLRD
 70
     0
  9
$DIMCLRE
 70
     0
  9
$DIMCLRT
 70
     0
  9
$DIMTFAC
 40
1.0
  9
$DIMGAP
 40
0.09
  9
$DIMJUST
 70
     0
  9
$DIMSD1
 70
     0
  9
$DIMSD2
 70
     0
  9
$DIMTOLJ
 70
     1
  9
$DIMTZIN
 70
     0
  9
$DIMALTZ
 70
     0
  9
$DIMALTTZ
 70
     0
  9
$DIMUPT
 70
     0
  9
$DIMDEC
 70
     4
  9
$DIMTDEC
 70
     4
  9
$DIMALTU
 70
     2
  9
$DIMALTTD
 70
     2
  9
$DIMTXSTY
  7
STANDARD
  9
$DIMAUNIT
 70
     0
  9
$DIMADEC
 70
     0
  9
$DIMALTRND
 40
0.0
  9
$DIMAZIN
 70
     0
  9
$DIMDSEP
 70
    46
  9
$DIMATFIT
 70
     0
  9
$DIMFRAC
 70
     0
  9
$DIMLDRBLK
  1

  9
$DIMLUNIT
 70
     2
  9
$DIMLWD
 70
    -2
  9
$DIMLWE
 70
    -2
  9
$DIMTMOVE
 70
     0
  9
$LUNITS
 70
     2
  9
$LUPREC
 70
     4
  9
$SKETCHINC
 40
0.1
  9
$FILLETRAD
 40
0.125
  9
$AUNITS
 70
     0
  9
$AUPREC
 70
     0
  9
$MENU
  1
.
  9
$ELEVATION
 40
0.0
  9
$PELEVATION
 40
0.0
  9
$THICKNESS
 40
0.0
  9
$LIMCHECK
 70
     0
  9
$CHAMFERA
 40
0.125
  9
$CHAMFERB
 40
0.125
  9
$CHAMFERC
 40
0.0
  9
$CHAMFERD
 40
0.0
  9
$SKPOLY
 70
     0
  9
$TDCREATE
 40
0.000000000
  9
$TDUCREATE
 40
0.000000000
  9
$TDUPDATE
 40
0.000000000
  9
$TDUUPDATE
 40
0.000000000
  9
$TDINDWG
 40
0.0000000000
  9
$TDUSRTIMER
 40
0.0000000000
  9
$USRTIMER
 70
     1
  9
$ANGBASE
 50
0.0
  9
$ANGDIR
 70
     0
  9
$PDMODE
 70
     0
  9
$PDSIZE
 40
0.0
  9
$PLINEWID
 40
0.0
  9
$SPLFRAME
 70
     0
  9
$SPLINETYPE
 70
     6
  9
$SPLINESEGS
 70
     8
  9
$HANDSEED
  5
587
  9
$SURFTAB1
 70
     6
  9
$SURFTAB2
 70
     6
  9
$SURFTYPE
 70
     6
  9
$SURFU
 70
     6
  9
$SURFV
 70
     6
  9
$UCSBASE
  2

  9
$UCSNAME
  2

  9
$UCSORG
 10
0.0
 20
0.0
 30
0.0
  9
$UCSXDIR
 10
1.0
 20
0.0
 30
0.0
  9
$UCSYDIR
 10
0.0
 20
1.0
 30
0.0
  9
$UCSORTHOREF
  2

  9
$UCSORTHOVIEW
 70
     1
  9
$UCSORGTOP
 10
0.0
 20
0.0
 30
0.0
  9
$UCSORGBOTTOM
 10
0.0
 20
0.0
 30
0.0
  9
$UCSORGLEFT
 10
0.0
 20
0.0
 30
0.0
  9
$UCSORGRIGHT
 10
0.0
 20
0.0
 30
0.0
  9
$UCSORGFRONT
 10
0.0
 20
0.0
 30
0.0
  9
$UCSORGBACK
 10
0.0
 20
0.0
 30
0.0
  9
$PUCSBASE
  2

  9
$PUCSNAME
  2

  9
$PUCSORG
 10
0.0
 20
0.0
 30
0.0
  9
$PUCSXDIR
 10
1.0
 20
0.0
 30
0.0
  9
$PUCSYDIR
 10
0.0
 20
1.0
 30
0.0
  9
$PUCSORTHOREF
  2

  9
$PUCSORTHOVIEW
 70
     0
  9
$PUCSORGTOP
 10
0.0
 20
0.0
 30
0.0
  9
$PUCSORGBOTTOM
 10
0.0
 20
0.0
 30
0.0
  9
$PUCSORGLEFT
 10
0.0
 20
0.0
 30
0.0
  9
$PUCSORGRIGHT
 10
0.0
 20
0.0
 30
0.0
  9
$PUCSORGFRONT
 10
0.0
 20
0.0
 30
0.0
  9
$PUCSORGBACK
 10
0.0
 20
0.0
 30
0.0
  9
$USERI1
 70
     0
  9
$USERI2
 70
     0
  9
$USERI3
 70
     0
  9
$USERI4
 70
     0
  9
$USERI5
 70
     0
  9
$USERR1
 40
0.0
  9
$USERR2
 40
0.0
  9
$USERR3
 40
0.0
  9
$USERR4
 40
0.0
  9
$USERR5
 40
0.0
  9
$WORLDVIEW
 70
     1
  9
$SHADEDGE
 70
     3
  9
$SHADEDIF
 70
    70
  9
$TILEMODE
 70
     1
  9
$MAXACTVP
 70
    48
  9
$PINSBASE
 10
0.0
 20
0.0
 30
0.0
  9
$PLIMCHECK
 70
     0
  9
$PEXTMIN
 10
0.0
 20
0.0
 30
0.0
  9
$PEXTMAX
 10
164.397858
 20
2.134871
 30
2.0
  9
$PLIMMIN
 10
0.0
 20
0.0
  9
$PLIMMAX
 10
12.0
 20
9.0
  9
$UNITMODE
 70
     0
  9
$VISRETAIN
 70
     0
  9
$PLINEGEN
 70
     0
  9
$PSLTSCALE
 70
     1
  9
$TREEDEPTH
 70
  3020
  9
$CMLSTYLE
  2
Standard
  9
$CMLJUST
 70
     0
  9
$CMLSCALE
 40
1.0
  9
$PROXYGRAPHICS
 70
     1
  9
$MEASUREMENT
 70
     0
  9
$CELWEIGHT
370
    -1
  9
$ENDCAPS
280
     0
  9
$JOINSTYLE
280
     0
  9
$LWDISPLAY
290
     0
  9
$INSUNITS
 70
     0
  9
$HYPERLINKBASE
  1

  9
$STYLESHEET
  1

  9
$XEDIT
290
     1
  9
$CEPSNTYPE
380
     0
  9
$PSTYLEMODE
290
     0
  9
$FINGERPRINTGUID
  2

  9
$VERSIONGUID
  2

  9
$EXTNAMES
290
     0
  9
$PSVPSCALE
 40
0.0
  0
ENDSEC
  0
SECTION
  2
CLASSES
  0
CLASS
  1
LWPOLYLINE
  2
AcDbPolyline
  3
AutoCAD 2000
 90
        0
280
     0
281
     1
  0
CLASS
  1
IMAGE
  2
AcDbRasterImage
  3
ISM
 90
      127
280
     0
281
     1
  0
CLASS
  1
OLE2FRAME
  2
AcDbOle2Frame
  3
AutoCAD 2000
 90
        0
280
     0
281
     1
  0
CLASS
  1
HATCH
  2
AcDbHatch
  3
AutoCAD 2000
 90
        0
280
     0
281
     1
  0
CLASS
  1
DICTIONARYVAR
  2
AcDbDictionaryVar
  3
AutoCAD 2000
 90
        0
280
     0
281
     0
  0
CLASS
  1
RASTERVARIABLES
  2
AcDbRasterVariables
  3
ISM
 90
        0
280
     0
281
     0
  0
CLASS
  1
IMAGEDEF
  2
AcDbRasterImageDef
  3
ISM
 90
        0
280
     0
281
     0
  0
CLASS
  1
IMAGEDEF_REACTOR
  2
AcDbRasterImageDefReactor
  3
ISM
 90
        1
280
     0
281
     0
  0
CLASS
  1
IDBUFFER
  2
AcDbIdBuffer
  3
AutoCAD 2000
 90
        0
280
     0
281
     0
  0
CLASS
  1
SPATIAL_FILTER
  2
AcDbSpatialFilter
  3
AutoCAD 2000
 90
        0
280
     0
281
     0
  0
CLASS
  1
XRECORD
  2
AcDbXrecord
  3
AutoCAD 2000
 90
        0
280
     0
281
     0
  0
CLASS
  1
SORTENTSTABLE
  2
AcDbSortentsTable
  3
AutoCAD 2000
 90
        0
280
     0
281
     0
  0
CLASS
  1
LAYER_INDEX
  2
AcDbLayerIndex
  3
AutoCAD 2000
 90
        0
280
     0
281
     0
  0
CLASS
  1
SPATIAL_INDEX
  2
AcDbSpatialIndex
  3
AutoCAD 2000
 90
        0
280
     0
281
     0
  0
CLASS
  1
OBJECT_PTR
  2
CAseDLPNTableRecord
  3
"ASE-LPNTableRecord"
 90
        1
280
     0
281
     0
  0
CLASS
  1
LAYOUT
  2
AcDbLayout
  3
AutoCAD 2000
 90
        0
280
     0
281
     0
  0
CLASS
  1
PLOTSETTINGS
  2
AcDbPlotSettings
  3
AutoCAD 2000
 90
        0
280
     0
281
     0
  0
CLASS
  1
ACDBDICTIONARYWDFLT
  2
AcDbDictionaryWithDefault
  3
AutoCAD 2000
 90
        0
280
     0
281
     0
  0
CLASS
  1
ACDBPLACEHOLDER
  2
AcDbPlaceHolder
  3
AutoCAD 2000
 90
        0
280
     0
281
     0
  0
CLASS
  1
VBA_PROJECT
  2
AcDbVbaProject
  3
acadvba
 90
        0
280
     0
281
     0
  0
CLASS
  1
WIPEOUT
  2
AcDbWipeout
  3
WipeOut|AutoCAD Express Tool|expresstools@autodesk.com
 90
      127
280
     0
281
     1
  0
CLASS
  1
WIPEOUTVARIABLES
  2
AcDbWipeoutVariables
  3
WipeOut|AutoCAD Express Tool|expresstools@autodesk.com
 90
        0
280
     0
281
     0
  0
CLASS
  1
RTEXT
  2
RText
  3
RText|AutoCAD Express Tool|expresstools@autodesk.com
 90
        0
280
     0
281
     1
  0
CLASS
  1
ARCALIGNEDTEXT
  2
AcDbArcAlignedText
  3
ATEXT|AutoCAD Express Tool|expresstools@autodesk.com
 90
        0
280
     0
281
     1
  0
ENDSEC
  0
SECTION
  2
TABLES
  0
TABLE
  2
VPORT
  5
7
100
AcDbSymbolTable
 70
     1
  0
VPORT
  5
15
100
AcDbSymbolTableRecord
100
AcDbViewportTableRecord
  2
*ACTIVE
 70
     0
 10
0.0
 20
0.0
 11
1.0
 21
1.0
 12
6.591288
 22
4.579184
 13
0.0
 23
0.0
 14
1.0
 24
1.0
 15
0.0
 25
0.0
 16
0.0
 26
0.0
 36
1.0
 17
0.0
 27
0.0
 37
0.0
 40
9.158369
 41
0.688564
 42
50.0
 43
0.0
 44
0.0
 50
0.0
 51
0.0
 71
     0
 72
   100
 73
     1
 74
     1
 75
     0
 76
     0
 77
     0
 78
     0
281
     0
 65
     0
110
0.0
120
0.0
130
0.0
111
1.0
121
0.0
131
0.0
112
0.0
122
1.0
132
0.0
345
0
346
0
 79
     0
146
0.0
  0
ENDTAB
  0
TABLE
  2
LTYPE
  5
4
100
AcDbSymbolTable
 70
     4
  0
LTYPE
  5
11
100
AcDbSymbolTableRecord
100
AcDbLinetypeTableRecord
  2
ByBlock
 70
    64
  3

 72
    65
 73
     0
 40
0.0
  0
LTYPE
  5
12
100
AcDbSymbolTableRecord
100
AcDbLinetypeTableRecord
  2
ByLayer
 70
    64
  3

 72
    65
 73
     0
 40
0.0
  0
LTYPE
  5
13
100
AcDbSymbolTableRecord
100
AcDbLinetypeTableRecord
  2
Continuous
 70
    64
  3
Solid line
 72
    65
 73
     0
 40
0.0
  0
LTYPE
  5
24
100
AcDbSymbolTableRecord
100
AcDbLinetypeTableRecord
  2
DASHDOT
 70
     0
  3
 __ . __ . __ . __ . __ . __ . __ . 
 72
    65
 73
     4
 40
18.5
 49
12.0
 74
     0
 49
-3.0
 74
     0
 49
0.5
 74
     0
 49
-3.0
 74
     0
  0
ENDTAB
  0
TABLE
  2
LAYER
  5
2
100
AcDbSymbolTable
 70
     2
  0
LAYER
  5
14
100
AcDbSymbolTableRecord
100
AcDbLayerTableRecord
  2
0
 70
     0
 62
     7
  6
Continuous
290
     1
370
    13
390
1D
  0
LAYER
  5
25
100
AcDbSymbolTableRecord
100
AcDbLayerTableRecord
  2
1
 70
     0
 62
     7
  6
Continuous
290
     1
370
    13
390
1D
  0
ENDTAB
  0
TABLE
  2
STYLE
  5
3
100
AcDbSymbolTable
 70
     2
  0
STYLE
  5
17
100
AcDbSymbolTableRecord
100
AcDbTextStyleTableRecord
  2
STANDARD
 70
     0
 40
0.0
 41
1.0
 50
0.0
 71
     0
 42
0.0
  3
isocp.shx
  4

  0
STYLE
  5
26
100
AcDbSymbolTableRecord
100
AcDbTextStyleTableRecord
  2
GDT
 70
     0
 40
0.0
 41
1.0
 50
0.0
 71
     0
 42
0.0
  3
gdt.shx
  4

  0
ENDTAB
  0
TABLE
  2
VIEW
  5
5
100
AcDbSymbolTable
 70
     0
  0
ENDTAB
  0
TABLE
  2
UCS
  5
6
100
AcDbSymbolTable
 70
     0
  0
ENDTAB
  0
TABLE
  2
APPID
  5
8
100
AcDbSymbolTable
 70
     1
  0
APPID
  5
16
100
AcDbSymbolTableRecord
100
AcDbRegAppTableRecord
  2
ACAD
 70
     0
  0
ENDTAB
  0
TABLE
  2
DIMSTYLE
  5
9
100
AcDbSymbolTable
 70
     1
100
AcDbDimStyleTable
 71
     0
  0
DIMSTYLE
105
18
100
AcDbSymbolTableRecord
100
AcDbDimStyleTableRecord
  2
STANDARD
 70
     0
  3

  4

 40
1.0
 41
0.18
 42
0.0625
 43
0.38
 44
0.18
 45
0.0
 46
0.0
 47
0.0
 48
0.0
 71
     0
 72
     0
 73
     1
 74
     1
 75
     0
 76
     0
 77
     0
 78
     0
 79
     0
140
0.18
141
0.09
142
0.0
143
25.4
144
1.0
145
0.0
146
1.0
147
0.09
148
0.0
170
     0
171
     2
172
     0
173
     0
174
     0
175
     0
176
     0
177
     0
178
     0
179
     0
271
     4
272
     4
273
     2
274
     2
275
     0
276
     0
277
     2
278
    46
279
     0
280
     0
281
     0
282
     0
283
     1
284
     0
285
     0
286
     0
288
     0
289
     0
340
0
341
0
342
0
343
0
344
0
371
    -2
372
    -2
  0
ENDTAB
  0
TABLE
  2
BLOCK_RECORD
  5
1
100
AcDbSymbolTable
 70
    19
  0
BLOCK_RECORD
  5
A
100
AcDbSymbolTableRecord
100
AcDbBlockTableRecord
  2
*MODEL_SPACE
340
20
  0
BLOCK_RECORD
  5
B
100
AcDbSymbolTableRecord
100
AcDbBlockTableRecord
  2
*PAPER_SPACE
340
21
  0
BLOCK_RECORD
  5
3B2
100
AcDbSymbolTableRecord
100
AcDbBlockTableRecord
  2
BLOCK1
340
0
102
{BLKREFS
331
574
102
}
  0
BLOCK_RECORD
  5
3B3
100
AcDbSymbolTableRecord
100
AcDbBlockTableRecord
  2
BLOCK2
340
0
102
{BLKREFS
331
575
102
}
  0
BLOCK_RECORD
  5
3B4
100
AcDbSymbolTableRecord
100
AcDbBlockTableRecord
  2
BLOCK3
340
0
102
{BLKREFS
331
576
102
}
  0
BLOCK_RECORD
  5
3B5
100
AcDbSymbolTableRecord
100
AcDbBlockTableRecord
  2
BLOCK4
340
0
102
{BLKREFS
331
577
102
}
  0
BLOCK_RECORD
  5
3B6
100
AcDbSymbolTableRecord
100
AcDbBlockTableRecord
  2
BLOCK5
340
0
102
{BLKREFS
331
578
102
}
  0
BLOCK_RECORD
  5
3B7
100
AcDbSymbolTableRecord
100
AcDbBlockTableRecord
  2
BLOCK6
340
0
102
{BLKREFS
331
579
102
}
  0
BLOCK_RECORD
  5
3B8
100
AcDbSymbolTableRecord
100
AcDbBlockTableRecord
  2
BLOCK7
340
0
102
{BLKREFS
331
57A
102
}
  0
BLOCK_RECORD
  5
3B9
100
AcDbSymbolTableRecord
100
AcDbBlockTableRecord
  2
BLOCK8
340
0
102
{BLKREFS
331
57B
102
}
  0
BLOCK_RECORD
  5
3BA
100
AcDbSymbolTableRecord
100
AcDbBlockTableRecord
  2
BLOCK9
340
0
102
{BLKREFS
331
57C
102
}
  0
BLOCK_RECORD
  5
3BB
100
AcDbSymbolTableRecord
100
AcDbBlockTableRecord
  2
BLOCK10
340
0
102
{BLKREFS
331
57D
102
}
  0
BLOCK_RECORD
  5
3BC
100
AcDbSymbolTableRecord
100
AcDbBlockTableRecord
  2
BLOCK11
340
0
102
{BLKREFS
331
57E
102
}
  0
BLOCK_RECORD
  5
3BD
100
AcDbSymbolTableRecord
100
AcDbBlockTableRecord
  2
BLOCK12
340
0
102
{BLKREFS
331
57F
102
}
  0
BLOCK_RECORD
  5
3BE
100
AcDbSymbolTableRecord
100
AcDbBlockTableRecord
  2
BLOCK13
340
0
102
{BLKREFS
331
580
102
}
  0
BLOCK_RECORD
  5
3BF
100
AcDbSymbolTableRecord
100
AcDbBlockTableRecord
  2
BLOCK14
340
0
102
{BLKREFS
331
581
102
}
  0
BLOCK_RECORD
  5
3C0
100
AcDbSymbolTableRecord
100
AcDbBlockTableRecord
  2
BLOCK15
340
0
102
{BLKREFS
331
582
102
}
  0
BLOCK_RECORD
  5
3C1
100
AcDbSymbolTableRecord
100
AcDbBlockTableRecord
  2
BLOCK16
340
0
102
{BLKREFS
331
583
102
}
  0
BLOCK_RECORD
  5
3C2
100
AcDbSymbolTableRecord
100
AcDbBlockTableRecord
  2
BLOCK17
340
0
102
{BLKREFS
331
584
102
}
  0
BLOCK_RECORD
  5
3C3
100
AcDbSymbolTableRecord
100
AcDbBlockTableRecord
  2
BLOCK18
340
0
102
{BLKREFS
331
585
102
}
  0
BLOCK_RECORD
  5
3C4
100
AcDbSymbolTableRecord
100
AcDbBlockTableRecord
  2
BLOCK19
340
0
102
{BLKREFS
331
586
102
}
  0
ENDTAB
  0
ENDSEC
  0
SECTION
  2
BLOCKS
  0
BLOCK
  5
D
100
AcDbEntity
  8
0
390
0
100
AcDbBlockBegin
  2
*MODEL_SPACE
 70
     0
 10
0.0
 20
0.0
 30
0.0
  3
*MODEL_SPACE
  1

  0
ENDBLK
  5
E
100
AcDbEntity
  8
0
390
0
100
AcDbBlockEnd
  0
BLOCK
  5
F
100
AcDbEntity
 67
     1
  8
0
390
0
100
AcDbBlockBegin
  2
*PAPER_SPACE
 70
     0
 10
0.0
 20
0.0
 30
0.0
  3
*PAPER_SPACE
  1

  0
ENDBLK
  5
10
100
AcDbEntity
 67
     1
  8
0
390
0
100
AcDbBlockEnd
  0
BLOCK
  5
3C5
100
AcDbEntity
  8
0
370
     0
390
0
100
AcDbBlockBegin
  2
BLOCK1
 70
     0
 10
0.0
 20
0.0
 30
0.0
  3
BLOCK1
  1

  0
TEXT
  5
3C6
100
AcDbEntity
  8
0
370
    13
390
0
 62
     7
 48
0.03937
100
AcDbText
 10
8.745479
 20
1.043156
 30
0.0
 40
0.098425
  1
SIZE 
 72
     5
 11
9.119436
 21
1.043156
 31
0.0
100
AcDbText
  0
TEXT
  5
3C7
100
AcDbEntity
  8
0
370
    13
390
0
 62
     7
 48
0.03937
100
AcDbText
 10
9.120936
 20
1.043156
 30
0.0
 40
0.098425
  1
1
 72
     5
 11
9.192053
 21
1.043156
 31
0.0
100
AcDbText
  0
TEXT
  5
3C8
100
AcDbEntity
  8
0
370
    13
390
0
 62
     7
 48
0.03937
100
AcDbText
 10
9.193553
 20
1.043156
 30
0.0
 40
0.098425
  1
 INCH ID
 72
     5
 11
9.824899
 21
1.043156
 31
0.0
100
AcDbText
  0
ENDBLK
  5
3C9
100
AcDbEntity
  8
0
390
0
100
AcDbBlockEnd
  0
BLOCK
  5
3CA
100
AcDbEntity
  8
0
370
     0
390
0
100
AcDbBlockBegin
  2
BLOCK2
 70
     0
 10
0.0
 20
0.0
 30
0.0
  3
BLOCK2
  1

  0
TEXT
  5
3CB
100
AcDbEntity
  8
0
370
    13
390
0
 62
     7
 48
0.03937
100
AcDbText
 10
10.093103
 20
0.689966
 30
0.0
 40
0.06
  1
PO Box 2889
 72
     5
 11
10.730818
 21
0.689966
 31
0.0
100
AcDbText
  0
TEXT
  5
3CC
100
AcDbEntity
  8
0
370
    13
390
0
 62
     7
 48
0.03937
100
AcDbText
 10
9.686702
 20
0.589966
 30
0.0
 40
0.06
  1
Pearland, TX 77588
 72
     5
 11
10.730818
 21
0.589966
 31
0.0
100
AcDbText
  0
TEXT
  5
3CD
100
AcDbEntity
  8
0
370
    13
390
0
 62
     7
 48
0.03937
100
AcDbText
 10
9.802816
 20
0.489966
 30
0.0
 40
0.06
  1
PH: 800-826-3801
 72
     5
 11
10.730818
 21
0.489966
 31
0.0
100
AcDbText
  0
TEXT
  5
3CE
100
AcDbEntity
  8
0
370
    13
390
0
 62
     7
 48
0.03937
100
AcDbText
 10
9.744759
 20
0.389966
 30
0.0
 40
0.06
  1
FAX: 281-484-8730
 72
     5
 11
10.730818
 21
0.389966
 31
0.0
100
AcDbText
  0
TEXT
  5
3CF
100
AcDbEntity
  8
0
370
    13
390
0
 62
     7
 48
0.03937
100
AcDbText
 10
9.628644
 20
0.289966
 30
0.0
 40
0.06
  1
www.texasflange.com
 72
     5
 11
10.730818
 21
0.289966
 31
0.0
100
AcDbText
  0
ENDBLK
  5
3D0
100
AcDbEntity
  8
0
390
0
100
AcDbBlockEnd
  0
BLOCK
  5
3D1
100
AcDbEntity
  8
0
370
     0
390
0
100
AcDbBlockBegin
  2
BLOCK3
 70
     0
 10
0.0
 20
0.0
 30
0.0
  3
BLOCK3
  1

  0
TEXT
  5
3D2
100
AcDbEntity
  8
0
370
    13
390
0
 62
     7
 48
0.03937
100
AcDbText
 10
8.289209
 20
0.587871
 30
0.0
 40
0.2
  1
Texas
 72
     5
 11
9.383692
 21
0.587871
 31
0.0
100
AcDbText
  0
TEXT
  5
3D3
100
AcDbEntity
  8
0
370
    13
390
0
 62
     7
 48
0.03937
100
AcDbText
 10
8.289209
 20
0.327871
 30
0.0
 40
0.2
  1
Flange
 72
     5
 11
9.608945
 21
0.327871
 31
0.0
100
AcDbText
  0
ENDBLK
  5
3D4
100
AcDbEntity
  8
0
390
0
100
AcDbBlockEnd
  0
BLOCK
  5
3D5
100
AcDbEntity
  8
0
370
     0
390
0
100
AcDbBlockBegin
  2
BLOCK4
 70
     0
 10
0.0
 20
0.0
 30
0.0
  3
BLOCK4
  1

  0
LINE
  5
3D6
100
AcDbEntity
  8
0
370
     5
390
0
 62
     7
 48
0.00324
100
AcDbLine
 10
8.029831
 20
0.605292
 30
0.0
 11
7.900255
 21
0.604209
 31
0.0
210
0.0
220
0.0
230
1.0
  0
LINE
  5
3D7
100
AcDbEntity
  8
0
370
     5
390
0
 62
     7
 48
0.000103
100
AcDbLine
 10
7.900255
 20
0.604209
 30
0.0
 11
7.902151
 21
0.600546
 31
0.0
210
0.0
220
0.0
230
1.0
  0
LINE
  5
3D8
100
AcDbEntity
  8
0
370
     5
390
0
 62
     7
 48
0.0001
100
AcDbLine
 10
7.902151
 20
0.600546
 30
0.0
 11
7.903945
 21
0.596951
 31
0.0
210
0.0
220
0.0
230
1.0
  0
LINE
  5
3D9
100
AcDbEntity
  8
0
370
     5
390
0
 62
     7
 48
0.000098
100
AcDbLine
 10
7.903945
 20
0.596951
 30
0.0
 11
7.905638
 21
0.593424
 31
0.0
210
0.0
220
0.0
230
1.0
  0
LINE
  5
3DA
100
AcDbEntity
  8
0
370
     5
390
0
 62
     7
 48
0.000095
100
AcDbLine
 10
7.905638
 20
0.593424
 30
0.0
 11
7.907229
 21
0.589967
 31
0.0
210
0.0
220
0.0
230
1.0
  0
LINE
  5
3DB
100
AcDbEntity
  8
0
370
     5
390
0
 62
     7
 48
0.000093
100
AcDbLine
 10
7.907229
 20
0.589967
 30
0.0
 11
7.908719
 21
0.58658
 31
0.0
210
0.0
220
0.0
230
1.0
  0
LINE
  5
3DC
100
AcDbEntity
  8
0
370
     5
390
0
 62
     7
 48
0.00009
100
AcDbLine
 10
7.908719
 20
0.58658
 30
0.0
 11
7.910106
 21
0.583262
 31
0.0
210
0.0
220
0.0
230
1.0
  0
LINE
  5
3DD
100
AcDbEntity
  8
0
370
     5
390
0
 62
     7
 48
0.000087
100
AcDbLine
 10
7.910106
 20
0.583262
 30
0.0
 11
7.911392
 21
0.580013
 31
0.0
210
0.0
220
0.0
230
1.0
  0
LINE
  5
3DE
100
AcDbEntity
  8
0
370
     5
390
0
 62
     7
 48
0.000085
100
AcDbLine
 10
7.911392
 20
0.580013
 30
0.0
 11
7.912577
 21
0.576833
 31
0.0
210
0.0
220
0.0
230
1.0
  0
LINE
  5
3DF
100
AcDbEntity
  8
0
370
     5
390
0
 62
     7
 48
0.000082
100
AcDbLine
 10
7.912577
 20
0.576833
 30
0.0
 11
7.913659
 21
0.573722
 31
0.0
210
0.0
220
0.0
230
1.0
  0
LINE
  5
3E0
100
AcDbEntity
  8
0
370
     5
390
0
 62
     7
 48
0.000095
100
AcDbLine
 10
7.913659
 20
0.573722
 30
0.0
 11
7.915938
 21
0.570681
 31
0.0
210
0.0
220
0.0
230
1.0
  0
LINE
  5
3E1
100
AcDbEntity
  8
0
370
     5
390
0
 62
     7
 48
0.000066
100
AcDbLine
 10
7.915938
 20
0.570681
 30
0.0
 11
7.916123
 21
0.573306
 31
0.0
210
0.0
220
0.0
230
1.0
  0
LINE
  5
3E2
100
AcDbEntity
  8
0
370
     5
390
0
 62
     7
 48
0.000062
100
AcDbLine
 10
7.916123
 20
0.573306
 30
0.0
 11
7.916418
 21
0.575775
 31
0.0
210
0.0
220
0.0
230
1.0
  0
LINE
  5
3E3
100
AcDbEntity
  8
0
370
     5
390
0
 62
     7
 48
0.000059
100
AcDbLine
 10
7.916418
 20
0.575775
 30
0.0
 11
7.916824
 21
0.578087
 31
0.0
210
0.0
220
0.0
230
1.0
  0
LINE
  5
3E4
100
AcDbEntity
  8
0
370
     5
390
0
 62
     7
 48
0.000055
100
AcDbLine
 10
7.916824
 20
0.578087
 30
0.0
 11
7.917339
 21
0.580242
 31
0.0
210
0.0
220
0.0
230
1.0
  0
LINE
  5
3E5
100
AcDbEntity
  8
0
370
     5
390
0
 62
     7
 48
0.000052
100
AcDbLine
 10
7.917339
 20
0.580242
 30
0.0
 11
7.917966
 21
0.58224
 31
0.0
210
0.0
220
0.0
230
1.0
  0
LINE
  5
3E6
100
AcDbEntity
  8
0
370
     5
390
0
 62
     7
 48
0.00005
100
AcDbLine
 10
7.917966
 20
0.58224
 30
0.0
 11
7.918703
 21
0.584081
 31
0.0
210
0.0
220
0.0
230
1.0
  0
LINE
  5
3E7
100
AcDbEntity
  8
0
370
     5
390
0
 62
     7
 48
0.000047
100
AcDbLine
 10
7.918703
 20
0.584081
 30
0.0
 11
7.919549
 21
0.585767
 31
0.0
210
0.0
220
0.0
230
1.0
  0
LINE
  5
3E8
100
AcDbEntity
  8
0
370
     5
390
0
 62
     7
 48
0.000045
100
AcDbLine
 10
7.919549
 20
0.585767
 30
0.0
 11
7.920506
 21
0.587294
 31
0.0
210
0.0
220
0.0
230
1.0
  0
LINE
  5
3E9
100
AcDbEntity
  8
0
370
     5
390
0
 62
     7
 48
0.000043
100
AcDbLine
 10
7.920506
 20
0.587294
 30
0.0
 11
7.921574
 21
0.588665
 31
0.0
210
0.0
220
0.0
230
1.0
  0
LINE
  5
3EA
100
AcDbEntity
  8
0
370
     5
390
0
 62
     7
 48
0.000042
100
AcDbLine
 10
7.921574
 20
0.588665
 30
0.0
 11
7.922751
 21
0.58988
 31
0.0
210
0.0
220
0.0
230
1.0
  0
LINE
  5
3EB
100
AcDbEntity
  8
0
370
     5
390
0
 62
     7
 48
0.000042
100
AcDbLine
 10
7.922751
 20
0.58988
 30
0.0
 11
7.924063
 21
0.590958
 31
0.0
210
0.0
220
0.0
230
1.0
  0
LINE
  5
3EC
100
AcDbEntity
  8
0
370
     5
390
0
 62
     7
 48
0.000044
100
AcDbLine
 10
7.924063
 20
0.590958
 30
0.0
 11
7.92553
 21
0.591923
 31
0.0
210
0.0
220
0.0
230
1.0
  0
LINE
  5
3ED
100
AcDbEntity
  8
0
370
     5
390
0
 62
     7
 48
0.000046
100
AcDbLine
 10
7.92553
 20
0.591923
 30
0.0
 11
7.927152
 21
0.592775
 31
0.0
210
0.0
220
0.0
230
1.0
  0
LINE
  5
3EE
100
AcDbEntity
  8
0
370
     5
390
0
 62
     7
 48
0.000048
100
AcDbLine
 10
7.927152
 20
0.592775
 30
0.0
 11
7.92893
 21
0.593513
 31
0.0
210
0.0
220
0.0
230
1.0
  0
LINE
  5
3EF
100
AcDbEntity
  8
0
370
     5
390
0
 62
     7
 48
0.000051
100
AcDbLine
 10
7.92893
 20
0.593513
 30
0.0
 11
7.930864
 21
0.594138
 31
0.0
210
0.0
220
0.0
230
1.0
  0
LINE
  5
3F0
100
AcDbEntity
  8
0
370
     5
390
0
 62
     7
 48
0.000054
100
AcDbLine
 10
7.930864
 20
0.594138
 30
0.0
 11
7.932953
 21
0.594648
 31
0.0
210
0.0
220
0.0
230
1.0
  0
LINE
  5
3F1
100
AcDbEntity
  8
0
370
     5
390
0
 62
     7
 48
0.000057
100
AcDbLine
 10
7.932953
 20
0.594648
 30
0.0
 11
7.9352
 21
0.595046
 31
0.0
210
0.0
220
0.0
230
1.0
  0
LINE
  5
3F2
100
AcDbEntity
  8
0
370
     5
390
0
 62
     7
 48
0.00006
100
AcDbLine
 10
7.9352
 20
0.595046
 30
0.0
 11
7.9376
 21
0.595331
 31
0.0
210
0.0
220
0.0
230
1.0
  0
LINE
  5
3F3
100
AcDbEntity
  8
0
370
     5
390
0
 62
     7
 48
0.000064
100
AcDbLine
 10
7.9376
 20
0.595331
 30
0.0
 11
7.940158
 21
0.5955
 31
0.0
210
0.0
220
0.0
230
1.0
  0
LINE
  5
3F4
100
AcDbEntity
  8
0
370
     5
390
0
 62
     7
 48
0.000068
100
AcDbLine
 10
7.940158
 20
0.5955
 30
0.0
 11
7.94287
 21
0.595557
 31
0.0
210
0.0
220
0.0
230
1.0
  0
LINE
  5
3F5
100
AcDbEntity
  8
0
370
     5
390
0
 62
     7
 48
0.00005
100
AcDbLine
 10
7.94287
 20
0.595557
 30
0.0
 11
7.944881
 21
0.595532
 31
0.0
210
0.0
220
0.0
230
1.0
  0
LINE
  5
3F6
100
AcDbEntity
  8
0
370
     5
390
0
 62
     7
 48
0.000051
100
AcDbLine
 10
7.944881
 20
0.595532
 30
0.0
 11
7.946936
 21
0.595454
 31
0.0
210
0.0
220
0.0
230
1.0
  0
LINE
  5
3F7
100
AcDbEntity
  8
0
370
     5
390
0
 62
     7
 48
0.000053
100
AcDbLine
 10
7.946936
 20
0.595454
 30
0.0
 11
7.949034
 21
0.595323
 31
0.0
210
0.0
220
0.0
230
1.0
  0
LINE
  5
3F8
100
AcDbEntity
  8
0
370
     5
390
0
 62
     7
 48
0.000054
100
AcDbLine
 10
7.949034
 20
0.595323
 30
0.0
 11
7.951177
 21
0.595142
 31
0.0
210
0.0
220
0.0
230
1.0
  0
LINE
  5
3F9
100
AcDbEntity
  8
0
370
     5
390
0
 62
     7
 48
0.000055
100
AcDbLine
 10
7.951177
 20
0.595142
 30
0.0
 11
7.953361
 21
0.594908
 31
0.0
210
0.0
220
0.0
230
1.0
  0
LINE
  5
3FA
100
AcDbEntity
  8
0
370
     5
390
0
 62
     7
 48
0.000136
100
AcDbLine
 10
7.953361
 20
0.594908
 30
0.0
 11
7.952171
 21
0.589608
 31
0.0
210
0.0
220
0.0
230
1.0
  0
LINE
  5
3FB
100
AcDbEntity
  8
0
370
     5
390
0
 62
     7
 48
0.000162
100
AcDbLine
 10
7.952171
 20
0.589608
 30
0.0
 11
7.945682
 21
0.589716
 31
0.0
210
0.0
220
0.0
230
1.0
  0
LINE
  5
3FC
100
AcDbEntity
  8
0
370
     5
390
0
 62
     7
 48
0.00006
100
AcDbLine
 10
7.945682
 20
0.589716
 30
0.0
 11
7.943286
 21
0.589667
 31
0.0
210
0.0
220
0.0
230
1.0
  0
LINE
  5
3FD
100
AcDbEntity
  8
0
370
     5
390
0
 62
     7
 48
0.000057
100
AcDbLine
 10
7.943286
 20
0.589667
 30
0.0
 11
7.941029
 21
0.589518
 31
0.0
210
0.0
220
0.0
230
1.0
  0
LINE
  5
3FE
100
AcDbEntity
  8
0
370
     5
390
0
 62
     7
 48
0.000053
100
AcDbLine
 10
7.941029
 20
0.589518
 30
0.0
 11
7.938912
 21
0.589269
 31
0.0
210
0.0
220
0.0
230
1.0
  0
LINE
  5
3FF
100
AcDbEntity
  8
0
370
     5
390
0
 62
     7
 48
0.00005
100
AcDbLine
 10
7.938912
 20
0.589269
 30
0.0
 11
7.936934
 21
0.588921
 31
0.0
210
0.0
220
0.0
230
1.0
  0
LINE
  5
400
100
AcDbEntity
  8
0
370
     5
390
0
 62
     7
 48
0.000047
100
AcDbLine
 10
7.936934
 20
0.588921
 30
0.0
 11
7.935095
 21
0.588473
 31
0.0
210
0.0
220
0.0
230
1.0
  0
LINE
  5
401
100
AcDbEntity
  8
0
370
     5
390
0
 62
     7
 48
0.000045
100
AcDbLine
 10
7.935095
 20
0.588473
 30
0.0
 11
7.933397
 21
0.587925
 31
0.0
210
0.0
220
0.0
230
1.0
  0
LINE
  5
402
100
AcDbEntity
  8
0
370
     5
390
0
 62
     7
 48
0.000042
100
AcDbLine
 10
7.933397
 20
0.587925
 30
0.0
 11
7.931839
 21
0.587279
 31
0.0
210
0.0
220
0.0
230
1.0
  0
LINE
  5
403
100
AcDbEntity
  8
0
370
     5
390
0
 62
     7
 48
0.00004
100
AcDbLine
 10
7.931839
 20
0.587279
 30
0.0
 11
7.930418
 21
0.586532
 31
0.0
210
0.0
220
0.0
230
1.0
  0
LINE
  5
404
100
AcDbEntity
  8
0
370
     5
390
0
 62
     7
 48
0.000038
100
AcDbLine
 10
7.930418
 20
0.586532
 30
0.0
 11
7.929138
 21
0.585687
 31
0.0
210
0.0
220
0.0
230
1.0
  0
LINE
  5
405
100
AcDbEntity
  8
0
370
     5
390
0
 62
     7
 48
0.000074
100
AcDbLine
 10
7.929138
 20
0.585687
 30
0.0
 11
7.926968
 21
0.58367
 31
0.0
210
0.0
220
0.0
230
1.0
  0
LINE
  5
406
100
AcDbEntity
  8
0
370
     5
390
0
 62
     7
 48
0.000039
100
AcDbLine
 10
7.926968
 20
0.58367
 30
0.0
 11
7.926023
 21
0.582444
 31
0.0
210
0.0
220
0.0
230
1.0
  0
LINE
  5
407
100
AcDbEntity
  8
0
370
     5
390
0
 62
     7
 48
0.000041
100
AcDbLine
 10
7.926023
 20
0.582444
 30
0.0
 11
7.92516
 21
0.581064
 31
0.0
210
0.0
220
0.0
230
1.0
  0
LINE
  5
408
100
AcDbEntity
  8
0
370
     5
390
0
 62
     7
 48
0.000043
100
AcDbLine
 10
7.92516
 20
0.581064
 30
0.0
 11
7.924381
 21
0.579533
 31
0.0
210
0.0
220
0.0
230
1.0
  0
LINE
  5
409
100
AcDbEntity
  8
0
370
     5
390
0
 62
     7
 48
0.000046
100
AcDbLine
 10
7.924381
 20
0.579533
 30
0.0
 11
7.923684
 21
0.577847
 31
0.0
210
0.0
220
0.0
230
1.0
  0
LINE
  5
40A
100
AcDbEntity
  8
0
370
     5
390
0
 62
     7
 48
0.000048
100
AcDbLine
 10
7.923684
 20
0.577847
 30
0.0
 11
7.923073
 21
0.576006
 31
0.0
210
0.0
220
0.0
230
1.0
  0
LINE
  5
40B
100
AcDbEntity
  8
0
370
     5
390
0
 62
     7
 48
0.000052
100
AcDbLine
 10
7.923073
 20
0.576006
 30
0.0
 11
7.922543
 21
0.574013
 31
0.0
210
0.0
220
0.0
230
1.0
  0
LINE
  5
40C
100
AcDbEntity
  8
0
370
     5
390
0
 62
     7
 48
0.000055
100
AcDbLine
 10
7.922543
 20
0.574013
 30
0.0
 11
7.922096
 21
0.571866
 31
0.0
210
0.0
220
0.0
230
1.0
  0
LINE
  5
40D
100
AcDbEntity
  8
0
370
     5
390
0
 62
     7
 48
0.000058
100
AcDbLine
 10
7.922096
 20
0.571866
 30
0.0
 11
7.921734
 21
0.569565
 31
0.0
210
0.0
220
0.0
230
1.0
  0
LINE
  5
40E
100
AcDbEntity
  8
0
370
     5
390
0
 62
     7
 48
0.000062
100
AcDbLine
 10
7.921734
 20
0.569565
 30
0.0
 11
7.921454
 21
0.567111
 31
0.0
210
0.0
220
0.0
230
1.0
  0
LINE
  5
40F
100
AcDbEntity
  8
0
370
     5
390
0
 62
     7
 48
0.00007
100
AcDbLine
 10
7.921454
 20
0.567111
 30
0.0
 11
7.924266
 21
0.567111
 31
0.0
210
0.0
220
0.0
230
1.0
  0
LINE
  5
410
100
AcDbEntity
  8
0
370
     5
390
0
 62
     7
 48
0.000054
100
AcDbLine
 10
7.924266
 20
0.567111
 30
0.0
 11
7.924478
 21
0.569252
 31
0.0
210
0.0
220
0.0
230
1.0
  0
LINE
  5
411
100
AcDbEntity
  8
0
370
     5
390
0
 62
     7
 48
0.000051
100
AcDbLine
 10
7.924478
 20
0.569252
 30
0.0
 11
7.924766
 21
0.571259
 31
0.0
210
0.0
220
0.0
230
1.0
  0
LINE
  5
412
100
AcDbEntity
  8
0
370
     5
390
0
 62
     7
 48
0.000048
100
AcDbLine
 10
7.924766
 20
0.571259
 30
0.0
 11
7.92513
 21
0.573132
 31
0.0
210
0.0
220
0.0
230
1.0
  0
LINE
  5
413
100
AcDbEntity
  8
0
370
     5
390
0
 62
     7
 48
0.000045
100
AcDbLine
 10
7.92513
 20
0.573132
 30
0.0
 11
7.925573
 21
0.574872
 31
0.0
210
0.0
220
0.0
230
1.0
  0
LINE
  5
414
100
AcDbEntity
  8
0
370
     5
390
0
 62
     7
 48
0.000042
100
AcDbLine
 10
7.925573
 20
0.574872
 30
0.0
 11
7.926092
 21
0.57648
 31
0.0
210
0.0
220
0.0
230
1.0
  0
LINE
  5
415
100
AcDbEntity
  8
0
370
     5
390
0
 62
     7
 48
0.000077
100
AcDbLine
 10
7.926092
 20
0.57648
 30
0.0
 11
7.92736
 21
0.579297
 31
0.0
210
0.0
220
0.0
230
1.0
  0
LINE
  5
416
100
AcDbEntity
  8
0
370
     5
390
0
 62
     7
 48
0.000069
100
AcDbLine
 10
7.92736
 20
0.579297
 30
0.0
 11
7.928935
 21
0.581582
 31
0.0
210
0.0
220
0.0
230
1.0
  0
LINE
  5
417
100
AcDbEntity
  8
0
370
     5
390
0
 62
     7
 48
0.000065
100
AcDbLine
 10
7.928935
 20
0.581582
 30
0.0
 11
7.930843
 21
0.583356
 31
0.0
210
0.0
220
0.0
230
1.0
  0
LINE
  5
418
100
AcDbEntity
  8
0
370
     5
390
0
 62
     7
 48
0.000069
100
AcDbLine
 10
7.930843
 20
0.583356
 30
0.0
 11
7.93324
 21
0.584759
 31
0.0
210
0.0
220
0.0
230
1.0
  0
LINE
  5
419
100
AcDbEntity
  8
0
370
     5
390
0
 62
     7
 48
0.000038
100
AcDbLine
 10
7.93324
 20
0.584759
 30
0.0
 11
7.93463
 21
0.585327
 31
0.0
210
0.0
220
0.0
230
1.0
  0
LINE
  5
41A
100
AcDbEntity
  8
0
370
     5
390
0
 62
     7
 48
0.00004
100
AcDbLine
 10
7.93463
 20
0.585327
 30
0.0
 11
7.936151
 21
0.585809
 31
0.0
210
0.0
220
0.0
230
1.0
  0
LINE
  5
41B
100
AcDbEntity
  8
0
370
     5
390
0
 62
     7
 48
0.000042
100
AcDbLine
 10
7.936151
 20
0.585809
 30
0.0
 11
7.937799
 21
0.586203
 31
0.0
210
0.0
220
0.0
230
1.0
  0
LINE
  5
41C
100
AcDbEntity
  8
0
370
     5
390
0
 62
     7
 48
0.000045
100
AcDbLine
 10
7.937799
 20
0.586203
 30
0.0
 11
7.939577
 21
0.586511
 31
0.0
210
0.0
220
0.0
230
1.0
  0
LINE
  5
41D
100
AcDbEntity
  8
0
370
     5
390
0
 62
     7
 48
0.000048
100
AcDbLine
 10
7.939577
 20
0.586511
 30
0.0
 11
7.941484
 21
0.58673
 31
0.0
210
0.0
220
0.0
230
1.0
  0
LINE
  5
41E
100
AcDbEntity
  8
0
370
     5
390
0
 62
     7
 48
0.000051
100
AcDbLine
 10
7.941484
 20
0.58673
 30
0.0
 11
7.943519
 21
0.58686
 31
0.0
210
0.0
220
0.0
230
1.0
  0
LINE
  5
41F
100
AcDbEntity
  8
0
370
     5
390
0
 62
     7
 48
0.000054
100
AcDbLine
 10
7.943519
 20
0.58686
 30
0.0
 11
7.945682
 21
0.586905
 31
0.0
210
0.0
220
0.0
230
1.0
  0
LINE
  5
420
100
AcDbEntity
  8
0
370
     5
390
0
 62
     7
 48
0.000192
100
AcDbLine
 10
7.945682
 20
0.586905
 30
0.0
 11
7.953361
 21
0.586796
 31
0.0
210
0.0
220
0.0
230
1.0
  0
LINE
  5
421
100
AcDbEntity
  8
0
370
     5
390
0
 62
     7
 48
0.00269
100
AcDbLine
 10
7.953361
 20
0.586796
 30
0.0
 11
7.953361
 21
0.479178
 31
0.0
210
0.0
220
0.0
230
1.0
  0
LINE
  5
422
100
AcDbEntity
  8
0
370
     5
390
0
 62
     7
 48
0.000493
100
AcDbLine
 10
7.953361
 20
0.479178
 30
0.0
 11
7.93822
 21
0.466523
 31
0.0
210
0.0
220
0.0
230
1.0
  0
LINE
  5
423
100
AcDbEntity
  8
0
370
     5
390
0
 62
     7
 48
0.001236
100
AcDbLine
 10
7.93822
 20
0.466523
 30
0.0
 11
7.987647
 21
0.466523
 31
0.0
210
0.0
220
0.0
230
1.0
  0
LINE
  5
424
100
AcDbEntity
  8
0
370
     5
390
0
 62
     7
 48
0.000434
100
AcDbLine
 10
7.987647
 20
0.466523
 30
0.0
 11
7.974885
 21
0.478313
 31
0.0
210
0.0
220
0.0
230
1.0
  0
LINE
  5
425
100
AcDbEntity
  8
0
370
     5
390
0
 62
     7
 48
0.002931
100
AcDbLine
 10
7.974885
 20
0.478313
 30
0.0
 11
7.976183
 21
0.595557
 31
0.0
210
0.0
220
0.0
230
1.0
  0
LINE
  5
426
100
AcDbEntity
  8
0
370
     5
390
0
 62
     7
 48
0.000049
100
AcDbLine
 10
7.976183
 20
0.595557
 30
0.0
 11
7.97813
 21
0.595713
 31
0.0
210
0.0
220
0.0
230
1.0
  0
LINE
  5
427
100
AcDbEntity
  8
0
370
     5
390
0
 62
     7
 48
0.000049
100
AcDbLine
 10
7.97813
 20
0.595713
 30
0.0
 11
7.980077
 21
0.595835
 31
0.0
210
0.0
220
0.0
230
1.0
  0
LINE
  5
428
100
AcDbEntity
  8
0
370
     5
390
0
 62
     7
 48
0.000049
100
AcDbLine
 10
7.980077
 20
0.595835
 30
0.0
 11
7.982024
 21
0.59592
 31
0.0
210
0.0
220
0.0
230
1.0
  0
LINE
  5
429
100
AcDbEntity
  8
0
370
     5
390
0
 62
     7
 48
0.000049
100
AcDbLine
 10
7.982024
 20
0.59592
 30
0.0
 11
7.983971
 21
0.595973
 31
0.0
210
0.0
220
0.0
230
1.0
  0
LINE
  5
42A
100
AcDbEntity
  8
0
370
     5
390
0
 62
     7
 48
0.000049
100
AcDbLine
 10
7.983971
 20
0.595973
 30
0.0
 11
7.985918
 21
0.595991
 31
0.0
210
0.0
220
0.0
230
1.0
  0
LINE
  5
42B
100
AcDbEntity
  8
0
370
     5
390
0
 62
     7
 48
0.000058
100
AcDbLine
 10
7.985918
 20
0.595991
 30
0.0
 11
7.988236
 21
0.595943
 31
0.0
210
0.0
220
0.0
230
1.0
  0
LINE
  5
42C
100
AcDbEntity
  8
0
370
     5
390
0
 62
     7
 48
0.000055
100
AcDbLine
 10
7.988236
 20
0.595943
 30
0.0
 11
7.990431
 21
0.595799
 31
0.0
210
0.0
220
0.0
230
1.0
  0
LINE
  5
42D
100
AcDbEntity
  8
0
370
     5
390
0
 62
     7
 48
0.000052
100
AcDbLine
 10
7.990431
 20
0.595799
 30
0.0
 11
7.992506
 21
0.595562
 31
0.0
210
0.0
220
0.0
230
1.0
  0
LINE
  5
42E
100
AcDbEntity
  8
0
370
     5
390
0
 62
     7
 48
0.000049
100
AcDbLine
 10
7.992506
 20
0.595562
 30
0.0
 11
7.994457
 21
0.595229
 31
0.0
210
0.0
220
0.0
230
1.0
  0
LINE
  5
42F
100
AcDbEntity
  8
0
370
     5
390
0
 62
     7
 48
0.000047
100
AcDbLine
 10
7.994457
 20
0.595229
 30
0.0
 11
7.996287
 21
0.5948
 31
0.0
210
0.0
220
0.0
230
1.0
  0
LINE
  5
430
100
AcDbEntity
  8
0
370
     5
390
0
 62
     7
 48
0.000045
100
AcDbLine
 10
7.996287
 20
0.5948
 30
0.0
 11
7.997995
 21
0.594276
 31
0.0
210
0.0
220
0.0
230
1.0
  0
LINE
  5
431
100
AcDbEntity
  8
0
370
     5
390
0
 62
     7
 48
0.000043
100
AcDbLine
 10
7.997995
 20
0.594276
 30
0.0
 11
7.99958
 21
0.593658
 31
0.0
210
0.0
220
0.0
230
1.0
  0
LINE
  5
432
100
AcDbEntity
  8
0
370
     5
390
0
 62
     7
 48
0.000041
100
AcDbLine
 10
7.99958
 20
0.593658
 30
0.0
 11
8.001043
 21
0.592944
 31
0.0
210
0.0
220
0.0
230
1.0
  0
LINE
  5
433
100
AcDbEntity
  8
0
370
     5
390
0
 62
     7
 48
0.000039
100
AcDbLine
 10
8.001043
 20
0.592944
 30
0.0
 11
8.002384
 21
0.592136
 31
0.0
210
0.0
220
0.0
230
1.0
  0
LINE
  5
434
100
AcDbEntity
  8
0
370
     5
390
0
 62
     7
 48
0.000038
100
AcDbLine
 10
8.002384
 20
0.592136
 30
0.0
 11
8.003601
 21
0.591231
 31
0.0
210
0.0
220
0.0
230
1.0
  0
LINE
  5
435
100
AcDbEntity
  8
0
370
     5
390
0
 62
     7
 48
0.000038
100
AcDbLine
 10
8.003601
 20
0.591231
 30
0.0
 11
8.004733
 21
0.590204
 31
0.0
210
0.0
220
0.0
230
1.0
  0
LINE
  5
436
100
AcDbEntity
  8
0
370
     5
390
0
 62
     7
 48
0.00004
100
AcDbLine
 10
8.004733
 20
0.590204
 30
0.0
 11
8.00581
 21
0.589025
 31
0.0
210
0.0
220
0.0
230
1.0
  0
LINE
  5
437
100
AcDbEntity
  8
0
370
     5
390
0
 62
     7
 48
0.000042
100
AcDbLine
 10
8.00581
 20
0.589025
 30
0.0
 11
8.006836
 21
0.587694
 31
0.0
210
0.0
220
0.0
230
1.0
  0
LINE
  5
438
100
AcDbEntity
  8
0
370
     5
390
0
 62
     7
 48
0.000044
100
AcDbLine
 10
8.006836
 20
0.587694
 30
0.0
 11
8.007806
 21
0.586212
 31
0.0
210
0.0
220
0.0
230
1.0
  0
LINE
  5
439
100
AcDbEntity
  8
0
370
     5
390
0
 62
     7
 48
0.000047
100
AcDbLine
 10
8.007806
 20
0.586212
 30
0.0
 11
8.008726
 21
0.584579
 31
0.0
210
0.0
220
0.0
230
1.0
  0
LINE
  5
43A
100
AcDbEntity
  8
0
370
     5
390
0
 62
     7
 48
0.00005
100
AcDbLine
 10
8.008726
 20
0.584579
 30
0.0
 11
8.009591
 21
0.582795
 31
0.0
210
0.0
220
0.0
230
1.0
  0
LINE
  5
43B
100
AcDbEntity
  8
0
370
     5
390
0
 62
     7
 48
0.000053
100
AcDbLine
 10
8.009591
 20
0.582795
 30
0.0
 11
8.010404
 21
0.580859
 31
0.0
210
0.0
220
0.0
230
1.0
  0
LINE
  5
43C
100
AcDbEntity
  8
0
370
     5
390
0
 62
     7
 48
0.000056
100
AcDbLine
 10
8.010404
 20
0.580859
 30
0.0
 11
8.011163
 21
0.578771
 31
0.0
210
0.0
220
0.0
230
1.0
  0
LINE
  5
43D
100
AcDbEntity
  8
0
370
     5
390
0
 62
     7
 48
0.000059
100
AcDbLine
 10
8.011163
 20
0.578771
 30
0.0
 11
8.011871
 21
0.576531
 31
0.0
210
0.0
220
0.0
230
1.0
  0
LINE
  5
43E
100
AcDbEntity
  8
0
370
     5
390
0
 62
     7
 48
0.000062
100
AcDbLine
 10
8.011871
 20
0.576531
 30
0.0
 11
8.012525
 21
0.574142
 31
0.0
210
0.0
220
0.0
230
1.0
  0
LINE
  5
43F
100
AcDbEntity
  8
0
370
     5
390
0
 62
     7
 48
0.000057
100
AcDbLine
 10
8.012525
 20
0.574142
 30
0.0
 11
8.014147
 21
0.572519
 31
0.0
210
0.0
220
0.0
230
1.0
  0
LINE
  5
440
100
AcDbEntity
  8
0
370
     5
390
0
 62
     7
 48
0.000054
100
AcDbLine
 10
8.014147
 20
0.572519
 30
0.0
 11
8.014802
 21
0.574562
 31
0.0
210
0.0
220
0.0
230
1.0
  0
LINE
  5
441
100
AcDbEntity
  8
0
370
     5
390
0
 62
     7
 48
0.000052
100
AcDbLine
 10
8.014802
 20
0.574562
 30
0.0
 11
8.015467
 21
0.576534
 31
0.0
210
0.0
220
0.0
230
1.0
  0
LINE
  5
442
100
AcDbEntity
  8
0
370
     5
390
0
 62
     7
 48
0.000051
100
AcDbLine
 10
8.015467
 20
0.576534
 30
0.0
 11
8.016143
 21
0.578438
 31
0.0
210
0.0
220
0.0
230
1.0
  0
LINE
  5
443
100
AcDbEntity
  8
0
370
     5
390
0
 62
     7
 48
0.000049
100
AcDbLine
 10
8.016143
 20
0.578438
 30
0.0
 11
8.01683
 21
0.580272
 31
0.0
210
0.0
220
0.0
230
1.0
  0
LINE
  5
444
100
AcDbEntity
  8
0
370
     5
390
0
 62
     7
 48
0.000047
100
AcDbLine
 10
8.01683
 20
0.580272
 30
0.0
 11
8.017528
 21
0.582038
 31
0.0
210
0.0
220
0.0
230
1.0
  0
LINE
  5
445
100
AcDbEntity
  8
0
370
     5
390
0
 62
     7
 48
0.000046
100
AcDbLine
 10
8.017528
 20
0.582038
 30
0.0
 11
8.018235
 21
0.583734
 31
0.0
210
0.0
220
0.0
230
1.0
  0
LINE
  5
446
100
AcDbEntity
  8
0
370
     5
390
0
 62
     7
 48
0.000044
100
AcDbLine
 10
8.018235
 20
0.583734
 30
0.0
 11
8.018954
 21
0.58536
 31
0.0
210
0.0
220
0.0
230
1.0
  0
LINE
  5
447
100
AcDbEntity
  8
0
370
     5
390
0
 62
     7
 48
0.000043
100
AcDbLine
 10
8.018954
 20
0.58536
 30
0.0
 11
8.019684
 21
0.586917
 31
0.0
210
0.0
220
0.0
230
1.0
  0
LINE
  5
448
100
AcDbEntity
  8
0
370
     5
390
0
 62
     7
 48
0.000042
100
AcDbLine
 10
8.019684
 20
0.586917
 30
0.0
 11
8.020426
 21
0.588405
 31
0.0
210
0.0
220
0.0
230
1.0
  0
LINE
  5
449
100
AcDbEntity
  8
0
370
     5
390
0
 62
     7
 48
0.00004
100
AcDbLine
 10
8.020426
 20
0.588405
 30
0.0
 11
8.021177
 21
0.589826
 31
0.0
210
0.0
220
0.0
230
1.0
  0
LINE
  5
44A
100
AcDbEntity
  8
0
370
     5
390
0
 62
     7
 48
0.0004
100
AcDbLine
 10
8.021177
 20
0.589826
 30
0.0
 11
8.029019
 21
0.60375
 31
0.0
210
0.0
220
0.0
230
1.0
  0
LINE
  5
44B
100
AcDbEntity
  8
0
370
     5
390
0
 62
     7
 48
0.000044
100
AcDbLine
 10
8.029019
 20
0.60375
 30
0.0
 11
8.029831
 21
0.605292
 31
0.0
210
0.0
220
0.0
230
1.0
  0
ENDBLK
  5
44C
100
AcDbEntity
  8
0
390
0
100
AcDbBlockEnd
  0
BLOCK
  5
44D
100
AcDbEntity
  8
0
370
     0
390
0
100
AcDbBlockBegin
  2
BLOCK5
 70
     0
 10
0.0
 20
0.0
 30
0.0
  3
BLOCK5
  1

  0
LINE
  5
44E
100
AcDbEntity
  8
0
370
     5
390
0
 62
     7
 48
0.000505
100
AcDbLine
 10
8.03978
 20
0.605292
 30
0.0
 11
8.054382
 21
0.591339
 31
0.0
210
0.0
220
0.0
230
1.0
  0
LINE
  5
44F
100
AcDbEntity
  8
0
370
     5
390
0
 62
     7
 48
0.001141
100
AcDbLine
 10
8.054382
 20
0.591339
 30
0.0
 11
8.054382
 21
0.545696
 31
0.0
210
0.0
220
0.0
230
1.0
  0
LINE
  5
450
100
AcDbEntity
  8
0
370
     5
390
0
 62
     7
 48
0.00008
100
AcDbLine
 10
8.054382
 20
0.545696
 30
0.0
 11
8.051189
 21
0.545309
 31
0.0
210
0.0
220
0.0
230
1.0
  0
LINE
  5
451
100
AcDbEntity
  8
0
370
     5
390
0
 62
     7
 48
0.000076
100
AcDbLine
 10
8.051189
 20
0.545309
 30
0.0
 11
8.048231
 21
0.544665
 31
0.0
210
0.0
220
0.0
230
1.0
  0
LINE
  5
452
100
AcDbEntity
  8
0
370
     5
390
0
 62
     7
 48
0.000072
100
AcDbLine
 10
8.048231
 20
0.544665
 30
0.0
 11
8.045504
 21
0.543768
 31
0.0
210
0.0
220
0.0
230
1.0
  0
LINE
  5
453
100
AcDbEntity
  8
0
370
     5
390
0
 62
     7
 48
0.000069
100
AcDbLine
 10
8.045504
 20
0.543768
 30
0.0
 11
8.043013
 21
0.542615
 31
0.0
210
0.0
220
0.0
230
1.0
  0
LINE
  5
454
100
AcDbEntity
  8
0
370
     5
390
0
 62
     7
 48
0.000067
100
AcDbLine
 10
8.043013
 20
0.542615
 30
0.0
 11
8.040755
 21
0.541208
 31
0.0
210
0.0
220
0.0
230
1.0
  0
LINE
  5
455
100
AcDbEntity
  8
0
370
     5
390
0
 62
     7
 48
0.000066
100
AcDbLine
 10
8.040755
 20
0.541208
 30
0.0
 11
8.03873
 21
0.539544
 31
0.0
210
0.0
220
0.0
230
1.0
  0
LINE
  5
456
100
AcDbEntity
  8
0
370
     5
390
0
 62
     7
 48
0.000066
100
AcDbLine
 10
8.03873
 20
0.539544
 30
0.0
 11
8.036938
 21
0.537626
 31
0.0
210
0.0
220
0.0
230
1.0
  0
LINE
  5
457
100
AcDbEntity
  8
0
370
     5
390
0
 62
     7
 48
0.000067
100
AcDbLine
 10
8.036938
 20
0.537626
 30
0.0
 11
8.03538
 21
0.535451
 31
0.0
210
0.0
220
0.0
230
1.0
  0
LINE
  5
458
100
AcDbEntity
  8
0
370
     5
390
0
 62
     7
 48
0.000069
100
AcDbLine
 10
8.03538
 20
0.535451
 30
0.0
 11
8.034058
 21
0.533022
 31
0.0
210
0.0
220
0.0
230
1.0
  0
LINE
  5
459
100
AcDbEntity
  8
0
370
     5
390
0
 62
     7
 48
0.000072
100
AcDbLine
 10
8.034058
 20
0.533022
 30
0.0
 11
8.032967
 21
0.530337
 31
0.0
210
0.0
220
0.0
230
1.0
  0
LINE
  5
45A
100
AcDbEntity
  8
0
370
     5
390
0
 62
     7
 48
0.000047
100
AcDbLine
 10
8.032967
 20
0.530337
 30
0.0
 11
8.033725
 21
0.528606
 31
0.0
210
0.0
220
0.0
230
1.0
  0
LINE
  5
45B
100
AcDbEntity
  8
0
370
     5
390
0
 62
     7
 48
0.000054
100
AcDbLine
 10
8.033725
 20
0.528606
 30
0.0
 11
8.035222
 21
0.530168
 31
0.0
210
0.0
220
0.0
230
1.0
  0
LINE
  5
45C
100
AcDbEntity
  8
0
370
     5
390
0
 62
     7
 48
0.000052
100
AcDbLine
 10
8.035222
 20
0.530168
 30
0.0
 11
8.036774
 21
0.531566
 31
0.0
210
0.0
220
0.0
230
1.0
  0
LINE
  5
45D
100
AcDbEntity
  8
0
370
     5
390
0
 62
     7
 48
0.000051
100
AcDbLine
 10
8.036774
 20
0.531566
 30
0.0
 11
8.038381
 21
0.532799
 31
0.0
210
0.0
220
0.0
230
1.0
  0
LINE
  5
45E
100
AcDbEntity
  8
0
370
     5
390
0
 62
     7
 48
0.000049
100
AcDbLine
 10
8.038381
 20
0.532799
 30
0.0
 11
8.04004
 21
0.533868
 31
0.0
210
0.0
220
0.0
230
1.0
  0
LINE
  5
45F
100
AcDbEntity
  8
0
370
     5
390
0
 62
     7
 48
0.000048
100
AcDbLine
 10
8.04004
 20
0.533868
 30
0.0
 11
8.041754
 21
0.534771
 31
0.0
210
0.0
220
0.0
230
1.0
  0
LINE
  5
460
100
AcDbEntity
  8
0
370
     5
390
0
 62
     7
 48
0.000048
100
AcDbLine
 10
8.041754
 20
0.534771
 30
0.0
 11
8.043522
 21
0.535512
 31
0.0
210
0.0
220
0.0
230
1.0
  0
LINE
  5
461
100
AcDbEntity
  8
0
370
     5
390
0
 62
     7
 48
0.000048
100
AcDbLine
 10
8.043522
 20
0.535512
 30
0.0
 11
8.045345
 21
0.536087
 31
0.0
210
0.0
220
0.0
230
1.0
  0
LINE
  5
462
100
AcDbEntity
  8
0
370
     5
390
0
 62
     7
 48
0.000048
100
AcDbLine
 10
8.045345
 20
0.536087
 30
0.0
 11
8.047222
 21
0.536498
 31
0.0
210
0.0
220
0.0
230
1.0
  0
LINE
  5
463
100
AcDbEntity
  8
0
370
     5
390
0
 62
     7
 48
0.000049
100
AcDbLine
 10
8.047222
 20
0.536498
 30
0.0
 11
8.049152
 21
0.536744
 31
0.0
210
0.0
220
0.0
230
1.0
  0
LINE
  5
464
100
AcDbEntity
  8
0
370
     5
390
0
 62
     7
 48
0.00005
100
AcDbLine
 10
8.049152
 20
0.536744
 30
0.0
 11
8.051138
 21
0.536826
 31
0.0
210
0.0
220
0.0
230
1.0
  0
LINE
  5
465
100
AcDbEntity
  8
0
370
     5
390
0
 62
     7
 48
0.000041
100
AcDbLine
 10
8.051138
 20
0.536826
 30
0.0
 11
8.052773
 21
0.536748
 31
0.0
210
0.0
220
0.0
230
1.0
  0
LINE
  5
466
100
AcDbEntity
  8
0
370
     5
390
0
 62
     7
 48
0.00004
100
AcDbLine
 10
8.052773
 20
0.536748
 30
0.0
 11
8.054382
 21
0.53661
 31
0.0
210
0.0
220
0.0
230
1.0
  0
LINE
  5
467
100
AcDbEntity
  8
0
370
     5
390
0
 62
     7
 48
0.000127
100
AcDbLine
 10
8.054382
 20
0.53661
 30
0.0
 11
8.054382
 21
0.531527
 31
0.0
210
0.0
220
0.0
230
1.0
  0
LINE
  5
468
100
AcDbEntity
  8
0
370
     5
390
0
 62
     7
 48
0.000051
100
AcDbLine
 10
8.054382
 20
0.531527
 30
0.0
 11
8.052347
 21
0.531458
 31
0.0
210
0.0
220
0.0
230
1.0
  0
LINE
  5
469
100
AcDbEntity
  8
0
370
     5
390
0
 62
     7
 48
0.000049
100
AcDbLine
 10
8.052347
 20
0.531458
 30
0.0
 11
8.050394
 21
0.531249
 31
0.0
210
0.0
220
0.0
230
1.0
  0
LINE
  5
46A
100
AcDbEntity
  8
0
370
     5
390
0
 62
     7
 48
0.000048
100
AcDbLine
 10
8.050394
 20
0.531249
 30
0.0
 11
8.048522
 21
0.530904
 31
0.0
210
0.0
220
0.0
230
1.0
  0
LINE
  5
46B
100
AcDbEntity
  8
0
370
     5
390
0
 62
     7
 48
0.000046
100
AcDbLine
 10
8.048522
 20
0.530904
 30
0.0
 11
8.046733
 21
0.53042
 31
0.0
210
0.0
220
0.0
230
1.0
  0
LINE
  5
46C
100
AcDbEntity
  8
0
370
     5
390
0
 62
     7
 48
0.000045
100
AcDbLine
 10
8.046733
 20
0.53042
 30
0.0
 11
8.045027
 21
0.529796
 31
0.0
210
0.0
220
0.0
230
1.0
  0
LINE
  5
46D
100
AcDbEntity
  8
0
370
     5
390
0
 62
     7
 48
0.000045
100
AcDbLine
 10
8.045027
 20
0.529796
 30
0.0
 11
8.043403
 21
0.529035
 31
0.0
210
0.0
220
0.0
230
1.0
  0
LINE
  5
46E
100
AcDbEntity
  8
0
370
     5
390
0
 62
     7
 48
0.000045
100
AcDbLine
 10
8.043403
 20
0.529035
 30
0.0
 11
8.041859
 21
0.528135
 31
0.0
210
0.0
220
0.0
230
1.0
  0
LINE
  5
46F
100
AcDbEntity
  8
0
370
     5
390
0
 62
     7
 48
0.000045
100
AcDbLine
 10
8.041859
 20
0.528135
 30
0.0
 11
8.0404
 21
0.527097
 31
0.0
210
0.0
220
0.0
230
1.0
  0
LINE
  5
470
100
AcDbEntity
  8
0
370
     5
390
0
 62
     7
 48
0.000045
100
AcDbLine
 10
8.0404
 20
0.527097
 30
0.0
 11
8.039021
 21
0.52592
 31
0.0
210
0.0
220
0.0
230
1.0
  0
LINE
  5
471
100
AcDbEntity
  8
0
370
     5
390
0
 62
     7
 48
0.000046
100
AcDbLine
 10
8.039021
 20
0.52592
 30
0.0
 11
8.037725
 21
0.524604
 31
0.0
210
0.0
220
0.0
230
1.0
  0
LINE
  5
472
100
AcDbEntity
  8
0
370
     5
390
0
 62
     7
 48
0.000077
100
AcDbLine
 10
8.037725
 20
0.524604
 30
0.0
 11
8.03978
 21
0.522333
 31
0.0
210
0.0
220
0.0
230
1.0
  0
LINE
  5
473
100
AcDbEntity
  8
0
370
     5
390
0
 62
     7
 48
0.000044
100
AcDbLine
 10
8.03978
 20
0.522333
 30
0.0
 11
8.041057
 21
0.523526
 31
0.0
210
0.0
220
0.0
230
1.0
  0
LINE
  5
474
100
AcDbEntity
  8
0
370
     5
390
0
 62
     7
 48
0.000042
100
AcDbLine
 10
8.041057
 20
0.523526
 30
0.0
 11
8.042372
 21
0.524592
 31
0.0
210
0.0
220
0.0
230
1.0
  0
LINE
  5
475
100
AcDbEntity
  8
0
370
     5
390
0
 62
     7
 48
0.000041
100
AcDbLine
 10
8.042372
 20
0.524592
 30
0.0
 11
8.04373
 21
0.525533
 31
0.0
210
0.0
220
0.0
230
1.0
  0
LINE
  5
476
100
AcDbEntity
  8
0
370
     5
390
0
 62
     7
 48
0.000041
100
AcDbLine
 10
8.04373
 20
0.525533
 30
0.0
 11
8.045129
 21
0.526349
 31
0.0
210
0.0
220
0.0
230
1.0
  0
LINE
  5
477
100
AcDbEntity
  8
0
370
     5
390
0
 62
     7
 48
0.00004
100
AcDbLine
 10
8.045129
 20
0.526349
 30
0.0
 11
8.046567
 21
0.527039
 31
0.0
210
0.0
220
0.0
230
1.0
  0
LINE
  5
478
100
AcDbEntity
  8
0
370
     5
390
0
 62
     7
 48
0.00004
100
AcDbLine
 10
8.046567
 20
0.527039
 30
0.0
 11
8.048048
 21
0.527603
 31
0.0
210
0.0
220
0.0
230
1.0
  0
LINE
  5
479
100
AcDbEntity
  8
0
370
     5
390
0
 62
     7
 48
0.00004
100
AcDbLine
 10
8.048048
 20
0.527603
 30
0.0
 11
8.049571
 21
0.528042
 31
0.0
210
0.0
220
0.0
230
1.0
  0
LINE
  5
47A
100
AcDbEntity
  8
0
370
     5
390
0
 62
     7
 48
0.00004
100
AcDbLine
 10
8.049571
 20
0.528042
 30
0.0
 11
8.051134
 21
0.528356
 31
0.0
210
0.0
220
0.0
230
1.0
  0
LINE
  5
47B
100
AcDbEntity
  8
0
370
     5
390
0
 62
     7
 48
0.00004
100
AcDbLine
 10
8.051134
 20
0.528356
 30
0.0
 11
8.052737
 21
0.528543
 31
0.0
210
0.0
220
0.0
230
1.0
  0
LINE
  5
47C
100
AcDbEntity
  8
0
370
     5
390
0
 62
     7
 48
0.000041
100
AcDbLine
 10
8.052737
 20
0.528543
 30
0.0
 11
8.054382
 21
0.528606
 31
0.0
210
0.0
220
0.0
230
1.0
  0
LINE
  5
47D
100
AcDbEntity
  8
0
370
     5
390
0
 62
     7
 48
0.001163
100
AcDbLine
 10
8.054382
 20
0.528606
 30
0.0
 11
8.054382
 21
0.482097
 31
0.0
210
0.0
220
0.0
230
1.0
  0
LINE
  5
47E
100
AcDbEntity
  8
0
370
     5
390
0
 62
     7
 48
0.000564
100
AcDbLine
 10
8.054382
 20
0.482097
 30
0.0
 11
8.036753
 21
0.468038
 31
0.0
210
0.0
220
0.0
230
1.0
  0
LINE
  5
47F
100
AcDbEntity
  8
0
370
     5
390
0
 62
     7
 48
0.001328
100
AcDbLine
 10
8.036753
 20
0.468038
 30
0.0
 11
8.089859
 21
0.468038
 31
0.0
210
0.0
220
0.0
230
1.0
  0
LINE
  5
480
100
AcDbEntity
  8
0
370
     5
390
0
 62
     7
 48
0.000493
100
AcDbLine
 10
8.089859
 20
0.468038
 30
0.0
 11
8.076014
 21
0.482097
 31
0.0
210
0.0
220
0.0
230
1.0
  0
LINE
  5
481
100
AcDbEntity
  8
0
370
     5
390
0
 62
     7
 48
0.001363
100
AcDbLine
 10
8.076014
 20
0.482097
 30
0.0
 11
8.076014
 21
0.53661
 31
0.0
210
0.0
220
0.0
230
1.0
  0
LINE
  5
482
100
AcDbEntity
  8
0
370
     5
390
0
 62
     7
 48
0.000619
100
AcDbLine
 10
8.076014
 20
0.53661
 30
0.0
 11
8.100782
 21
0.53661
 31
0.0
210
0.0
220
0.0
230
1.0
  0
LINE
  5
483
100
AcDbEntity
  8
0
370
     5
390
0
 62
     7
 48
0.000639
100
AcDbLine
 10
8.100782
 20
0.53661
 30
0.0
 11
8.118953
 21
0.518655
 31
0.0
210
0.0
220
0.0
230
1.0
  0
LINE
  5
484
100
AcDbEntity
  8
0
370
     5
390
0
 62
     7
 48
0.001133
100
AcDbLine
 10
8.118953
 20
0.518655
 30
0.0
 11
8.118953
 21
0.563975
 31
0.0
210
0.0
220
0.0
230
1.0
  0
LINE
  5
485
100
AcDbEntity
  8
0
370
     5
390
0
 62
     7
 48
0.000629
100
AcDbLine
 10
8.118953
 20
0.563975
 30
0.0
 11
8.101647
 21
0.545696
 31
0.0
210
0.0
220
0.0
230
1.0
  0
LINE
  5
486
100
AcDbEntity
  8
0
370
     5
390
0
 62
     7
 48
0.000408
100
AcDbLine
 10
8.101647
 20
0.545696
 30
0.0
 11
8.085316
 21
0.545696
 31
0.0
210
0.0
220
0.0
230
1.0
  0
LINE
  5
487
100
AcDbEntity
  8
0
370
     5
390
0
 62
     7
 48
0.001044
100
AcDbLine
 10
8.085316
 20
0.545696
 30
0.0
 11
8.085316
 21
0.587445
 31
0.0
210
0.0
220
0.0
230
1.0
  0
LINE
  5
488
100
AcDbEntity
  8
0
370
     5
390
0
 62
     7
 48
0.000067
100
AcDbLine
 10
8.085316
 20
0.587445
 30
0.0
 11
8.087994
 21
0.58764
 31
0.0
210
0.0
220
0.0
230
1.0
  0
LINE
  5
489
100
AcDbEntity
  8
0
370
     5
390
0
 62
     7
 48
0.000063
100
AcDbLine
 10
8.087994
 20
0.58764
 30
0.0
 11
8.090491
 21
0.587792
 31
0.0
210
0.0
220
0.0
230
1.0
  0
LINE
  5
48A
100
AcDbEntity
  8
0
370
     5
390
0
 62
     7
 48
0.000058
100
AcDbLine
 10
8.090491
 20
0.587792
 30
0.0
 11
8.092805
 21
0.5879
 31
0.0
210
0.0
220
0.0
230
1.0
  0
LINE
  5
48B
100
AcDbEntity
  8
0
370
     5
390
0
 62
     7
 48
0.000053
100
AcDbLine
 10
8.092805
 20
0.5879
 30
0.0
 11
8.094938
 21
0.587964
 31
0.0
210
0.0
220
0.0
230
1.0
  0
LINE
  5
48C
100
AcDbEntity
  8
0
370
     5
390
0
 62
     7
 48
0.000049
100
AcDbLine
 10
8.094938
 20
0.587964
 30
0.0
 11
8.09689
 21
0.587987
 31
0.0
210
0.0
220
0.0
230
1.0
  0
LINE
  5
48D
100
AcDbEntity
  8
0
370
     5
390
0
 62
     7
 48
0.000063
100
AcDbLine
 10
8.09689
 20
0.587987
 30
0.0
 11
8.099417
 21
0.587969
 31
0.0
210
0.0
220
0.0
230
1.0
  0
LINE
  5
48E
100
AcDbEntity
  8
0
370
     5
390
0
 62
     7
 48
0.00006
100
AcDbLine
 10
8.099417
 20
0.587969
 30
0.0
 11
8.101811
 21
0.587915
 31
0.0
210
0.0
220
0.0
230
1.0
  0
LINE
  5
48F
100
AcDbEntity
  8
0
370
     5
390
0
 62
     7
 48
0.000056
100
AcDbLine
 10
8.101811
 20
0.587915
 30
0.0
 11
8.104068
 21
0.587826
 31
0.0
210
0.0
220
0.0
230
1.0
  0
LINE
  5
490
100
AcDbEntity
  8
0
370
     5
390
0
 62
     7
 48
0.000053
100
AcDbLine
 10
8.104068
 20
0.587826
 30
0.0
 11
8.106191
 21
0.5877
 31
0.0
210
0.0
220
0.0
230
1.0
  0
LINE
  5
491
100
AcDbEntity
  8
0
370
     5
390
0
 62
     7
 48
0.00005
100
AcDbLine
 10
8.106191
 20
0.5877
 30
0.0
 11
8.108179
 21
0.58754
 31
0.0
210
0.0
220
0.0
230
1.0
  0
LINE
  5
492
100
AcDbEntity
  8
0
370
     5
390
0
 62
     7
 48
0.000047
100
AcDbLine
 10
8.108179
 20
0.58754
 30
0.0
 11
8.110031
 21
0.587343
 31
0.0
210
0.0
220
0.0
230
1.0
  0
LINE
  5
493
100
AcDbEntity
  8
0
370
     5
390
0
 62
     7
 48
0.000043
100
AcDbLine
 10
8.110031
 20
0.587343
 30
0.0
 11
8.111747
 21
0.587112
 31
0.0
210
0.0
220
0.0
230
1.0
  0
LINE
  5
494
100
AcDbEntity
  8
0
370
     5
390
0
 62
     7
 48
0.00004
100
AcDbLine
 10
8.111747
 20
0.587112
 30
0.0
 11
8.113329
 21
0.586844
 31
0.0
210
0.0
220
0.0
230
1.0
  0
LINE
  5
495
100
AcDbEntity
  8
0
370
     5
390
0
 62
     7
 48
0.000071
100
AcDbLine
 10
8.113329
 20
0.586844
 30
0.0
 11
8.116087
 21
0.586202
 31
0.0
210
0.0
220
0.0
230
1.0
  0
LINE
  5
496
100
AcDbEntity
  8
0
370
     5
390
0
 62
     7
 48
0.000065
100
AcDbLine
 10
8.116087
 20
0.586202
 30
0.0
 11
8.118538
 21
0.585356
 31
0.0
210
0.0
220
0.0
230
1.0
  0
LINE
  5
497
100
AcDbEntity
  8
0
370
     5
390
0
 62
     7
 48
0.000066
100
AcDbLine
 10
8.118538
 20
0.585356
 30
0.0
 11
8.120915
 21
0.584246
 31
0.0
210
0.0
220
0.0
230
1.0
  0
LINE
  5
498
100
AcDbEntity
  8
0
370
     5
390
0
 62
     7
 48
0.000067
100
AcDbLine
 10
8.120915
 20
0.584246
 30
0.0
 11
8.123219
 21
0.582873
 31
0.0
210
0.0
220
0.0
230
1.0
  0
LINE
  5
499
100
AcDbEntity
  8
0
370
     5
390
0
 62
     7
 48
0.000069
100
AcDbLine
 10
8.123219
 20
0.582873
 30
0.0
 11
8.125449
 21
0.581235
 31
0.0
210
0.0
220
0.0
230
1.0
  0
LINE
  5
49A
100
AcDbEntity
  8
0
370
     5
390
0
 62
     7
 48
0.000072
100
AcDbLine
 10
8.125449
 20
0.581235
 30
0.0
 11
8.127607
 21
0.579333
 31
0.0
210
0.0
220
0.0
230
1.0
  0
LINE
  5
49B
100
AcDbEntity
  8
0
370
     5
390
0
 62
     7
 48
0.000063
100
AcDbLine
 10
8.127607
 20
0.579333
 30
0.0
 11
8.126338
 21
0.581511
 31
0.0
210
0.0
220
0.0
230
1.0
  0
LINE
  5
49C
100
AcDbEntity
  8
0
370
     5
390
0
 62
     7
 48
0.000063
100
AcDbLine
 10
8.126338
 20
0.581511
 30
0.0
 11
8.124737
 21
0.583461
 31
0.0
210
0.0
220
0.0
230
1.0
  0
LINE
  5
49D
100
AcDbEntity
  8
0
370
     5
390
0
 62
     7
 48
0.000065
100
AcDbLine
 10
8.124737
 20
0.583461
 30
0.0
 11
8.122807
 21
0.58518
 31
0.0
210
0.0
220
0.0
230
1.0
  0
LINE
  5
49E
100
AcDbEntity
  8
0
370
     5
390
0
 62
     7
 48
0.000068
100
AcDbLine
 10
8.122807
 20
0.58518
 30
0.0
 11
8.120546
 21
0.586671
 31
0.0
210
0.0
220
0.0
230
1.0
  0
LINE
  5
49F
100
AcDbEntity
  8
0
370
     5
390
0
 62
     7
 48
0.000072
100
AcDbLine
 10
8.120546
 20
0.586671
 30
0.0
 11
8.117954
 21
0.587933
 31
0.0
210
0.0
220
0.0
230
1.0
  0
LINE
  5
4A0
100
AcDbEntity
  8
0
370
     5
390
0
 62
     7
 48
0.000078
100
AcDbLine
 10
8.117954
 20
0.587933
 30
0.0
 11
8.115029
 21
0.588965
 31
0.0
210
0.0
220
0.0
230
1.0
  0
LINE
  5
4A1
100
AcDbEntity
  8
0
370
     5
390
0
 62
     7
 48
0.000084
100
AcDbLine
 10
8.115029
 20
0.588965
 30
0.0
 11
8.111775
 21
0.589767
 31
0.0
210
0.0
220
0.0
230
1.0
  0
LINE
  5
4A2
100
AcDbEntity
  8
0
370
     5
390
0
 62
     7
 48
0.000091
100
AcDbLine
 10
8.111775
 20
0.589767
 30
0.0
 11
8.108189
 21
0.59034
 31
0.0
210
0.0
220
0.0
230
1.0
  0
LINE
  5
4A3
100
AcDbEntity
  8
0
370
     5
390
0
 62
     7
 48
0.000098
100
AcDbLine
 10
8.108189
 20
0.59034
 30
0.0
 11
8.104273
 21
0.590684
 31
0.0
210
0.0
220
0.0
230
1.0
  0
LINE
  5
4A4
100
AcDbEntity
  8
0
370
     5
390
0
 62
     7
 48
0.000106
100
AcDbLine
 10
8.104273
 20
0.590684
 30
0.0
 11
8.100026
 21
0.590798
 31
0.0
210
0.0
220
0.0
230
1.0
  0
LINE
  5
4A5
100
AcDbEntity
  8
0
370
     5
390
0
 62
     7
 48
0.000075
100
AcDbLine
 10
8.100026
 20
0.590798
 30
0.0
 11
8.097032
 21
0.590786
 31
0.0
210
0.0
220
0.0
230
1.0
  0
LINE
  5
4A6
100
AcDbEntity
  8
0
370
     5
390
0
 62
     7
 48
0.000073
100
AcDbLine
 10
8.097032
 20
0.590786
 30
0.0
 11
8.094107
 21
0.590747
 31
0.0
210
0.0
220
0.0
230
1.0
  0
LINE
  5
4A7
100
AcDbEntity
  8
0
370
     5
390
0
 62
     7
 48
0.000071
100
AcDbLine
 10
8.094107
 20
0.590747
 30
0.0
 11
8.091251
 21
0.590682
 31
0.0
210
0.0
220
0.0
230
1.0
  0
LINE
  5
4A8
100
AcDbEntity
  8
0
370
     5
390
0
 62
     7
 48
0.00007
100
AcDbLine
 10
8.091251
 20
0.590682
 30
0.0
 11
8.088465
 21
0.590591
 31
0.0
210
0.0
220
0.0
230
1.0
  0
LINE
  5
4A9
100
AcDbEntity
  8
0
370
     5
390
0
 62
     7
 48
0.000068
100
AcDbLine
 10
8.088465
 20
0.590591
 30
0.0
 11
8.085749
 21
0.590474
 31
0.0
210
0.0
220
0.0
230
1.0
  0
LINE
  5
4AA
100
AcDbEntity
  8
0
370
     5
390
0
 62
     7
 48
0.000078
100
AcDbLine
 10
8.085749
 20
0.590474
 30
0.0
 11
8.082612
 21
0.590366
 31
0.0
210
0.0
220
0.0
230
1.0
  0
LINE
  5
4AB
100
AcDbEntity
  8
0
370
     5
390
0
 62
     7
 48
0.001117
100
AcDbLine
 10
8.082612
 20
0.590366
 30
0.0
 11
8.082612
 21
0.545696
 31
0.0
210
0.0
220
0.0
230
1.0
  0
LINE
  5
4AC
100
AcDbEntity
  8
0
370
     5
390
0
 62
     7
 48
0.000165
100
AcDbLine
 10
8.082612
 20
0.545696
 30
0.0
 11
8.076014
 21
0.545696
 31
0.0
210
0.0
220
0.0
230
1.0
  0
LINE
  5
4AD
100
AcDbEntity
  8
0
370
     5
390
0
 62
     7
 48
0.001265
100
AcDbLine
 10
8.076014
 20
0.545696
 30
0.0
 11
8.076014
 21
0.596315
 31
0.0
210
0.0
220
0.0
230
1.0
  0
LINE
  5
4AE
100
AcDbEntity
  8
0
370
     5
390
0
 62
     7
 48
0.0001
100
AcDbLine
 10
8.076014
 20
0.596315
 30
0.0
 11
8.080016
 21
0.596207
 31
0.0
210
0.0
220
0.0
230
1.0
  0
LINE
  5
4AF
100
AcDbEntity
  8
0
370
     5
390
0
 62
     7
 48
0.000262
100
AcDbLine
 10
8.080016
 20
0.596207
 30
0.0
 11
8.090507
 21
0.596099
 31
0.0
210
0.0
220
0.0
230
1.0
  0
LINE
  5
4B0
100
AcDbEntity
  8
0
370
     5
390
0
 62
     7
 48
0.000154
100
AcDbLine
 10
8.090507
 20
0.596099
 30
0.0
 11
8.096672
 21
0.596207
 31
0.0
210
0.0
220
0.0
230
1.0
  0
LINE
  5
4B1
100
AcDbEntity
  8
0
370
     5
390
0
 62
     7
 48
0.00008
100
AcDbLine
 10
8.096672
 20
0.596207
 30
0.0
 11
8.099887
 21
0.596163
 31
0.0
210
0.0
220
0.0
230
1.0
  0
LINE
  5
4B2
100
AcDbEntity
  8
0
370
     5
390
0
 62
     7
 48
0.000076
100
AcDbLine
 10
8.099887
 20
0.596163
 30
0.0
 11
8.102909
 21
0.596033
 31
0.0
210
0.0
220
0.0
230
1.0
  0
LINE
  5
4B3
100
AcDbEntity
  8
0
370
     5
390
0
 62
     7
 48
0.000071
100
AcDbLine
 10
8.102909
 20
0.596033
 30
0.0
 11
8.10574
 21
0.595817
 31
0.0
210
0.0
220
0.0
230
1.0
  0
LINE
  5
4B4
100
AcDbEntity
  8
0
370
     5
390
0
 62
     7
 48
0.000066
100
AcDbLine
 10
8.10574
 20
0.595817
 30
0.0
 11
8.108379
 21
0.595514
 31
0.0
210
0.0
220
0.0
230
1.0
  0
LINE
  5
4B5
100
AcDbEntity
  8
0
370
     5
390
0
 62
     7
 48
0.000062
100
AcDbLine
 10
8.108379
 20
0.595514
 30
0.0
 11
8.110827
 21
0.595125
 31
0.0
210
0.0
220
0.0
230
1.0
  0
LINE
  5
4B6
100
AcDbEntity
  8
0
370
     5
390
0
 62
     7
 48
0.000058
100
AcDbLine
 10
8.110827
 20
0.595125
 30
0.0
 11
8.113085
 21
0.594648
 31
0.0
210
0.0
220
0.0
230
1.0
  0
LINE
  5
4B7
100
AcDbEntity
  8
0
370
     5
390
0
 62
     7
 48
0.000054
100
AcDbLine
 10
8.113085
 20
0.594648
 30
0.0
 11
8.11515
 21
0.594086
 31
0.0
210
0.0
220
0.0
230
1.0
  0
LINE
  5
4B8
100
AcDbEntity
  8
0
370
     5
390
0
 62
     7
 48
0.00005
100
AcDbLine
 10
8.11515
 20
0.594086
 30
0.0
 11
8.117024
 21
0.593438
 31
0.0
210
0.0
220
0.0
230
1.0
  0
LINE
  5
4B9
100
AcDbEntity
  8
0
370
     5
390
0
 62
     7
 48
0.000046
100
AcDbLine
 10
8.117024
 20
0.593438
 30
0.0
 11
8.118707
 21
0.592701
 31
0.0
210
0.0
220
0.0
230
1.0
  0
LINE
  5
4BA
100
AcDbEntity
  8
0
370
     5
390
0
 62
     7
 48
0.000043
100
AcDbLine
 10
8.118707
 20
0.592701
 30
0.0
 11
8.120198
 21
0.591881
 31
0.0
210
0.0
220
0.0
230
1.0
  0
LINE
  5
4BB
100
AcDbEntity
  8
0
370
     5
390
0
 62
     7
 48
0.000043
100
AcDbLine
 10
8.120198
 20
0.591881
 30
0.0
 11
8.121594
 21
0.59091
 31
0.0
210
0.0
220
0.0
230
1.0
  0
LINE
  5
4BC
100
AcDbEntity
  8
0
370
     5
390
0
 62
     7
 48
0.000046
100
AcDbLine
 10
8.121594
 20
0.59091
 30
0.0
 11
8.122994
 21
0.589734
 31
0.0
210
0.0
220
0.0
230
1.0
  0
LINE
  5
4BD
100
AcDbEntity
  8
0
370
     5
390
0
 62
     7
 48
0.000049
100
AcDbLine
 10
8.122994
 20
0.589734
 30
0.0
 11
8.124398
 21
0.58835
 31
0.0
210
0.0
220
0.0
230
1.0
  0
LINE
  5
4BE
100
AcDbEntity
  8
0
370
     5
390
0
 62
     7
 48
0.000053
100
AcDbLine
 10
8.124398
 20
0.58835
 30
0.0
 11
8.125804
 21
0.586758
 31
0.0
210
0.0
220
0.0
230
1.0
  0
LINE
  5
4BF
100
AcDbEntity
  8
0
370
     5
390
0
 62
     7
 48
0.000057
100
AcDbLine
 10
8.125804
 20
0.586758
 30
0.0
 11
8.127215
 21
0.584958
 31
0.0
210
0.0
220
0.0
230
1.0
  0
LINE
  5
4C0
100
AcDbEntity
  8
0
370
     5
390
0
 62
     7
 48
0.000061
100
AcDbLine
 10
8.127215
 20
0.584958
 30
0.0
 11
8.128628
 21
0.582951
 31
0.0
210
0.0
220
0.0
230
1.0
  0
LINE
  5
4C1
100
AcDbEntity
  8
0
370
     5
390
0
 62
     7
 48
0.000066
100
AcDbLine
 10
8.128628
 20
0.582951
 30
0.0
 11
8.130044
 21
0.580736
 31
0.0
210
0.0
220
0.0
230
1.0
  0
LINE
  5
4C2
100
AcDbEntity
  8
0
370
     5
390
0
 62
     7
 48
0.00007
100
AcDbLine
 10
8.130044
 20
0.580736
 30
0.0
 11
8.131463
 21
0.578313
 31
0.0
210
0.0
220
0.0
230
1.0
  0
LINE
  5
4C3
100
AcDbEntity
  8
0
370
     5
390
0
 62
     7
 48
0.000075
100
AcDbLine
 10
8.131463
 20
0.578313
 30
0.0
 11
8.132887
 21
0.575682
 31
0.0
210
0.0
220
0.0
230
1.0
  0
LINE
  5
4C4
100
AcDbEntity
  8
0
370
     5
390
0
 62
     7
 48
0.000079
100
AcDbLine
 10
8.132887
 20
0.575682
 30
0.0
 11
8.134311
 21
0.572844
 31
0.0
210
0.0
220
0.0
230
1.0
  0
LINE
  5
4C5
100
AcDbEntity
  8
0
370
     5
390
0
 62
     7
 48
0.000058
100
AcDbLine
 10
8.134311
 20
0.572844
 30
0.0
 11
8.135177
 21
0.575007
 31
0.0
210
0.0
220
0.0
230
1.0
  0
LINE
  5
4C6
100
AcDbEntity
  8
0
370
     5
390
0
 62
     7
 48
0.000059
100
AcDbLine
 10
8.135177
 20
0.575007
 30
0.0
 11
8.136049
 21
0.577196
 31
0.0
210
0.0
220
0.0
230
1.0
  0
LINE
  5
4C7
100
AcDbEntity
  8
0
370
     5
390
0
 62
     7
 48
0.000056
100
AcDbLine
 10
8.136049
 20
0.577196
 30
0.0
 11
8.136889
 21
0.57926
 31
0.0
210
0.0
220
0.0
230
1.0
  0
LINE
  5
4C8
100
AcDbEntity
  8
0
370
     5
390
0
 62
     7
 48
0.000053
100
AcDbLine
 10
8.136889
 20
0.57926
 30
0.0
 11
8.137697
 21
0.581201
 31
0.0
210
0.0
220
0.0
230
1.0
  0
LINE
  5
4C9
100
AcDbEntity
  8
0
370
     5
390
0
 62
     7
 48
0.000049
100
AcDbLine
 10
8.137697
 20
0.581201
 30
0.0
 11
8.138474
 21
0.583019
 31
0.0
210
0.0
220
0.0
230
1.0
  0
LINE
  5
4CA
100
AcDbEntity
  8
0
370
     5
390
0
 62
     7
 48
0.000046
100
AcDbLine
 10
8.138474
 20
0.583019
 30
0.0
 11
8.13922
 21
0.584714
 31
0.0
210
0.0
220
0.0
230
1.0
  0
LINE
  5
4CB
100
AcDbEntity
  8
0
370
     5
390
0
 62
     7
 48
0.000043
100
AcDbLine
 10
8.13922
 20
0.584714
 30
0.0
 11
8.139935
 21
0.586286
 31
0.0
210
0.0
220
0.0
230
1.0
  0
LINE
  5
4CC
100
AcDbEntity
  8
0
370
     5
390
0
 62
     7
 48
0.00004
100
AcDbLine
 10
8.139935
 20
0.586286
 30
0.0
 11
8.140617
 21
0.587735
 31
0.0
210
0.0
220
0.0
230
1.0
  0
LINE
  5
4CD
100
AcDbEntity
  8
0
370
     5
390
0
 62
     7
 48
0.000071
100
AcDbLine
 10
8.140617
 20
0.587735
 30
0.0
 11
8.14189
 21
0.590261
 31
0.0
210
0.0
220
0.0
230
1.0
  0
LINE
  5
4CE
100
AcDbEntity
  8
0
370
     5
390
0
 62
     7
 48
0.000061
100
AcDbLine
 10
8.14189
 20
0.590261
 30
0.0
 11
8.143089
 21
0.592394
 31
0.0
210
0.0
220
0.0
230
1.0
  0
LINE
  5
4CF
100
AcDbEntity
  8
0
370
     5
390
0
 62
     7
 48
0.000069
100
AcDbLine
 10
8.143089
 20
0.592394
 30
0.0
 11
8.144543
 21
0.594729
 31
0.0
210
0.0
220
0.0
230
1.0
  0
LINE
  5
4D0
100
AcDbEntity
  8
0
370
     5
390
0
 62
     7
 48
0.000038
100
AcDbLine
 10
8.144543
 20
0.594729
 30
0.0
 11
8.145386
 21
0.596012
 31
0.0
210
0.0
220
0.0
230
1.0
  0
LINE
  5
4D1
100
AcDbEntity
  8
0
370
     5
390
0
 62
     7
 48
0.000041
100
AcDbLine
 10
8.145386
 20
0.596012
 30
0.0
 11
8.146304
 21
0.597369
 31
0.0
210
0.0
220
0.0
230
1.0
  0
LINE
  5
4D2
100
AcDbEntity
  8
0
370
     5
390
0
 62
     7
 48
0.000044
100
AcDbLine
 10
8.146304
 20
0.597369
 30
0.0
 11
8.1473
 21
0.598802
 31
0.0
210
0.0
220
0.0
230
1.0
  0
LINE
  5
4D3
100
AcDbEntity
  8
0
370
     5
390
0
 62
     7
 48
0.000046
100
AcDbLine
 10
8.1473
 20
0.598802
 30
0.0
 11
8.148372
 21
0.600311
 31
0.0
210
0.0
220
0.0
230
1.0
  0
LINE
  5
4D4
100
AcDbEntity
  8
0
370
     5
390
0
 62
     7
 48
0.000049
100
AcDbLine
 10
8.148372
 20
0.600311
 30
0.0
 11
8.149522
 21
0.601895
 31
0.0
210
0.0
220
0.0
230
1.0
  0
LINE
  5
4D5
100
AcDbEntity
  8
0
370
     5
390
0
 62
     7
 48
0.000052
100
AcDbLine
 10
8.149522
 20
0.601895
 30
0.0
 11
8.150747
 21
0.603555
 31
0.0
210
0.0
220
0.0
230
1.0
  0
LINE
  5
4D6
100
AcDbEntity
  8
0
370
     5
390
0
 62
     7
 48
0.000054
100
AcDbLine
 10
8.150747
 20
0.603555
 30
0.0
 11
8.152051
 21
0.605292
 31
0.0
210
0.0
220
0.0
230
1.0
  0
LINE
  5
4D7
100
AcDbEntity
  8
0
370
     5
390
0
 62
     7
 48
0.002807
100
AcDbLine
 10
8.152051
 20
0.605292
 30
0.0
 11
8.03978
 21
0.605292
 31
0.0
210
0.0
220
0.0
230
1.0
  0
ENDBLK
  5
4D8
100
AcDbEntity
  8
0
390
0
100
AcDbBlockEnd
  0
BLOCK
  5
4D9
100
AcDbEntity
  8
0
370
     0
390
0
100
AcDbBlockBegin
  2
BLOCK6
 70
     0
 10
0.0
 20
0.0
 30
0.0
  3
BLOCK6
  1

  0
TEXT
  5
4DA
100
AcDbEntity
  8
0
370
    13
390
0
 62
     7
 48
0.03937
100
AcDbText
 10
-3.409073
 20
-2.348586
 30
0.0
 40
0.122294
  1
0.625-11
 72
     5
 11
-2.776396
 21
-2.348586
 31
0.0
100
AcDbText
  0
TEXT
  5
4DB
100
AcDbEntity
  8
0
370
    13
390
0
 62
     7
 48
0.03937
100
AcDbText
 10
-2.776396
 20
-2.348586
 30
0.0
 40
0.122294
  1
 X 
 72
     5
 11
-2.552131
 21
-2.348586
 31
0.0
100
AcDbText
  0
TEXT
  5
4DC
100
AcDbEntity
  8
0
370
    13
390
0
 62
     7
 48
0.03937
100
AcDbText
 10
-2.552131
 20
-2.348586
 30
0.0
 40
0.122294
  1
1.12in
 72
     5
 11
-2.097593
 21
-2.348586
 31
0.0
100
AcDbText
  0
POLYLINE
  5
4DD
100
AcDbEntity
  8
0
370
    13
390
0
 62
     7
 48
0.03937
100
AcDb2dPolyline
 66
     1
 10
0.0
 20
0.0
 30
0.0
 71
     3
  0
VERTEX
  5
4DE
100
AcDbEntity
  8
0
370
     0
390
0
100
AcDbVertex
100
AcDb2dVertex
 10
-1.387337
 20
-1.456754
 30
0.0
  0
VERTEX
  5
4DF
100
AcDbEntity
  8
0
370
     0
390
0
100
AcDbVertex
100
AcDb2dVertex
 10
-1.802908
 20
-2.286113
 30
0.0
  0
VERTEX
  5
4E0
100
AcDbEntity
  8
0
370
     0
390
0
100
AcDbVertex
100
AcDb2dVertex
 10
-1.999758
 20
-2.286113
 30
0.0
  0
SEQEND
  5
4E1
100
AcDbEntity
  8
0
370
     0
390
0
  0
SOLID
  5
4E2
100
AcDbEntity
  8
0
370
    13
390
0
 62
     7
 48
0.03937
100
AcDbTrace
 10
-1.461632
 20
-1.697475
 30
0.0
 11
-1.387337
 21
-1.456754
 31
0.0
 12
-1.535687
 22
-1.660368
 32
0.0
 13
-1.535687
 23
-1.660368
 33
0.0
  0
ENDBLK
  5
4E3
100
AcDbEntity
  8
0
390
0
100
AcDbBlockEnd
  0
BLOCK
  5
4E4
100
AcDbEntity
  8
0
370
     0
390
0
100
AcDbBlockBegin
  2
BLOCK7
 70
     0
 10
0.0
 20
0.0
 30
0.0
  3
BLOCK7
  1

  0
TEXT
  5
4E5
100
AcDbEntity
  8
0
370
    13
390
0
 62
     7
 48
0.03937
100
AcDbText
 10
-3.410191
 20
-2.135868
 30
0.0
 40
0.122294
  1
4
 72
     5
 11
-3.321828
 21
-2.135868
 31
0.0
100
AcDbText
  0
TEXT
  5
4E6
100
AcDbEntity
  8
0
370
    13
390
0
 62
     7
 48
0.03937
100
AcDbText
 10
-3.321828
 20
-2.135868
 30
0.0
 40
0.122294
  1
X
 72
     5
 11
-3.185927
 21
-2.135868
 31
0.0
100
AcDbText
  0
ENDBLK
  5
4E7
100
AcDbEntity
  8
0
390
0
100
AcDbBlockEnd
  0
BLOCK
  5
4E8
100
AcDbEntity
  8
0
370
     0
390
0
100
AcDbBlockBegin
  2
BLOCK8
 70
     0
 10
0.0
 20
0.0
 30
0.0
  3
BLOCK8
  1

  0
SOLID
  5
4E9
100
AcDbEntity
  8
0
370
    13
390
0
 62
   172
 48
0.03937
100
AcDbTrace
 10
2.117746
 20
1.65677
 30
0.0
 11
1.944705
 21
1.473677
 31
0.0
 12
2.117746
 22
1.65677
 32
0.0
 13
2.167774
 23
1.590752
 33
0.0
  0
TEXT
  5
4EA
100
AcDbEntity
  8
0
370
    13
390
0
 62
   172
 48
0.03937
100
AcDbText
 10
2.980782
 20
1.77544
 30
0.0
 40
0.122294
  1
4.88
 72
     5
 11
3.290052
 21
1.77544
 31
0.0
100
AcDbText
  0
TEXT
  5
4EB
100
AcDbEntity
  8
0
370
    13
390
0
 62
   172
 48
0.03937
100
AcDbText
 10
3.290052
 20
1.77544
 30
0.0
 40
0.122294
  1
"
 72
     5
 11
3.379734
 21
1.77544
 31
0.0
100
AcDbText
  0
TEXT
  5
4EC
100
AcDbEntity
  8
0
370
    13
390
0
 62
   172
 48
0.03937
100
AcDbText
 10
2.734237
 20
1.77544
 30
0.0
 40
0.122294
  1
%%c
 72
     5
 11
2.856531
 21
1.77544
 31
0.0
100
AcDbText
  0
LINE
  5
4ED
100
AcDbEntity
  8
0
370
    13
390
0
 62
   172
 48
0.005281
100
AcDbLine
 10
2.42361
 20
1.836587
 30
0.0
 11
2.634837
 21
1.836587
 31
0.0
210
0.0
220
0.0
230
1.0
  0
LINE
  5
4EE
100
AcDbEntity
  8
0
370
    13
390
0
 62
   172
 48
0.008809
100
AcDbLine
 10
2.14276
 20
1.623761
 30
0.0
 11
2.42361
 21
1.836587
 31
0.0
210
0.0
220
0.0
230
1.0
  0
POLYLINE
  5
4EF
100
AcDbEntity
  8
0
370
    13
390
0
 62
   172
 48
0.03937
100
AcDb2dPolyline
 66
     1
 10
0.0
 20
0.0
 30
0.0
 70
     1
 71
     3
  0
VERTEX
  5
4F0
100
AcDbEntity
  8
0
370
     0
390
0
100
AcDbVertex
100
AcDb2dVertex
 10
2.117746
 20
1.65677
 30
0.0
  0
VERTEX
  5
4F1
100
AcDbEntity
  8
0
370
     0
390
0
100
AcDbVertex
100
AcDb2dVertex
 10
1.944705
 20
1.473677
 30
0.0
  0
VERTEX
  5
4F2
100
AcDbEntity
  8
0
370
     0
390
0
100
AcDbVertex
100
AcDb2dVertex
 10
2.167774
 20
1.590752
 30
0.0
  0
SEQEND
  5
4F3
100
AcDbEntity
  8
0
370
     0
390
0
  0
ENDBLK
  5
4F4
100
AcDbEntity
  8
0
390
0
100
AcDbBlockEnd
  0
BLOCK
  5
4F5
100
AcDbEntity
  8
0
370
     0
390
0
100
AcDbBlockBegin
  2
BLOCK9
 70
     0
 10
0.0
 20
0.0
 30
0.0
  3
BLOCK9
  1

  0
SOLID
  5
4F6
100
AcDbEntity
  8
0
370
    13
390
0
 62
   172
 48
0.03937
100
AcDbTrace
 10
0.963201
 20
-1.751557
 30
0.0
 11
0.811301
 21
-1.550578
 31
0.0
 12
0.963201
 22
-1.751557
 32
0.0
 13
0.889808
 23
-1.789959
 33
0.0
  0
TEXT
  5
4F7
100
AcDbEntity
  8
0
370
    13
390
0
 62
   172
 48
0.03937
100
AcDbText
 10
1.853074
 20
-2.537907
 30
0.0
 40
0.122294
  1
3.5
 72
     5
 11
2.073981
 21
-2.537907
 31
0.0
100
AcDbText
  0
TEXT
  5
4F8
100
AcDbEntity
  8
0
370
    13
390
0
 62
   172
 48
0.03937
100
AcDbText
 10
2.073981
 20
-2.537907
 30
0.0
 40
0.122294
  1
"
 72
     5
 11
2.163663
 21
-2.537907
 31
0.0
100
AcDbText
  0
TEXT
  5
4F9
100
AcDbEntity
  8
0
370
    13
390
0
 62
   172
 48
0.03937
100
AcDbText
 10
1.606529
 20
-2.537907
 30
0.0
 40
0.122294
  1
%%c
 72
     5
 11
1.728823
 21
-2.537907
 31
0.0
100
AcDbText
  0
TEXT
  5
4FA
100
AcDbEntity
  8
0
370
    13
390
0
 62
   172
 48
0.03937
100
AcDbText
 10
1.606529
 20
-2.733577
 30
0.0
 40
0.122294
  1
BOLT CIRCLE
 72
     5
 11
2.834418
 21
-2.733577
 31
0.0
100
AcDbText
  0
LINE
  5
4FB
100
AcDbEntity
  8
0
370
    13
390
0
 62
   172
 48
0.005281
100
AcDbLine
 10
1.295902
 20
-2.47676
 30
0.0
 11
1.507129
 21
-2.47676
 31
0.0
210
0.0
220
0.0
230
1.0
  0
LINE
  5
4FC
100
AcDbEntity
  8
0
370
    13
390
0
 62
   172
 48
0.03937
100
AcDbLine
 10
0.926505
 20
-1.770758
 30
0.0
 11
1.295902
 21
-2.47676
 31
0.0
210
0.0
220
0.0
230
1.0
  0
POLYLINE
  5
4FD
100
AcDbEntity
  8
0
370
    13
390
0
 62
   172
 48
0.03937
100
AcDb2dPolyline
 66
     1
 10
0.0
 20
0.0
 30
0.0
 70
     1
 71
     3
  0
VERTEX
  5
4FE
100
AcDbEntity
  8
0
370
     0
390
0
100
AcDbVertex
100
AcDb2dVertex
 10
0.963201
 20
-1.751557
 30
0.0
  0
VERTEX
  5
4FF
100
AcDbEntity
  8
0
370
     0
390
0
100
AcDbVertex
100
AcDb2dVertex
 10
0.811301
 20
-1.550578
 30
0.0
  0
VERTEX
  5
500
100
AcDbEntity
  8
0
370
     0
390
0
100
AcDbVertex
100
AcDb2dVertex
 10
0.889808
 20
-1.789959
 30
0.0
  0
SEQEND
  5
501
100
AcDbEntity
  8
0
370
     0
390
0
  0
ENDBLK
  5
502
100
AcDbEntity
  8
0
390
0
100
AcDbBlockEnd
  0
BLOCK
  5
503
100
AcDbEntity
  8
0
370
     0
390
0
100
AcDbBlockBegin
  2
BLOCK10
 70
     0
 10
0.0
 20
0.0
 30
0.0
  3
BLOCK10
  1

  0
LINE
  5
504
100
AcDbEntity
  8
0
370
    13
390
0
  6
DASHDOT
 62
     7
 48
0.03937
100
AcDbLine
 10
-2.013553
 20
-2.013553
 30
0.0
 11
-0.461321
 21
-0.461321
 31
0.0
210
0.0
220
0.0
230
1.0
  0
ARC
  5
505
100
AcDbEntity
  8
0
370
    13
390
0
  6
DASHDOT
 62
     7
 48
0.03937
100
AcDbCircle
 10
0.0
 20
0.0
 30
0.0
 40
1.75
210
0.0
220
0.0
230
1.0
100
AcDbArc
 50
189.064298
 51
260.935708
  0
ENDBLK
  5
506
100
AcDbEntity
  8
0
390
0
100
AcDbBlockEnd
  0
BLOCK
  5
507
100
AcDbEntity
  8
0
370
     0
390
0
100
AcDbBlockBegin
  2
BLOCK11
 70
     0
 10
0.0
 20
0.0
 30
0.0
  3
BLOCK11
  1

  0
LINE
  5
508
100
AcDbEntity
  8
0
370
    13
390
0
  6
DASHDOT
 62
     7
 48
0.03937
100
AcDbLine
 10
2.001935
 20
-2.001935
 30
0.0
 11
0.472939
 21
-0.472939
 31
0.0
210
0.0
220
0.0
230
1.0
  0
ARC
  5
509
100
AcDbEntity
  8
0
370
    13
390
0
  6
DASHDOT
 62
     7
 48
0.03937
100
AcDbCircle
 10
0.0
 20
0.0
 30
0.0
 40
1.75
210
0.0
220
0.0
230
1.0
100
AcDbArc
 50
279.602233
 51
350.397775
  0
ENDBLK
  5
50A
100
AcDbEntity
  8
0
390
0
100
AcDbBlockEnd
  0
BLOCK
  5
50B
100
AcDbEntity
  8
0
370
     0
390
0
100
AcDbBlockBegin
  2
BLOCK12
 70
     0
 10
0.0
 20
0.0
 30
0.0
  3
BLOCK12
  1

  0
LINE
  5
50C
100
AcDbEntity
  8
0
370
    13
390
0
  6
DASHDOT
 62
     7
 48
0.03937
100
AcDbLine
 10
2.020104
 20
2.020104
 30
0.0
 11
0.45477
 21
0.45477
 31
0.0
210
0.0
220
0.0
230
1.0
  0
ARC
  5
50D
100
AcDbEntity
  8
0
370
    13
390
0
  6
DASHDOT
 62
     7
 48
0.03937
100
AcDbCircle
 10
0.0
 20
0.0
 30
0.0
 40
1.75
210
0.0
220
0.0
230
1.0
100
AcDbArc
 50
8.760956
 51
81.239042
  0
ENDBLK
  5
50E
100
AcDbEntity
  8
0
390
0
100
AcDbBlockEnd
  0
BLOCK
  5
50F
100
AcDbEntity
  8
0
370
     0
390
0
100
AcDbBlockBegin
  2
BLOCK13
 70
     0
 10
0.0
 20
0.0
 30
0.0
  3
BLOCK13
  1

  0
LINE
  5
510
100
AcDbEntity
  8
0
370
    13
390
0
  6
DASHDOT
 62
     7
 48
0.03937
100
AcDbLine
 10
-2.134871
 20
2.134871
 30
0.0
 11
-0.340003
 21
0.340003
 31
0.0
210
0.0
220
0.0
230
1.0
  0
ARC
  5
511
100
AcDbEntity
  8
0
370
    13
390
0
  6
DASHDOT
 62
     7
 48
0.03937
100
AcDbCircle
 10
0.0
 20
0.0
 30
0.0
 40
1.75
210
0.0
220
0.0
230
1.0
100
AcDbArc
 50
93.447021
 51
176.552972
  0
ENDBLK
  5
512
100
AcDbEntity
  8
0
390
0
100
AcDbBlockEnd
  0
BLOCK
  5
513
100
AcDbEntity
  8
0
370
     0
390
0
100
AcDbBlockBegin
  2
BLOCK14
 70
     0
 10
0.0
 20
0.0
 30
0.0
  3
BLOCK14
  1

  0
SOLID
  5
514
100
AcDbEntity
  8
0
370
    13
390
0
 62
   172
 48
0.03937
100
AcDbTrace
 10
3.88759
 20
0.001502
 30
0.0
 11
3.846174
 21
0.25
 31
0.0
 12
3.88759
 22
0.001502
 32
0.0
 13
3.804758
 23
0.001502
 33
0.0
  0
SOLID
  5
515
100
AcDbEntity
  8
0
370
    13
390
0
 62
   172
 48
0.03937
100
AcDbTrace
 10
3.804758
 20
-1.501502
 30
0.0
 11
3.846174
 21
-1.75
 31
0.0
 12
3.804758
 22
-1.501502
 32
0.0
 13
3.88759
 23
-1.501502
 33
0.0
  0
TEXT
  5
516
100
AcDbEntity
  8
0
370
    13
390
0
 62
   172
 48
0.03937
100
AcDbText
 10
3.757152
 20
-0.811147
 30
0.0
 40
0.122294
  1
2
 72
     5
 11
3.845514
 21
-0.811147
 31
0.0
100
AcDbText
  0
TEXT
  5
517
100
AcDbEntity
  8
0
370
    13
390
0
 62
   172
 48
0.03937
100
AcDbText
 10
3.845515
 20
-0.811147
 30
0.0
 40
0.122294
  1
"
 72
     5
 11
3.935197
 21
-0.811147
 31
0.0
100
AcDbText
  0
LINE
  5
518
100
AcDbEntity
  8
0
370
    13
390
0
 62
   172
 48
0.03937
100
AcDbLine
 10
2.537835
 20
-1.75
 30
0.0
 11
3.944009
 21
-1.75
 31
0.0
210
0.0
220
0.0
230
1.0
  0
LINE
  5
519
100
AcDbEntity
  8
0
370
    13
390
0
 62
   172
 48
0.03937
100
AcDbLine
 10
1.097835
 20
0.25
 30
0.0
 11
3.944009
 21
0.25
 31
0.0
210
0.0
220
0.0
230
1.0
  0
LINE
  5
51A
100
AcDbEntity
  8
0
370
    13
390
0
 62
   172
 48
0.014774
100
AcDbLine
 10
3.846174
 20
-1.501502
 30
0.0
 11
3.846174
 21
-0.910548
 31
0.0
210
0.0
220
0.0
230
1.0
  0
LINE
  5
51B
100
AcDbEntity
  8
0
370
    13
390
0
 62
   172
 48
0.014774
100
AcDbLine
 10
3.846174
 20
-0.589452
 30
0.0
 11
3.846174
 21
0.001502
 31
0.0
210
0.0
220
0.0
230
1.0
  0
POLYLINE
  5
51C
100
AcDbEntity
  8
0
370
    13
390
0
 62
   172
 48
0.03937
100
AcDb2dPolyline
 66
     1
 10
0.0
 20
0.0
 30
0.0
 70
     1
 71
     3
  0
VERTEX
  5
51D
100
AcDbEntity
  8
0
370
     0
390
0
100
AcDbVertex
100
AcDb2dVertex
 10
3.88759
 20
0.001502
 30
0.0
  0
VERTEX
  5
51E
100
AcDbEntity
  8
0
370
     0
390
0
100
AcDbVertex
100
AcDb2dVertex
 10
3.846174
 20
0.25
 30
0.0
  0
VERTEX
  5
51F
100
AcDbEntity
  8
0
370
     0
390
0
100
AcDbVertex
100
AcDb2dVertex
 10
3.804758
 20
0.001502
 30
0.0
  0
SEQEND
  5
520
100
AcDbEntity
  8
0
370
     0
390
0
  0
POLYLINE
  5
521
100
AcDbEntity
  8
0
370
    13
390
0
 62
   172
 48
0.03937
100
AcDb2dPolyline
 66
     1
 10
0.0
 20
0.0
 30
0.0
 70
     1
 71
     3
  0
VERTEX
  5
522
100
AcDbEntity
  8
0
370
     0
390
0
100
AcDbVertex
100
AcDb2dVertex
 10
3.804758
 20
-1.501502
 30
0.0
  0
VERTEX
  5
523
100
AcDbEntity
  8
0
370
     0
390
0
100
AcDbVertex
100
AcDb2dVertex
 10
3.846174
 20
-1.75
 30
0.0
  0
VERTEX
  5
524
100
AcDbEntity
  8
0
370
     0
390
0
100
AcDbVertex
100
AcDb2dVertex
 10
3.88759
 20
-1.501502
 30
0.0
  0
SEQEND
  5
525
100
AcDbEntity
  8
0
370
     0
390
0
  0
ENDBLK
  5
526
100
AcDbEntity
  8
0
390
0
100
AcDbBlockEnd
  0
BLOCK
  5
527
100
AcDbEntity
  8
0
370
     0
390
0
100
AcDbBlockBegin
  2
BLOCK15
 70
     0
 10
0.0
 20
0.0
 30
0.0
  3
BLOCK15
  1

  0
SOLID
  5
528
100
AcDbEntity
  8
0
370
    13
390
0
 62
   172
 48
0.03937
100
AcDbTrace
 10
3.290716
 20
0.498498
 30
0.0
 11
3.332132
 21
0.25
 31
0.0
 12
3.290716
 22
0.498498
 32
0.0
 13
3.373548
 23
0.498498
 33
0.0
  0
SOLID
  5
529
100
AcDbEntity
  8
0
370
    13
390
0
 62
   172
 48
0.03937
100
AcDbTrace
 10
3.373548
 20
-0.248498
 30
0.0
 11
3.332132
 21
0.0
 31
0.0
 12
3.373548
 22
-0.248498
 32
0.0
 13
3.290716
 23
-0.248498
 33
0.0
  0
TEXT
  5
52A
100
AcDbEntity
  8
0
370
    13
390
0
 62
   172
 48
0.03937
100
AcDbText
 10
3.642759
 20
0.799534
 30
0.0
 40
0.122294
  1
0.25
 72
     5
 11
3.952028
 21
0.799534
 31
0.0
100
AcDbText
  0
TEXT
  5
52B
100
AcDbEntity
  8
0
370
    13
390
0
 62
   172
 48
0.03937
100
AcDbText
 10
3.952028
 20
0.799534
 30
0.0
 40
0.122294
  1
"
 72
     5
 11
4.041711
 21
0.799534
 31
0.0
100
AcDbText
  0
LINE
  5
52C
100
AcDbEntity
  8
0
370
    13
390
0
 62
   172
 48
0.005281
100
AcDbLine
 10
3.332132
 20
0.860681
 30
0.0
 11
3.543358
 21
0.860681
 31
0.0
210
0.0
220
0.0
230
1.0
  0
LINE
  5
52D
100
AcDbEntity
  8
0
370
    13
390
0
 62
   172
 48
0.03937
100
AcDbLine
 10
2.537835
 20
0.0
 30
0.0
 11
3.429967
 21
0.0
 31
0.0
210
0.0
220
0.0
230
1.0
  0
LINE
  5
52E
100
AcDbEntity
  8
0
370
    13
390
0
 62
   172
 48
0.03937
100
AcDbLine
 10
1.097835
 20
0.25
 30
0.0
 11
3.429967
 21
0.25
 31
0.0
210
0.0
220
0.0
230
1.0
  0
LINE
  5
52F
100
AcDbEntity
  8
0
370
    13
390
0
 62
   172
 48
0.003571
100
AcDbLine
 10
3.332132
 20
-0.391341
 30
0.0
 11
3.332132
 21
-0.248498
 31
0.0
210
0.0
220
0.0
230
1.0
  0
LINE
  5
530
100
AcDbEntity
  8
0
370
    13
390
0
 62
   172
 48
0.009055
100
AcDbLine
 10
3.332132
 20
0.498498
 30
0.0
 11
3.332132
 21
0.860681
 31
0.0
210
0.0
220
0.0
230
1.0
  0
POLYLINE
  5
531
100
AcDbEntity
  8
0
370
    13
390
0
 62
   172
 48
0.03937
100
AcDb2dPolyline
 66
     1
 10
0.0
 20
0.0
 30
0.0
 70
     1
 71
     3
  0
VERTEX
  5
532
100
AcDbEntity
  8
0
370
     0
390
0
100
AcDbVertex
100
AcDb2dVertex
 10
3.290716
 20
0.498498
 30
0.0
  0
VERTEX
  5
533
100
AcDbEntity
  8
0
370
     0
390
0
100
AcDbVertex
100
AcDb2dVertex
 10
3.332132
 20
0.25
 30
0.0
  0
VERTEX
  5
534
100
AcDbEntity
  8
0
370
     0
390
0
100
AcDbVertex
100
AcDb2dVertex
 10
3.373548
 20
0.498498
 30
0.0
  0
SEQEND
  5
535
100
AcDbEntity
  8
0
370
     0
390
0
  0
POLYLINE
  5
536
100
AcDbEntity
  8
0
370
    13
390
0
 62
   172
 48
0.03937
100
AcDb2dPolyline
 66
     1
 10
0.0
 20
0.0
 30
0.0
 70
     1
 71
     3
  0
VERTEX
  5
537
100
AcDbEntity
  8
0
370
     0
390
0
100
AcDbVertex
100
AcDb2dVertex
 10
3.373548
 20
-0.248498
 30
0.0
  0
VERTEX
  5
538
100
AcDbEntity
  8
0
370
     0
390
0
100
AcDbVertex
100
AcDb2dVertex
 10
3.332132
 20
0.0
 30
0.0
  0
VERTEX
  5
539
100
AcDbEntity
  8
0
370
     0
390
0
100
AcDbVertex
100
AcDb2dVertex
 10
3.290716
 20
-0.248498
 30
0.0
  0
SEQEND
  5
53A
100
AcDbEntity
  8
0
370
     0
390
0
  0
ENDBLK
  5
53B
100
AcDbEntity
  8
0
390
0
100
AcDbBlockEnd
  0
BLOCK
  5
53C
100
AcDbEntity
  8
0
370
     0
390
0
100
AcDbBlockBegin
  2
BLOCK16
 70
     0
 10
0.0
 20
0.0
 30
0.0
  3
BLOCK16
  1

  0
SOLID
  5
53D
100
AcDbEntity
  8
0
370
    13
390
0
 62
   172
 48
0.03937
100
AcDbTrace
 10
0.751502
 20
0.708198
 30
0.0
 11
1.0
 21
0.749615
 31
0.0
 12
0.751502
 22
0.708198
 32
0.0
 13
0.751502
 23
0.791031
 33
0.0
  0
SOLID
  5
53E
100
AcDbEntity
  8
0
370
    13
390
0
 62
   172
 48
0.03937
100
AcDbTrace
 10
-0.751502
 20
0.791031
 30
0.0
 11
-1.0
 21
0.749615
 31
0.0
 12
-0.751502
 22
0.791031
 32
0.0
 13
-0.751502
 23
0.708198
 33
0.0
  0
TEXT
  5
53F
100
AcDbEntity
  8
0
370
    13
390
0
 62
   172
 48
0.03937
100
AcDbText
 10
0.03425
 20
0.688468
 30
0.0
 40
0.122294
  1
2
 72
     5
 11
0.122613
 21
0.688468
 31
0.0
100
AcDbText
  0
TEXT
  5
540
100
AcDbEntity
  8
0
370
    13
390
0
 62
   172
 48
0.03937
100
AcDbText
 10
0.122613
 20
0.688468
 30
0.0
 40
0.122294
  1
"
 72
     5
 11
0.212295
 21
0.688468
 31
0.0
100
AcDbText
  0
TEXT
  5
541
100
AcDbEntity
  8
0
370
    13
390
0
 62
   172
 48
0.03937
100
AcDbText
 10
-0.212295
 20
0.688468
 30
0.0
 40
0.122294
  1
%%c
 72
     5
 11
-0.090001
 21
0.688468
 31
0.0
100
AcDbText
  0
LINE
  5
542
100
AcDbEntity
  8
0
370
    13
390
0
 62
   172
 48
0.01249
100
AcDbLine
 10
-1.0
 20
0.347835
 30
0.0
 11
-1.0
 21
0.84745
 31
0.0
210
0.0
220
0.0
230
1.0
  0
LINE
  5
543
100
AcDbEntity
  8
0
370
    13
390
0
 62
   172
 48
0.01249
100
AcDbLine
 10
1.0
 20
0.347835
 30
0.0
 11
1.0
 21
0.84745
 31
0.0
210
0.0
220
0.0
230
1.0
  0
LINE
  5
544
100
AcDbEntity
  8
0
370
    13
390
0
 62
   172
 48
0.010995
100
AcDbLine
 10
-0.751502
 20
0.749615
 30
0.0
 11
-0.311696
 21
0.749615
 31
0.0
210
0.0
220
0.0
230
1.0
  0
LINE
  5
545
100
AcDbEntity
  8
0
370
    13
390
0
 62
   172
 48
0.010995
100
AcDbLine
 10
0.311696
 20
0.749615
 30
0.0
 11
0.751502
 21
0.749615
 31
0.0
210
0.0
220
0.0
230
1.0
  0
POLYLINE
  5
546
100
AcDbEntity
  8
0
370
    13
390
0
 62
   172
 48
0.03937
100
AcDb2dPolyline
 66
     1
 10
0.0
 20
0.0
 30
0.0
 70
     1
 71
     3
  0
VERTEX
  5
547
100
AcDbEntity
  8
0
370
     0
390
0
100
AcDbVertex
100
AcDb2dVertex
 10
0.751502
 20
0.708198
 30
0.0
  0
VERTEX
  5
548
100
AcDbEntity
  8
0
370
     0
390
0
100
AcDbVertex
100
AcDb2dVertex
 10
1.0
 20
0.749615
 30
0.0
  0
VERTEX
  5
549
100
AcDbEntity
  8
0
370
     0
390
0
100
AcDbVertex
100
AcDb2dVertex
 10
0.751502
 20
0.791031
 30
0.0
  0
SEQEND
  5
54A
100
AcDbEntity
  8
0
370
     0
390
0
  0
POLYLINE
  5
54B
100
AcDbEntity
  8
0
370
    13
390
0
 62
   172
 48
0.03937
100
AcDb2dPolyline
 66
     1
 10
0.0
 20
0.0
 30
0.0
 70
     1
 71
     3
  0
VERTEX
  5
54C
100
AcDbEntity
  8
0
370
     0
390
0
100
AcDbVertex
100
AcDb2dVertex
 10
-0.751502
 20
0.791031
 30
0.0
  0
VERTEX
  5
54D
100
AcDbEntity
  8
0
370
     0
390
0
100
AcDbVertex
100
AcDb2dVertex
 10
-1.0
 20
0.749615
 30
0.0
  0
VERTEX
  5
54E
100
AcDbEntity
  8
0
370
     0
390
0
100
AcDbVertex
100
AcDb2dVertex
 10
-0.751502
 20
0.708198
 30
0.0
  0
SEQEND
  5
54F
100
AcDbEntity
  8
0
370
     0
390
0
  0
ENDBLK
  5
550
100
AcDbEntity
  8
0
390
0
100
AcDbBlockEnd
  0
BLOCK
  5
551
100
AcDbEntity
  8
0
370
     0
390
0
100
AcDbBlockBegin
  2
BLOCK17
 70
     0
 10
0.0
 20
0.0
 30
0.0
  3
BLOCK17
  1

  0
SOLID
  5
552
100
AcDbEntity
  8
0
370
    13
390
0
 62
   172
 48
0.03937
100
AcDbTrace
 10
-0.251502
 20
-2.245981
 30
0.0
 11
-0.5
 21
-2.287397
 31
0.0
 12
-0.251502
 22
-2.245981
 32
0.0
 13
-0.251502
 23
-2.328814
 33
0.0
  0
SOLID
  5
553
100
AcDbEntity
  8
0
370
    13
390
0
 62
   172
 48
0.03937
100
AcDbTrace
 10
0.251502
 20
-2.328814
 30
0.0
 11
0.5
 21
-2.287397
 31
0.0
 12
0.251502
 22
-2.328814
 32
0.0
 13
0.251502
 23
-2.245981
 33
0.0
  0
TEXT
  5
554
100
AcDbEntity
  8
0
370
    13
390
0
 62
   172
 48
0.03937
100
AcDbText
 10
0.03425
 20
-2.348545
 30
0.0
 40
0.122294
  1
1
 72
     5
 11
0.122613
 21
-2.348545
 31
0.0
100
AcDbText
  0
TEXT
  5
555
100
AcDbEntity
  8
0
370
    13
390
0
 62
   172
 48
0.03937
100
AcDbText
 10
0.122613
 20
-2.348545
 30
0.0
 40
0.122294
  1
"
 72
     5
 11
0.212295
 21
-2.348545
 31
0.0
100
AcDbText
  0
TEXT
  5
556
100
AcDbEntity
  8
0
370
    13
390
0
 62
   172
 48
0.03937
100
AcDbText
 10
-0.212295
 20
-2.348545
 30
0.0
 40
0.122294
  1
%%c
 72
     5
 11
-0.090001
 21
-2.348545
 31
0.0
100
AcDbText
  0
LINE
  5
557
100
AcDbEntity
  8
0
370
    13
390
0
 62
   172
 48
0.013435
100
AcDbLine
 10
-0.5
 20
-1.847835
 30
0.0
 11
-0.5
 21
-2.385233
 31
0.0
210
0.0
220
0.0
230
1.0
  0
LINE
  5
558
100
AcDbEntity
  8
0
370
    13
390
0
 62
   172
 48
0.013435
100
AcDbLine
 10
0.5
 20
-1.847835
 30
0.0
 11
0.5
 21
-2.385233
 31
0.0
210
0.0
220
0.0
230
1.0
  0
POLYLINE
  5
559
100
AcDbEntity
  8
0
370
    13
390
0
 62
   172
 48
0.03937
100
AcDb2dPolyline
 66
     1
 10
0.0
 20
0.0
 30
0.0
 70
     1
 71
     3
  0
VERTEX
  5
55A
100
AcDbEntity
  8
0
370
     0
390
0
100
AcDbVertex
100
AcDb2dVertex
 10
-0.251502
 20
-2.245981
 30
0.0
  0
VERTEX
  5
55B
100
AcDbEntity
  8
0
370
     0
390
0
100
AcDbVertex
100
AcDb2dVertex
 10
-0.5
 20
-2.287397
 30
0.0
  0
VERTEX
  5
55C
100
AcDbEntity
  8
0
370
     0
390
0
100
AcDbVertex
100
AcDb2dVertex
 10
-0.251502
 20
-2.328814
 30
0.0
  0
SEQEND
  5
55D
100
AcDbEntity
  8
0
370
     0
390
0
  0
POLYLINE
  5
55E
100
AcDbEntity
  8
0
370
    13
390
0
 62
   172
 48
0.03937
100
AcDb2dPolyline
 66
     1
 10
0.0
 20
0.0
 30
0.0
 70
     1
 71
     3
  0
VERTEX
  5
55F
100
AcDbEntity
  8
0
370
     0
390
0
100
AcDbVertex
100
AcDb2dVertex
 10
0.251502
 20
-2.328814
 30
0.0
  0
VERTEX
  5
560
100
AcDbEntity
  8
0
370
     0
390
0
100
AcDbVertex
100
AcDb2dVertex
 10
0.5
 20
-2.287397
 30
0.0
  0
VERTEX
  5
561
100
AcDbEntity
  8
0
370
     0
390
0
100
AcDbVertex
100
AcDb2dVertex
 10
0.251502
 20
-2.245981
 30
0.0
  0
SEQEND
  5
562
100
AcDbEntity
  8
0
370
     0
390
0
  0
ENDBLK
  5
563
100
AcDbEntity
  8
0
390
0
100
AcDbBlockEnd
  0
BLOCK
  5
564
100
AcDbEntity
  8
0
370
     0
390
0
100
AcDbBlockBegin
  2
BLOCK18
 70
     0
 10
0.0
 20
0.0
 30
0.0
  3
BLOCK18
  1

  0
LINE
  5
565
100
AcDbEntity
  8
0
370
     5
390
0
 62
     7
 48
0.03937
100
AcDbLine
 10
-0.5
 20
-1.75
 30
0.0
 11
-0.5
 21
0.25
 31
0.0
210
0.0
220
0.0
230
1.0
  0
LINE
  5
566
100
AcDbEntity
  8
0
370
     5
390
0
 62
     7
 48
0.0125
100
AcDbLine
 10
-0.5
 20
0.25
 30
0.0
 11
-1.0
 21
0.25
 31
0.0
210
0.0
220
0.0
230
1.0
  0
LINE
  5
567
100
AcDbEntity
  8
0
370
     5
390
0
 62
     7
 48
0.00625
100
AcDbLine
 10
-1.0
 20
0.25
 30
0.0
 11
-1.0
 21
0.0
 31
0.0
210
0.0
220
0.0
230
1.0
  0
LINE
  5
568
100
AcDbEntity
  8
0
370
     5
390
0
 62
     7
 48
0.03937
100
AcDbLine
 10
-1.0
 20
0.0
 30
0.0
 11
-2.44
 21
0.0
 31
0.0
210
0.0
220
0.0
230
1.0
  0
LINE
  5
569
100
AcDbEntity
  8
0
370
     5
390
0
 62
     7
 48
0.03937
100
AcDbLine
 10
-2.44
 20
0.0
 30
0.0
 11
-2.44
 21
-1.75
 31
0.0
210
0.0
220
0.0
230
1.0
  0
LINE
  5
56A
100
AcDbEntity
  8
0
370
     5
390
0
 62
     7
 48
0.03937
100
AcDbLine
 10
-2.44
 20
-1.75
 30
0.0
 11
-0.5
 21
-1.75
 31
0.0
210
0.0
220
0.0
230
1.0
  0
ENDBLK
  5
56B
100
AcDbEntity
  8
0
390
0
100
AcDbBlockEnd
  0
BLOCK
  5
56C
100
AcDbEntity
  8
0
370
     0
390
0
100
AcDbBlockBegin
  2
BLOCK19
 70
     0
 10
0.0
 20
0.0
 30
0.0
  3
BLOCK19
  1

  0
LINE
  5
56D
100
AcDbEntity
  8
0
370
     5
390
0
 62
     7
 48
0.03937
100
AcDbLine
 10
0.5
 20
-1.75
 30
0.0
 11
2.44
 21
-1.75
 31
0.0
210
0.0
220
0.0
230
1.0
  0
LINE
  5
56E
100
AcDbEntity
  8
0
370
     5
390
0
 62
     7
 48
0.03937
100
AcDbLine
 10
2.44
 20
-1.75
 30
0.0
 11
2.44
 21
0.0
 31
0.0
210
0.0
220
0.0
230
1.0
  0
LINE
  5
56F
100
AcDbEntity
  8
0
370
     5
390
0
 62
     7
 48
0.03937
100
AcDbLine
 10
2.44
 20
0.0
 30
0.0
 11
1.0
 21
0.0
 31
0.0
210
0.0
220
0.0
230
1.0
  0
LINE
  5
570
100
AcDbEntity
  8
0
370
     5
390
0
 62
     7
 48
0.00625
100
AcDbLine
 10
1.0
 20
0.0
 30
0.0
 11
1.0
 21
0.25
 31
0.0
210
0.0
220
0.0
230
1.0
  0
LINE
  5
571
100
AcDbEntity
  8
0
370
     5
390
0
 62
     7
 48
0.0125
100
AcDbLine
 10
1.0
 20
0.25
 30
0.0
 11
0.5
 21
0.25
 31
0.0
210
0.0
220
0.0
230
1.0
  0
LINE
  5
572
100
AcDbEntity
  8
0
370
     5
390
0
 62
     7
 48
0.03937
100
AcDbLine
 10
0.5
 20
0.25
 30
0.0
 11
0.5
 21
-1.75
 31
0.0
210
0.0
220
0.0
230
1.0
  0
ENDBLK
  5
573
100
AcDbEntity
  8
0
390
0
100
AcDbBlockEnd
  0
ENDSEC
  0
SECTION
  2
ENTITIES
  0
VIEWPORT
  5
3B1
100
AcDbEntity
 67
     1
  8
0
370
     0
390
0
 62
     0
 48
0.0
100
AcDbViewport
 10
0.0
 20
0.0
 30
0.0
 40
1000.0
 41
1000.0
 68
     1
 69
     1
 12
0.0
 22
0.0
 13
0.0
 23
0.0
 14
1.0
 24
1.0
 15
1.0
 25
1.0
 16
0.0
 26
0.0
 36
1.0
 17
0.0
 27
0.0
 37
0.0
 42
50.0
 43
0.0
 44
0.0
 45
1000.0
 50
0.0
 51
0.0
 72
   100
 90
        0
340
0
  1

281
     0
 71
     0
 74
     1
110
0.0
120
0.0
130
0.0
111
1.0
121
0.0
131
0.0
112
0.0
122
1.0
132
0.0
345
0
346
0
 79
     0
146
0.0
  0
TEXT
  5
27
100
AcDbEntity
  8
0
370
    13
390
0
 62
     7
 48
0.03937
100
AcDbText
 10
8.263597
 20
0.855562
 30
0.0
 40
0.098425
  1
600-FB-RF-STUDOUT-FLANGE
 72
     5
 11
10.422916
 21
0.855562
 31
0.0
100
AcDbText
  0
TEXT
  5
28
100
AcDbEntity
  8
0
370
    13
390
0
 62
     7
 48
0.03937
100
AcDbText
 10
7.774762
 20
1.08216
 30
0.0
 40
0.06
  1
SIZE:
 72
     5
 11
8.064134
 21
1.08216
 31
0.0
100
AcDbText
  0
TEXT
  5
29
100
AcDbEntity
  8
0
370
    13
390
0
 62
     7
 48
0.03937
100
AcDbText
 10
7.774762
 20
0.894218
 30
0.0
 40
0.06
  1
TYPE:
 72
     5
 11
8.064134
 21
0.894218
 31
0.0
100
AcDbText
  0
POINT
  5
2A
100
AcDbEntity
  8
0
370
     5
390
0
 62
     7
 48
0.03937
100
AcDbPoint
 10
0.0
 20
0.0
 30
0.0
210
0.0
220
0.0
230
1.0
  0
POINT
  5
2B
100
AcDbEntity
  8
0
370
     5
390
0
 62
     7
 48
0.03937
100
AcDbPoint
 10
8.029755
 20
0.53125
 30
0.0
210
0.0
220
0.0
230
1.0
  0
LINE
  5
2C
100
AcDbEntity
  8
1
370
    35
390
0
 62
     7
 48
0.000032
100
AcDbLine
 10
9.035676
 20
0.778761
 30
0.0
 11
9.036922
 21
0.778449
 31
0.0
210
0.0
220
0.0
230
1.0
  0
LINE
  5
2D
100
AcDbEntity
  8
1
370
    35
390
0
 62
     7
 48
0.03937
100
AcDbLine
 10
0.25
 20
0.25
 30
0.0
 11
0.25
 21
8.25
 31
0.0
210
0.0
220
0.0
230
1.0
  0
LINE
  5
2E
100
AcDbEntity
  8
1
370
    35
390
0
 62
     7
 48
0.03937
100
AcDbLine
 10
7.75
 20
1.1875
 30
0.0
 11
10.75
 21
1.1875
 31
0.0
210
0.0
220
0.0
230
1.0
  0
LINE
  5
2F
100
AcDbEntity
  8
1
370
    35
390
0
 62
     7
 48
0.03937
100
AcDbLine
 10
7.75
 20
1.0
 30
0.0
 11
10.75
 21
1.0
 31
0.0
210
0.0
220
0.0
230
1.0
  0
LINE
  5
30
100
AcDbEntity
  8
1
370
    35
390
0
 62
     7
 48
0.03937
100
AcDbLine
 10
0.25
 20
8.25
 30
0.0
 11
10.75
 21
8.25
 31
0.0
210
0.0
220
0.0
230
1.0
  0
LINE
  5
31
100
AcDbEntity
  8
1
370
    35
390
0
 62
     7
 48
0.03937
100
AcDbLine
 10
7.75
 20
0.8125
 30
0.0
 11
10.75
 21
0.8125
 31
0.0
210
0.0
220
0.0
230
1.0
  0
LINE
  5
32
100
AcDbEntity
  8
1
370
    35
390
0
 62
     7
 48
0.03937
100
AcDbLine
 10
0.25
 20
0.25
 30
0.0
 11
10.75
 21
0.25
 31
0.0
210
0.0
220
0.0
230
1.0
  0
LINE
  5
33
100
AcDbEntity
  8
1
370
    35
390
0
 62
     7
 48
0.03937
100
AcDbLine
 10
10.75
 20
8.25
 30
0.0
 11
10.75
 21
0.25
 31
0.0
210
0.0
220
0.0
230
1.0
  0
LINE
  5
34
100
AcDbEntity
  8
1
370
    35
390
0
 62
     7
 48
0.03937
100
AcDbLine
 10
7.75
 20
1.1875
 30
0.0
 11
7.75
 21
0.25
 31
0.0
210
0.0
220
0.0
230
1.0
  0
CIRCLE
  5
35
100
AcDbEntity
  8
0
370
    70
390
0
 62
     7
 48
0.03937
100
AcDbCircle
 10
8.029755
 20
0.53125
 30
0.0
 40
0.2475
210
0.0
220
0.0
230
1.0
  0
CIRCLE
  5
36
100
AcDbEntity
  8
0
370
    70
390
0
 62
     7
 48
0.03937
100
AcDbCircle
 10
8.029755
 20
0.53125
 30
0.0
 40
0.195
210
0.0
220
0.0
230
1.0
  0
CIRCLE
  5
37
100
AcDbEntity
  8
0
370
    35
390
0
 62
     7
 48
0.03937
100
AcDbCircle
 10
8.029755
 20
0.7525
 30
0.0
 40
0.015
210
0.0
220
0.0
230
1.0
  0
CIRCLE
  5
38
100
AcDbEntity
  8
0
370
    35
390
0
 62
     7
 48
0.03937
100
AcDbCircle
 10
8.251005
 20
0.53125
 30
0.0
 40
0.015
210
0.0
220
0.0
230
1.0
  0
CIRCLE
  5
39
100
AcDbEntity
  8
0
370
    35
390
0
 62
     7
 48
0.03937
100
AcDbCircle
 10
8.186202
 20
0.687697
 30
0.0
 40
0.015
210
0.0
220
0.0
230
1.0
  0
CIRCLE
  5
3A
100
AcDbEntity
  8
0
370
    35
390
0
 62
     7
 48
0.03937
100
AcDbCircle
 10
8.029755
 20
0.31
 30
0.0
 40
0.015
210
0.0
220
0.0
230
1.0
  0
CIRCLE
  5
3B
100
AcDbEntity
  8
0
370
    35
390
0
 62
     7
 48
0.03937
100
AcDbCircle
 10
8.186202
 20
0.374803
 30
0.0
 40
0.015
210
0.0
220
0.0
230
1.0
  0
CIRCLE
  5
3C
100
AcDbEntity
  8
0
370
    35
390
0
 62
     7
 48
0.03937
100
AcDbCircle
 10
7.808505
 20
0.53125
 30
0.0
 40
0.015
210
0.0
220
0.0
230
1.0
  0
CIRCLE
  5
3D
100
AcDbEntity
  8
0
370
    35
390
0
 62
     7
 48
0.03937
100
AcDbCircle
 10
7.873308
 20
0.687697
 30
0.0
 40
0.015
210
0.0
220
0.0
230
1.0
  0
CIRCLE
  5
3E
100
AcDbEntity
  8
0
370
    35
390
0
 62
     7
 48
0.03937
100
AcDbCircle
 10
7.873308
 20
0.374803
 30
0.0
 40
0.015
210
0.0
220
0.0
230
1.0
  0
POLYLINE
  5
3F
100
AcDbEntity
  8
0
370
    13
390
0
 62
     7
 48
0.03937
100
AcDb2dPolyline
 66
     1
 10
0.0
 20
0.0
 30
0.0
 70
     1
 71
   118
  0
VERTEX
  5
40
100
AcDbEntity
  8
0
370
     0
390
0
100
AcDbVertex
100
AcDb2dVertex
 10
8.029831
 20
0.605292
 30
0.0
  0
VERTEX
  5
41
100
AcDbEntity
  8
0
370
     0
390
0
100
AcDbVertex
100
AcDb2dVertex
 10
8.029019
 20
0.60375
 30
0.0
  0
VERTEX
  5
42
100
AcDbEntity
  8
0
370
     0
390
0
100
AcDbVertex
100
AcDb2dVertex
 10
8.021177
 20
0.589826
 30
0.0
  0
VERTEX
  5
43
100
AcDbEntity
  8
0
370
     0
390
0
100
AcDbVertex
100
AcDb2dVertex
 10
8.020426
 20
0.588405
 30
0.0
  0
VERTEX
  5
44
100
AcDbEntity
  8
0
370
     0
390
0
100
AcDbVertex
100
AcDb2dVertex
 10
8.019684
 20
0.586917
 30
0.0
  0
VERTEX
  5
45
100
AcDbEntity
  8
0
370
     0
390
0
100
AcDbVertex
100
AcDb2dVertex
 10
8.018954
 20
0.58536
 30
0.0
  0
VERTEX
  5
46
100
AcDbEntity
  8
0
370
     0
390
0
100
AcDbVertex
100
AcDb2dVertex
 10
8.018235
 20
0.583734
 30
0.0
  0
VERTEX
  5
47
100
AcDbEntity
  8
0
370
     0
390
0
100
AcDbVertex
100
AcDb2dVertex
 10
8.017528
 20
0.582038
 30
0.0
  0
VERTEX
  5
48
100
AcDbEntity
  8
0
370
     0
390
0
100
AcDbVertex
100
AcDb2dVertex
 10
8.01683
 20
0.580272
 30
0.0
  0
VERTEX
  5
49
100
AcDbEntity
  8
0
370
     0
390
0
100
AcDbVertex
100
AcDb2dVertex
 10
8.016143
 20
0.578438
 30
0.0
  0
VERTEX
  5
4A
100
AcDbEntity
  8
0
370
     0
390
0
100
AcDbVertex
100
AcDb2dVertex
 10
8.015467
 20
0.576534
 30
0.0
  0
VERTEX
  5
4B
100
AcDbEntity
  8
0
370
     0
390
0
100
AcDbVertex
100
AcDb2dVertex
 10
8.014802
 20
0.574562
 30
0.0
  0
VERTEX
  5
4C
100
AcDbEntity
  8
0
370
     0
390
0
100
AcDbVertex
100
AcDb2dVertex
 10
8.014147
 20
0.572519
 30
0.0
  0
VERTEX
  5
4D
100
AcDbEntity
  8
0
370
     0
390
0
100
AcDbVertex
100
AcDb2dVertex
 10
8.012525
 20
0.574142
 30
0.0
  0
VERTEX
  5
4E
100
AcDbEntity
  8
0
370
     0
390
0
100
AcDbVertex
100
AcDb2dVertex
 10
8.011871
 20
0.576531
 30
0.0
  0
VERTEX
  5
4F
100
AcDbEntity
  8
0
370
     0
390
0
100
AcDbVertex
100
AcDb2dVertex
 10
8.011163
 20
0.578771
 30
0.0
  0
VERTEX
  5
50
100
AcDbEntity
  8
0
370
     0
390
0
100
AcDbVertex
100
AcDb2dVertex
 10
8.010404
 20
0.580859
 30
0.0
  0
VERTEX
  5
51
100
AcDbEntity
  8
0
370
     0
390
0
100
AcDbVertex
100
AcDb2dVertex
 10
8.009591
 20
0.582795
 30
0.0
  0
VERTEX
  5
52
100
AcDbEntity
  8
0
370
     0
390
0
100
AcDbVertex
100
AcDb2dVertex
 10
8.008726
 20
0.584579
 30
0.0
  0
VERTEX
  5
53
100
AcDbEntity
  8
0
370
     0
390
0
100
AcDbVertex
100
AcDb2dVertex
 10
8.007806
 20
0.586212
 30
0.0
  0
VERTEX
  5
54
100
AcDbEntity
  8
0
370
     0
390
0
100
AcDbVertex
100
AcDb2dVertex
 10
8.006836
 20
0.587694
 30
0.0
  0
VERTEX
  5
55
100
AcDbEntity
  8
0
370
     0
390
0
100
AcDbVertex
100
AcDb2dVertex
 10
8.00581
 20
0.589025
 30
0.0
  0
VERTEX
  5
56
100
AcDbEntity
  8
0
370
     0
390
0
100
AcDbVertex
100
AcDb2dVertex
 10
8.004733
 20
0.590204
 30
0.0
  0
VERTEX
  5
57
100
AcDbEntity
  8
0
370
     0
390
0
100
AcDbVertex
100
AcDb2dVertex
 10
8.003601
 20
0.591231
 30
0.0
  0
VERTEX
  5
58
100
AcDbEntity
  8
0
370
     0
390
0
100
AcDbVertex
100
AcDb2dVertex
 10
8.002384
 20
0.592136
 30
0.0
  0
VERTEX
  5
59
100
AcDbEntity
  8
0
370
     0
390
0
100
AcDbVertex
100
AcDb2dVertex
 10
8.001043
 20
0.592944
 30
0.0
  0
VERTEX
  5
5A
100
AcDbEntity
  8
0
370
     0
390
0
100
AcDbVertex
100
AcDb2dVertex
 10
7.99958
 20
0.593658
 30
0.0
  0
VERTEX
  5
5B
100
AcDbEntity
  8
0
370
     0
390
0
100
AcDbVertex
100
AcDb2dVertex
 10
7.997995
 20
0.594276
 30
0.0
  0
VERTEX
  5
5C
100
AcDbEntity
  8
0
370
     0
390
0
100
AcDbVertex
100
AcDb2dVertex
 10
7.996287
 20
0.5948
 30
0.0
  0
VERTEX
  5
5D
100
AcDbEntity
  8
0
370
     0
390
0
100
AcDbVertex
100
AcDb2dVertex
 10
7.994457
 20
0.595229
 30
0.0
  0
VERTEX
  5
5E
100
AcDbEntity
  8
0
370
     0
390
0
100
AcDbVertex
100
AcDb2dVertex
 10
7.992506
 20
0.595562
 30
0.0
  0
VERTEX
  5
5F
100
AcDbEntity
  8
0
370
     0
390
0
100
AcDbVertex
100
AcDb2dVertex
 10
7.990431
 20
0.595799
 30
0.0
  0
VERTEX
  5
60
100
AcDbEntity
  8
0
370
     0
390
0
100
AcDbVertex
100
AcDb2dVertex
 10
7.988236
 20
0.595943
 30
0.0
  0
VERTEX
  5
61
100
AcDbEntity
  8
0
370
     0
390
0
100
AcDbVertex
100
AcDb2dVertex
 10
7.985918
 20
0.595991
 30
0.0
  0
VERTEX
  5
62
100
AcDbEntity
  8
0
370
     0
390
0
100
AcDbVertex
100
AcDb2dVertex
 10
7.983971
 20
0.595973
 30
0.0
  0
VERTEX
  5
63
100
AcDbEntity
  8
0
370
     0
390
0
100
AcDbVertex
100
AcDb2dVertex
 10
7.982024
 20
0.59592
 30
0.0
  0
VERTEX
  5
64
100
AcDbEntity
  8
0
370
     0
390
0
100
AcDbVertex
100
AcDb2dVertex
 10
7.980077
 20
0.595835
 30
0.0
  0
VERTEX
  5
65
100
AcDbEntity
  8
0
370
     0
390
0
100
AcDbVertex
100
AcDb2dVertex
 10
7.97813
 20
0.595713
 30
0.0
  0
VERTEX
  5
66
100
AcDbEntity
  8
0
370
     0
390
0
100
AcDbVertex
100
AcDb2dVertex
 10
7.976183
 20
0.595557
 30
0.0
  0
VERTEX
  5
67
100
AcDbEntity
  8
0
370
     0
390
0
100
AcDbVertex
100
AcDb2dVertex
 10
7.974885
 20
0.478313
 30
0.0
  0
VERTEX
  5
68
100
AcDbEntity
  8
0
370
     0
390
0
100
AcDbVertex
100
AcDb2dVertex
 10
7.987647
 20
0.466523
 30
0.0
  0
VERTEX
  5
69
100
AcDbEntity
  8
0
370
     0
390
0
100
AcDbVertex
100
AcDb2dVertex
 10
7.93822
 20
0.466523
 30
0.0
  0
VERTEX
  5
6A
100
AcDbEntity
  8
0
370
     0
390
0
100
AcDbVertex
100
AcDb2dVertex
 10
7.953361
 20
0.479178
 30
0.0
  0
VERTEX
  5
6B
100
AcDbEntity
  8
0
370
     0
390
0
100
AcDbVertex
100
AcDb2dVertex
 10
7.953361
 20
0.586796
 30
0.0
  0
VERTEX
  5
6C
100
AcDbEntity
  8
0
370
     0
390
0
100
AcDbVertex
100
AcDb2dVertex
 10
7.945682
 20
0.586905
 30
0.0
  0
VERTEX
  5
6D
100
AcDbEntity
  8
0
370
     0
390
0
100
AcDbVertex
100
AcDb2dVertex
 10
7.943519
 20
0.58686
 30
0.0
  0
VERTEX
  5
6E
100
AcDbEntity
  8
0
370
     0
390
0
100
AcDbVertex
100
AcDb2dVertex
 10
7.941484
 20
0.58673
 30
0.0
  0
VERTEX
  5
6F
100
AcDbEntity
  8
0
370
     0
390
0
100
AcDbVertex
100
AcDb2dVertex
 10
7.939577
 20
0.586511
 30
0.0
  0
VERTEX
  5
70
100
AcDbEntity
  8
0
370
     0
390
0
100
AcDbVertex
100
AcDb2dVertex
 10
7.937799
 20
0.586203
 30
0.0
  0
VERTEX
  5
71
100
AcDbEntity
  8
0
370
     0
390
0
100
AcDbVertex
100
AcDb2dVertex
 10
7.936151
 20
0.585809
 30
0.0
  0
VERTEX
  5
72
100
AcDbEntity
  8
0
370
     0
390
0
100
AcDbVertex
100
AcDb2dVertex
 10
7.93463
 20
0.585327
 30
0.0
  0
VERTEX
  5
73
100
AcDbEntity
  8
0
370
     0
390
0
100
AcDbVertex
100
AcDb2dVertex
 10
7.93324
 20
0.584759
 30
0.0
  0
VERTEX
  5
74
100
AcDbEntity
  8
0
370
     0
390
0
100
AcDbVertex
100
AcDb2dVertex
 10
7.930843
 20
0.583356
 30
0.0
  0
VERTEX
  5
75
100
AcDbEntity
  8
0
370
     0
390
0
100
AcDbVertex
100
AcDb2dVertex
 10
7.928935
 20
0.581582
 30
0.0
  0
VERTEX
  5
76
100
AcDbEntity
  8
0
370
     0
390
0
100
AcDbVertex
100
AcDb2dVertex
 10
7.92736
 20
0.579297
 30
0.0
  0
VERTEX
  5
77
100
AcDbEntity
  8
0
370
     0
390
0
100
AcDbVertex
100
AcDb2dVertex
 10
7.926092
 20
0.57648
 30
0.0
  0
VERTEX
  5
78
100
AcDbEntity
  8
0
370
     0
390
0
100
AcDbVertex
100
AcDb2dVertex
 10
7.925573
 20
0.574872
 30
0.0
  0
VERTEX
  5
79
100
AcDbEntity
  8
0
370
     0
390
0
100
AcDbVertex
100
AcDb2dVertex
 10
7.92513
 20
0.573132
 30
0.0
  0
VERTEX
  5
7A
100
AcDbEntity
  8
0
370
     0
390
0
100
AcDbVertex
100
AcDb2dVertex
 10
7.924766
 20
0.571259
 30
0.0
  0
VERTEX
  5
7B
100
AcDbEntity
  8
0
370
     0
390
0
100
AcDbVertex
100
AcDb2dVertex
 10
7.924478
 20
0.569252
 30
0.0
  0
VERTEX
  5
7C
100
AcDbEntity
  8
0
370
     0
390
0
100
AcDbVertex
100
AcDb2dVertex
 10
7.924266
 20
0.567111
 30
0.0
  0
VERTEX
  5
7D
100
AcDbEntity
  8
0
370
     0
390
0
100
AcDbVertex
100
AcDb2dVertex
 10
7.921454
 20
0.567111
 30
0.0
  0
VERTEX
  5
7E
100
AcDbEntity
  8
0
370
     0
390
0
100
AcDbVertex
100
AcDb2dVertex
 10
7.921734
 20
0.569565
 30
0.0
  0
VERTEX
  5
7F
100
AcDbEntity
  8
0
370
     0
390
0
100
AcDbVertex
100
AcDb2dVertex
 10
7.922096
 20
0.571866
 30
0.0
  0
VERTEX
  5
80
100
AcDbEntity
  8
0
370
     0
390
0
100
AcDbVertex
100
AcDb2dVertex
 10
7.922543
 20
0.574013
 30
0.0
  0
VERTEX
  5
81
100
AcDbEntity
  8
0
370
     0
390
0
100
AcDbVertex
100
AcDb2dVertex
 10
7.923073
 20
0.576006
 30
0.0
  0
VERTEX
  5
82
100
AcDbEntity
  8
0
370
     0
390
0
100
AcDbVertex
100
AcDb2dVertex
 10
7.923684
 20
0.577847
 30
0.0
  0
VERTEX
  5
83
100
AcDbEntity
  8
0
370
     0
390
0
100
AcDbVertex
100
AcDb2dVertex
 10
7.924381
 20
0.579533
 30
0.0
  0
VERTEX
  5
84
100
AcDbEntity
  8
0
370
     0
390
0
100
AcDbVertex
100
AcDb2dVertex
 10
7.92516
 20
0.581064
 30
0.0
  0
VERTEX
  5
85
100
AcDbEntity
  8
0
370
     0
390
0
100
AcDbVertex
100
AcDb2dVertex
 10
7.926023
 20
0.582444
 30
0.0
  0
VERTEX
  5
86
100
AcDbEntity
  8
0
370
     0
390
0
100
AcDbVertex
100
AcDb2dVertex
 10
7.926968
 20
0.58367
 30
0.0
  0
VERTEX
  5
87
100
AcDbEntity
  8
0
370
     0
390
0
100
AcDbVertex
100
AcDb2dVertex
 10
7.929138
 20
0.585687
 30
0.0
  0
VERTEX
  5
88
100
AcDbEntity
  8
0
370
     0
390
0
100
AcDbVertex
100
AcDb2dVertex
 10
7.930418
 20
0.586532
 30
0.0
  0
VERTEX
  5
89
100
AcDbEntity
  8
0
370
     0
390
0
100
AcDbVertex
100
AcDb2dVertex
 10
7.931839
 20
0.587279
 30
0.0
  0
VERTEX
  5
8A
100
AcDbEntity
  8
0
370
     0
390
0
100
AcDbVertex
100
AcDb2dVertex
 10
7.933397
 20
0.587925
 30
0.0
  0
VERTEX
  5
8B
100
AcDbEntity
  8
0
370
     0
390
0
100
AcDbVertex
100
AcDb2dVertex
 10
7.935095
 20
0.588473
 30
0.0
  0
VERTEX
  5
8C
100
AcDbEntity
  8
0
370
     0
390
0
100
AcDbVertex
100
AcDb2dVertex
 10
7.936934
 20
0.588921
 30
0.0
  0
VERTEX
  5
8D
100
AcDbEntity
  8
0
370
     0
390
0
100
AcDbVertex
100
AcDb2dVertex
 10
7.938912
 20
0.589269
 30
0.0
  0
VERTEX
  5
8E
100
AcDbEntity
  8
0
370
     0
390
0
100
AcDbVertex
100
AcDb2dVertex
 10
7.941029
 20
0.589518
 30
0.0
  0
VERTEX
  5
8F
100
AcDbEntity
  8
0
370
     0
390
0
100
AcDbVertex
100
AcDb2dVertex
 10
7.943286
 20
0.589667
 30
0.0
  0
VERTEX
  5
90
100
AcDbEntity
  8
0
370
     0
390
0
100
AcDbVertex
100
AcDb2dVertex
 10
7.945682
 20
0.589716
 30
0.0
  0
VERTEX
  5
91
100
AcDbEntity
  8
0
370
     0
390
0
100
AcDbVertex
100
AcDb2dVertex
 10
7.952171
 20
0.589608
 30
0.0
  0
VERTEX
  5
92
100
AcDbEntity
  8
0
370
     0
390
0
100
AcDbVertex
100
AcDb2dVertex
 10
7.953361
 20
0.594908
 30
0.0
  0
VERTEX
  5
93
100
AcDbEntity
  8
0
370
     0
390
0
100
AcDbVertex
100
AcDb2dVertex
 10
7.951177
 20
0.595142
 30
0.0
  0
VERTEX
  5
94
100
AcDbEntity
  8
0
370
     0
390
0
100
AcDbVertex
100
AcDb2dVertex
 10
7.949034
 20
0.595323
 30
0.0
  0
VERTEX
  5
95
100
AcDbEntity
  8
0
370
     0
390
0
100
AcDbVertex
100
AcDb2dVertex
 10
7.946936
 20
0.595454
 30
0.0
  0
VERTEX
  5
96
100
AcDbEntity
  8
0
370
     0
390
0
100
AcDbVertex
100
AcDb2dVertex
 10
7.944881
 20
0.595532
 30
0.0
  0
VERTEX
  5
97
100
AcDbEntity
  8
0
370
     0
390
0
100
AcDbVertex
100
AcDb2dVertex
 10
7.94287
 20
0.595557
 30
0.0
  0
VERTEX
  5
98
100
AcDbEntity
  8
0
370
     0
390
0
100
AcDbVertex
100
AcDb2dVertex
 10
7.940158
 20
0.5955
 30
0.0
  0
VERTEX
  5
99
100
AcDbEntity
  8
0
370
     0
390
0
100
AcDbVertex
100
AcDb2dVertex
 10
7.9376
 20
0.595331
 30
0.0
  0
VERTEX
  5
9A
100
AcDbEntity
  8
0
370
     0
390
0
100
AcDbVertex
100
AcDb2dVertex
 10
7.9352
 20
0.595046
 30
0.0
  0
VERTEX
  5
9B
100
AcDbEntity
  8
0
370
     0
390
0
100
AcDbVertex
100
AcDb2dVertex
 10
7.932953
 20
0.594648
 30
0.0
  0
VERTEX
  5
9C
100
AcDbEntity
  8
0
370
     0
390
0
100
AcDbVertex
100
AcDb2dVertex
 10
7.930864
 20
0.594138
 30
0.0
  0
VERTEX
  5
9D
100
AcDbEntity
  8
0
370
     0
390
0
100
AcDbVertex
100
AcDb2dVertex
 10
7.92893
 20
0.593513
 30
0.0
  0
VERTEX
  5
9E
100
AcDbEntity
  8
0
370
     0
390
0
100
AcDbVertex
100
AcDb2dVertex
 10
7.927152
 20
0.592775
 30
0.0
  0
VERTEX
  5
9F
100
AcDbEntity
  8
0
370
     0
390
0
100
AcDbVertex
100
AcDb2dVertex
 10
7.92553
 20
0.591923
 30
0.0
  0
VERTEX
  5
A0
100
AcDbEntity
  8
0
370
     0
390
0
100
AcDbVertex
100
AcDb2dVertex
 10
7.924063
 20
0.590958
 30
0.0
  0
VERTEX
  5
A1
100
AcDbEntity
  8
0
370
     0
390
0
100
AcDbVertex
100
AcDb2dVertex
 10
7.922751
 20
0.58988
 30
0.0
  0
VERTEX
  5
A2
100
AcDbEntity
  8
0
370
     0
390
0
100
AcDbVertex
100
AcDb2dVertex
 10
7.921574
 20
0.588665
 30
0.0
  0
VERTEX
  5
A3
100
AcDbEntity
  8
0
370
     0
390
0
100
AcDbVertex
100
AcDb2dVertex
 10
7.920506
 20
0.587294
 30
0.0
  0
VERTEX
  5
A4
100
AcDbEntity
  8
0
370
     0
390
0
100
AcDbVertex
100
AcDb2dVertex
 10
7.919549
 20
0.585767
 30
0.0
  0
VERTEX
  5
A5
100
AcDbEntity
  8
0
370
     0
390
0
100
AcDbVertex
100
AcDb2dVertex
 10
7.918703
 20
0.584081
 30
0.0
  0
VERTEX
  5
A6
100
AcDbEntity
  8
0
370
     0
390
0
100
AcDbVertex
100
AcDb2dVertex
 10
7.917966
 20
0.58224
 30
0.0
  0
VERTEX
  5
A7
100
AcDbEntity
  8
0
370
     0
390
0
100
AcDbVertex
100
AcDb2dVertex
 10
7.917339
 20
0.580242
 30
0.0
  0
VERTEX
  5
A8
100
AcDbEntity
  8
0
370
     0
390
0
100
AcDbVertex
100
AcDb2dVertex
 10
7.916824
 20
0.578087
 30
0.0
  0
VERTEX
  5
A9
100
AcDbEntity
  8
0
370
     0
390
0
100
AcDbVertex
100
AcDb2dVertex
 10
7.916418
 20
0.575775
 30
0.0
  0
VERTEX
  5
AA
100
AcDbEntity
  8
0
370
     0
390
0
100
AcDbVertex
100
AcDb2dVertex
 10
7.916123
 20
0.573306
 30
0.0
  0
VERTEX
  5
AB
100
AcDbEntity
  8
0
370
     0
390
0
100
AcDbVertex
100
AcDb2dVertex
 10
7.915938
 20
0.570681
 30
0.0
  0
VERTEX
  5
AC
100
AcDbEntity
  8
0
370
     0
390
0
100
AcDbVertex
100
AcDb2dVertex
 10
7.913659
 20
0.573722
 30
0.0
  0
VERTEX
  5
AD
100
AcDbEntity
  8
0
370
     0
390
0
100
AcDbVertex
100
AcDb2dVertex
 10
7.912577
 20
0.576833
 30
0.0
  0
VERTEX
  5
AE
100
AcDbEntity
  8
0
370
     0
390
0
100
AcDbVertex
100
AcDb2dVertex
 10
7.911392
 20
0.580013
 30
0.0
  0
VERTEX
  5
AF
100
AcDbEntity
  8
0
370
     0
390
0
100
AcDbVertex
100
AcDb2dVertex
 10
7.910106
 20
0.583262
 30
0.0
  0
VERTEX
  5
B0
100
AcDbEntity
  8
0
370
     0
390
0
100
AcDbVertex
100
AcDb2dVertex
 10
7.908719
 20
0.58658
 30
0.0
  0
VERTEX
  5
B1
100
AcDbEntity
  8
0
370
     0
390
0
100
AcDbVertex
100
AcDb2dVertex
 10
7.907229
 20
0.589967
 30
0.0
  0
VERTEX
  5
B2
100
AcDbEntity
  8
0
370
     0
390
0
100
AcDbVertex
100
AcDb2dVertex
 10
7.905638
 20
0.593424
 30
0.0
  0
VERTEX
  5
B3
100
AcDbEntity
  8
0
370
     0
390
0
100
AcDbVertex
100
AcDb2dVertex
 10
7.903945
 20
0.596951
 30
0.0
  0
VERTEX
  5
B4
100
AcDbEntity
  8
0
370
     0
390
0
100
AcDbVertex
100
AcDb2dVertex
 10
7.902151
 20
0.600546
 30
0.0
  0
VERTEX
  5
B5
100
AcDbEntity
  8
0
370
     0
390
0
100
AcDbVertex
100
AcDb2dVertex
 10
7.900255
 20
0.604209
 30
0.0
  0
SEQEND
  5
B6
100
AcDbEntity
  8
0
370
     0
390
0
  0
POLYLINE
  5
B7
100
AcDbEntity
  8
0
370
    13
390
0
 62
     7
 48
0.03937
100
AcDb2dPolyline
 66
     1
 10
0.0
 20
0.0
 30
0.0
 70
     1
 71
    22
  0
VERTEX
  5
B8
100
AcDbEntity
  8
0
370
     0
390
0
100
AcDbVertex
100
AcDb2dVertex
 10
8.036644
 20
0.598478
 30
0.0
  0
VERTEX
  5
B9
100
AcDbEntity
  8
0
370
     0
390
0
100
AcDbVertex
100
AcDb2dVertex
 10
8.035144
 20
0.596448
 30
0.0
  0
VERTEX
  5
BA
100
AcDbEntity
  8
0
370
     0
390
0
100
AcDbVertex
100
AcDb2dVertex
 10
8.033629
 20
0.594168
 30
0.0
  0
VERTEX
  5
BB
100
AcDbEntity
  8
0
370
     0
390
0
100
AcDbVertex
100
AcDb2dVertex
 10
8.032099
 20
0.591638
 30
0.0
  0
VERTEX
  5
BC
100
AcDbEntity
  8
0
370
     0
390
0
100
AcDbVertex
100
AcDb2dVertex
 10
8.030552
 20
0.588855
 30
0.0
  0
VERTEX
  5
BD
100
AcDbEntity
  8
0
370
     0
390
0
100
AcDbVertex
100
AcDb2dVertex
 10
8.028992
 20
0.585822
 30
0.0
  0
VERTEX
  5
BE
100
AcDbEntity
  8
0
370
     0
390
0
100
AcDbVertex
100
AcDb2dVertex
 10
8.027416
 20
0.582539
 30
0.0
  0
VERTEX
  5
BF
100
AcDbEntity
  8
0
370
     0
390
0
100
AcDbVertex
100
AcDb2dVertex
 10
8.025824
 20
0.579005
 30
0.0
  0
VERTEX
  5
C0
100
AcDbEntity
  8
0
370
     0
390
0
100
AcDbVertex
100
AcDb2dVertex
 10
8.024219
 20
0.575219
 30
0.0
  0
VERTEX
  5
C1
100
AcDbEntity
  8
0
370
     0
390
0
100
AcDbVertex
100
AcDb2dVertex
 10
8.022597
 20
0.571182
 30
0.0
  0
VERTEX
  5
C2
100
AcDbEntity
  8
0
370
     0
390
0
100
AcDbVertex
100
AcDb2dVertex
 10
8.020961
 20
0.566895
 30
0.0
  0
VERTEX
  5
C3
100
AcDbEntity
  8
0
370
     0
390
0
100
AcDbVertex
100
AcDb2dVertex
 10
8.018149
 20
0.567869
 30
0.0
  0
VERTEX
  5
C4
100
AcDbEntity
  8
0
370
     0
390
0
100
AcDbVertex
100
AcDb2dVertex
 10
8.020069
 20
0.573183
 30
0.0
  0
VERTEX
  5
C5
100
AcDbEntity
  8
0
370
     0
390
0
100
AcDbVertex
100
AcDb2dVertex
 10
8.021652
 20
0.577253
 30
0.0
  0
VERTEX
  5
C6
100
AcDbEntity
  8
0
370
     0
390
0
100
AcDbVertex
100
AcDb2dVertex
 10
8.023227
 20
0.581049
 30
0.0
  0
VERTEX
  5
C7
100
AcDbEntity
  8
0
370
     0
390
0
100
AcDbVertex
100
AcDb2dVertex
 10
8.024791
 20
0.584573
 30
0.0
  0
VERTEX
  5
C8
100
AcDbEntity
  8
0
370
     0
390
0
100
AcDbVertex
100
AcDb2dVertex
 10
8.026342
 20
0.587825
 30
0.0
  0
VERTEX
  5
C9
100
AcDbEntity
  8
0
370
     0
390
0
100
AcDbVertex
100
AcDb2dVertex
 10
8.027884
 20
0.590802
 30
0.0
  0
VERTEX
  5
CA
100
AcDbEntity
  8
0
370
     0
390
0
100
AcDbVertex
100
AcDb2dVertex
 10
8.029413
 20
0.593508
 30
0.0
  0
VERTEX
  5
CB
100
AcDbEntity
  8
0
370
     0
390
0
100
AcDbVertex
100
AcDb2dVertex
 10
8.030933
 20
0.595943
 30
0.0
  0
VERTEX
  5
CC
100
AcDbEntity
  8
0
370
     0
390
0
100
AcDbVertex
100
AcDb2dVertex
 10
8.032442
 20
0.598104
 30
0.0
  0
VERTEX
  5
CD
100
AcDbEntity
  8
0
370
     0
390
0
100
AcDbVertex
100
AcDb2dVertex
 10
8.03394
 20
0.599991
 30
0.0
  0
SEQEND
  5
CE
100
AcDbEntity
  8
0
370
     0
390
0
  0
POLYLINE
  5
CF
100
AcDbEntity
  8
0
370
    13
390
0
 62
     7
 48
0.03937
100
AcDb2dPolyline
 66
     1
 10
0.0
 20
0.0
 30
0.0
 70
     1
 71
    34
  0
VERTEX
  5
D0
100
AcDbEntity
  8
0
370
     0
390
0
100
AcDbVertex
100
AcDb2dVertex
 10
8.007766
 20
0.581604
 30
0.0
  0
VERTEX
  5
D1
100
AcDbEntity
  8
0
370
     0
390
0
100
AcDbVertex
100
AcDb2dVertex
 10
8.006072
 20
0.582632
 30
0.0
  0
VERTEX
  5
D2
100
AcDbEntity
  8
0
370
     0
390
0
100
AcDbVertex
100
AcDb2dVertex
 10
8.004322
 20
0.583551
 30
0.0
  0
VERTEX
  5
D3
100
AcDbEntity
  8
0
370
     0
390
0
100
AcDbVertex
100
AcDb2dVertex
 10
8.002516
 20
0.584363
 30
0.0
  0
VERTEX
  5
D4
100
AcDbEntity
  8
0
370
     0
390
0
100
AcDbVertex
100
AcDb2dVertex
 10
8.000652
 20
0.585066
 30
0.0
  0
VERTEX
  5
D5
100
AcDbEntity
  8
0
370
     0
390
0
100
AcDbVertex
100
AcDb2dVertex
 10
7.998734
 20
0.58566
 30
0.0
  0
VERTEX
  5
D6
100
AcDbEntity
  8
0
370
     0
390
0
100
AcDbVertex
100
AcDb2dVertex
 10
7.996758
 20
0.586148
 30
0.0
  0
VERTEX
  5
D7
100
AcDbEntity
  8
0
370
     0
390
0
100
AcDbVertex
100
AcDb2dVertex
 10
7.994728
 20
0.586526
 30
0.0
  0
VERTEX
  5
D8
100
AcDbEntity
  8
0
370
     0
390
0
100
AcDbVertex
100
AcDb2dVertex
 10
7.992641
 20
0.586796
 30
0.0
  0
VERTEX
  5
D9
100
AcDbEntity
  8
0
370
     0
390
0
100
AcDbVertex
100
AcDb2dVertex
 10
7.990496
 20
0.586959
 30
0.0
  0
VERTEX
  5
DA
100
AcDbEntity
  8
0
370
     0
390
0
100
AcDbVertex
100
AcDb2dVertex
 10
7.988297
 20
0.587013
 30
0.0
  0
VERTEX
  5
DB
100
AcDbEntity
  8
0
370
     0
390
0
100
AcDbVertex
100
AcDb2dVertex
 10
7.986785
 20
0.586983
 30
0.0
  0
VERTEX
  5
DC
100
AcDbEntity
  8
0
370
     0
390
0
100
AcDbVertex
100
AcDb2dVertex
 10
7.985234
 20
0.586896
 30
0.0
  0
VERTEX
  5
DD
100
AcDbEntity
  8
0
370
     0
390
0
100
AcDbVertex
100
AcDb2dVertex
 10
7.983644
 20
0.586751
 30
0.0
  0
VERTEX
  5
DE
100
AcDbEntity
  8
0
370
     0
390
0
100
AcDbVertex
100
AcDb2dVertex
 10
7.983538
 20
0.477987
 30
0.0
  0
VERTEX
  5
DF
100
AcDbEntity
  8
0
370
     0
390
0
100
AcDbVertex
100
AcDb2dVertex
 10
8.000735
 20
0.457653
 30
0.0
  0
VERTEX
  5
E0
100
AcDbEntity
  8
0
370
     0
390
0
100
AcDbVertex
100
AcDb2dVertex
 10
7.945466
 20
0.457653
 30
0.0
  0
VERTEX
  5
E1
100
AcDbEntity
  8
0
370
     0
390
0
100
AcDbVertex
100
AcDb2dVertex
 10
7.942978
 20
0.460574
 30
0.0
  0
VERTEX
  5
E2
100
AcDbEntity
  8
0
370
     0
390
0
100
AcDbVertex
100
AcDb2dVertex
 10
7.994786
 20
0.460574
 30
0.0
  0
VERTEX
  5
E3
100
AcDbEntity
  8
0
370
     0
390
0
100
AcDbVertex
100
AcDb2dVertex
 10
7.980293
 20
0.477123
 30
0.0
  0
VERTEX
  5
E4
100
AcDbEntity
  8
0
370
     0
390
0
100
AcDbVertex
100
AcDb2dVertex
 10
7.980293
 20
0.589826
 30
0.0
  0
VERTEX
  5
E5
100
AcDbEntity
  8
0
370
     0
390
0
100
AcDbVertex
100
AcDb2dVertex
 10
7.986134
 20
0.589934
 30
0.0
  0
VERTEX
  5
E6
100
AcDbEntity
  8
0
370
     0
390
0
100
AcDbVertex
100
AcDb2dVertex
 10
7.988171
 20
0.589916
 30
0.0
  0
VERTEX
  5
E7
100
AcDbEntity
  8
0
370
     0
390
0
100
AcDbVertex
100
AcDb2dVertex
 10
7.990086
 20
0.589866
 30
0.0
  0
VERTEX
  5
E8
100
AcDbEntity
  8
0
370
     0
390
0
100
AcDbVertex
100
AcDb2dVertex
 10
7.991879
 20
0.589782
 30
0.0
  0
VERTEX
  5
E9
100
AcDbEntity
  8
0
370
     0
390
0
100
AcDbVertex
100
AcDb2dVertex
 10
7.993549
 20
0.589665
 30
0.0
  0
VERTEX
  5
EA
100
AcDbEntity
  8
0
370
     0
390
0
100
AcDbVertex
100
AcDb2dVertex
 10
7.995098
 20
0.589514
 30
0.0
  0
VERTEX
  5
EB
100
AcDbEntity
  8
0
370
     0
390
0
100
AcDbVertex
100
AcDb2dVertex
 10
7.997828
 20
0.589112
 30
0.0
  0
VERTEX
  5
EC
100
AcDbEntity
  8
0
370
     0
390
0
100
AcDbVertex
100
AcDb2dVertex
 10
8.000069
 20
0.588575
 30
0.0
  0
VERTEX
  5
ED
100
AcDbEntity
  8
0
370
     0
390
0
100
AcDbVertex
100
AcDb2dVertex
 10
8.001862
 20
0.587888
 30
0.0
  0
VERTEX
  5
EE
100
AcDbEntity
  8
0
370
     0
390
0
100
AcDbVertex
100
AcDb2dVertex
 10
8.003455
 20
0.586953
 30
0.0
  0
VERTEX
  5
EF
100
AcDbEntity
  8
0
370
     0
390
0
100
AcDbVertex
100
AcDb2dVertex
 10
8.004886
 20
0.585755
 30
0.0
  0
VERTEX
  5
F0
100
AcDbEntity
  8
0
370
     0
390
0
100
AcDbVertex
100
AcDb2dVertex
 10
8.006157
 20
0.584294
 30
0.0
  0
VERTEX
  5
F1
100
AcDbEntity
  8
0
370
     0
390
0
100
AcDbVertex
100
AcDb2dVertex
 10
8.007269
 20
0.582567
 30
0.0
  0
SEQEND
  5
F2
100
AcDbEntity
  8
0
370
     0
390
0
  0
POLYLINE
  5
F3
100
AcDbEntity
  8
0
370
    13
390
0
 62
     7
 48
0.03937
100
AcDb2dPolyline
 66
     1
 10
0.0
 20
0.0
 30
0.0
 70
     1
 71
   138
  0
VERTEX
  5
F4
100
AcDbEntity
  8
0
370
     0
390
0
100
AcDbVertex
100
AcDb2dVertex
 10
8.03978
 20
0.605292
 30
0.0
  0
VERTEX
  5
F5
100
AcDbEntity
  8
0
370
     0
390
0
100
AcDbVertex
100
AcDb2dVertex
 10
8.152051
 20
0.605292
 30
0.0
  0
VERTEX
  5
F6
100
AcDbEntity
  8
0
370
     0
390
0
100
AcDbVertex
100
AcDb2dVertex
 10
8.150747
 20
0.603555
 30
0.0
  0
VERTEX
  5
F7
100
AcDbEntity
  8
0
370
     0
390
0
100
AcDbVertex
100
AcDb2dVertex
 10
8.149522
 20
0.601895
 30
0.0
  0
VERTEX
  5
F8
100
AcDbEntity
  8
0
370
     0
390
0
100
AcDbVertex
100
AcDb2dVertex
 10
8.148372
 20
0.600311
 30
0.0
  0
VERTEX
  5
F9
100
AcDbEntity
  8
0
370
     0
390
0
100
AcDbVertex
100
AcDb2dVertex
 10
8.1473
 20
0.598802
 30
0.0
  0
VERTEX
  5
FA
100
AcDbEntity
  8
0
370
     0
390
0
100
AcDbVertex
100
AcDb2dVertex
 10
8.146304
 20
0.597369
 30
0.0
  0
VERTEX
  5
FB
100
AcDbEntity
  8
0
370
     0
390
0
100
AcDbVertex
100
AcDb2dVertex
 10
8.145386
 20
0.596012
 30
0.0
  0
VERTEX
  5
FC
100
AcDbEntity
  8
0
370
     0
390
0
100
AcDbVertex
100
AcDb2dVertex
 10
8.144543
 20
0.594729
 30
0.0
  0
VERTEX
  5
FD
100
AcDbEntity
  8
0
370
     0
390
0
100
AcDbVertex
100
AcDb2dVertex
 10
8.143089
 20
0.592394
 30
0.0
  0
VERTEX
  5
FE
100
AcDbEntity
  8
0
370
     0
390
0
100
AcDbVertex
100
AcDb2dVertex
 10
8.14189
 20
0.590261
 30
0.0
  0
VERTEX
  5
FF
100
AcDbEntity
  8
0
370
     0
390
0
100
AcDbVertex
100
AcDb2dVertex
 10
8.140617
 20
0.587735
 30
0.0
  0
VERTEX
  5
100
100
AcDbEntity
  8
0
370
     0
390
0
100
AcDbVertex
100
AcDb2dVertex
 10
8.139935
 20
0.586286
 30
0.0
  0
VERTEX
  5
101
100
AcDbEntity
  8
0
370
     0
390
0
100
AcDbVertex
100
AcDb2dVertex
 10
8.13922
 20
0.584714
 30
0.0
  0
VERTEX
  5
102
100
AcDbEntity
  8
0
370
     0
390
0
100
AcDbVertex
100
AcDb2dVertex
 10
8.138474
 20
0.583019
 30
0.0
  0
VERTEX
  5
103
100
AcDbEntity
  8
0
370
     0
390
0
100
AcDbVertex
100
AcDb2dVertex
 10
8.137697
 20
0.581201
 30
0.0
  0
VERTEX
  5
104
100
AcDbEntity
  8
0
370
     0
390
0
100
AcDbVertex
100
AcDb2dVertex
 10
8.136889
 20
0.57926
 30
0.0
  0
VERTEX
  5
105
100
AcDbEntity
  8
0
370
     0
390
0
100
AcDbVertex
100
AcDb2dVertex
 10
8.136049
 20
0.577196
 30
0.0
  0
VERTEX
  5
106
100
AcDbEntity
  8
0
370
     0
390
0
100
AcDbVertex
100
AcDb2dVertex
 10
8.135177
 20
0.575007
 30
0.0
  0
VERTEX
  5
107
100
AcDbEntity
  8
0
370
     0
390
0
100
AcDbVertex
100
AcDb2dVertex
 10
8.134311
 20
0.572844
 30
0.0
  0
VERTEX
  5
108
100
AcDbEntity
  8
0
370
     0
390
0
100
AcDbVertex
100
AcDb2dVertex
 10
8.132887
 20
0.575682
 30
0.0
  0
VERTEX
  5
109
100
AcDbEntity
  8
0
370
     0
390
0
100
AcDbVertex
100
AcDb2dVertex
 10
8.131463
 20
0.578313
 30
0.0
  0
VERTEX
  5
10A
100
AcDbEntity
  8
0
370
     0
390
0
100
AcDbVertex
100
AcDb2dVertex
 10
8.130044
 20
0.580736
 30
0.0
  0
VERTEX
  5
10B
100
AcDbEntity
  8
0
370
     0
390
0
100
AcDbVertex
100
AcDb2dVertex
 10
8.128628
 20
0.582951
 30
0.0
  0
VERTEX
  5
10C
100
AcDbEntity
  8
0
370
     0
390
0
100
AcDbVertex
100
AcDb2dVertex
 10
8.127215
 20
0.584958
 30
0.0
  0
VERTEX
  5
10D
100
AcDbEntity
  8
0
370
     0
390
0
100
AcDbVertex
100
AcDb2dVertex
 10
8.125804
 20
0.586758
 30
0.0
  0
VERTEX
  5
10E
100
AcDbEntity
  8
0
370
     0
390
0
100
AcDbVertex
100
AcDb2dVertex
 10
8.124398
 20
0.58835
 30
0.0
  0
VERTEX
  5
10F
100
AcDbEntity
  8
0
370
     0
390
0
100
AcDbVertex
100
AcDb2dVertex
 10
8.122994
 20
0.589734
 30
0.0
  0
VERTEX
  5
110
100
AcDbEntity
  8
0
370
     0
390
0
100
AcDbVertex
100
AcDb2dVertex
 10
8.121594
 20
0.59091
 30
0.0
  0
VERTEX
  5
111
100
AcDbEntity
  8
0
370
     0
390
0
100
AcDbVertex
100
AcDb2dVertex
 10
8.120198
 20
0.591881
 30
0.0
  0
VERTEX
  5
112
100
AcDbEntity
  8
0
370
     0
390
0
100
AcDbVertex
100
AcDb2dVertex
 10
8.118707
 20
0.592701
 30
0.0
  0
VERTEX
  5
113
100
AcDbEntity
  8
0
370
     0
390
0
100
AcDbVertex
100
AcDb2dVertex
 10
8.117024
 20
0.593438
 30
0.0
  0
VERTEX
  5
114
100
AcDbEntity
  8
0
370
     0
390
0
100
AcDbVertex
100
AcDb2dVertex
 10
8.11515
 20
0.594086
 30
0.0
  0
VERTEX
  5
115
100
AcDbEntity
  8
0
370
     0
390
0
100
AcDbVertex
100
AcDb2dVertex
 10
8.113085
 20
0.594648
 30
0.0
  0
VERTEX
  5
116
100
AcDbEntity
  8
0
370
     0
390
0
100
AcDbVertex
100
AcDb2dVertex
 10
8.110827
 20
0.595125
 30
0.0
  0
VERTEX
  5
117
100
AcDbEntity
  8
0
370
     0
390
0
100
AcDbVertex
100
AcDb2dVertex
 10
8.108379
 20
0.595514
 30
0.0
  0
VERTEX
  5
118
100
AcDbEntity
  8
0
370
     0
390
0
100
AcDbVertex
100
AcDb2dVertex
 10
8.10574
 20
0.595817
 30
0.0
  0
VERTEX
  5
119
100
AcDbEntity
  8
0
370
     0
390
0
100
AcDbVertex
100
AcDb2dVertex
 10
8.102909
 20
0.596033
 30
0.0
  0
VERTEX
  5
11A
100
AcDbEntity
  8
0
370
     0
390
0
100
AcDbVertex
100
AcDb2dVertex
 10
8.099887
 20
0.596163
 30
0.0
  0
VERTEX
  5
11B
100
AcDbEntity
  8
0
370
     0
390
0
100
AcDbVertex
100
AcDb2dVertex
 10
8.096672
 20
0.596207
 30
0.0
  0
VERTEX
  5
11C
100
AcDbEntity
  8
0
370
     0
390
0
100
AcDbVertex
100
AcDb2dVertex
 10
8.090507
 20
0.596099
 30
0.0
  0
VERTEX
  5
11D
100
AcDbEntity
  8
0
370
     0
390
0
100
AcDbVertex
100
AcDb2dVertex
 10
8.080016
 20
0.596207
 30
0.0
  0
VERTEX
  5
11E
100
AcDbEntity
  8
0
370
     0
390
0
100
AcDbVertex
100
AcDb2dVertex
 10
8.076014
 20
0.596315
 30
0.0
  0
VERTEX
  5
11F
100
AcDbEntity
  8
0
370
     0
390
0
100
AcDbVertex
100
AcDb2dVertex
 10
8.076014
 20
0.545696
 30
0.0
  0
VERTEX
  5
120
100
AcDbEntity
  8
0
370
     0
390
0
100
AcDbVertex
100
AcDb2dVertex
 10
8.082612
 20
0.545696
 30
0.0
  0
VERTEX
  5
121
100
AcDbEntity
  8
0
370
     0
390
0
100
AcDbVertex
100
AcDb2dVertex
 10
8.082612
 20
0.590366
 30
0.0
  0
VERTEX
  5
122
100
AcDbEntity
  8
0
370
     0
390
0
100
AcDbVertex
100
AcDb2dVertex
 10
8.085749
 20
0.590474
 30
0.0
  0
VERTEX
  5
123
100
AcDbEntity
  8
0
370
     0
390
0
100
AcDbVertex
100
AcDb2dVertex
 10
8.088465
 20
0.590591
 30
0.0
  0
VERTEX
  5
124
100
AcDbEntity
  8
0
370
     0
390
0
100
AcDbVertex
100
AcDb2dVertex
 10
8.091251
 20
0.590682
 30
0.0
  0
VERTEX
  5
125
100
AcDbEntity
  8
0
370
     0
390
0
100
AcDbVertex
100
AcDb2dVertex
 10
8.094107
 20
0.590747
 30
0.0
  0
VERTEX
  5
126
100
AcDbEntity
  8
0
370
     0
390
0
100
AcDbVertex
100
AcDb2dVertex
 10
8.097032
 20
0.590786
 30
0.0
  0
VERTEX
  5
127
100
AcDbEntity
  8
0
370
     0
390
0
100
AcDbVertex
100
AcDb2dVertex
 10
8.100026
 20
0.590798
 30
0.0
  0
VERTEX
  5
128
100
AcDbEntity
  8
0
370
     0
390
0
100
AcDbVertex
100
AcDb2dVertex
 10
8.104273
 20
0.590684
 30
0.0
  0
VERTEX
  5
129
100
AcDbEntity
  8
0
370
     0
390
0
100
AcDbVertex
100
AcDb2dVertex
 10
8.108189
 20
0.59034
 30
0.0
  0
VERTEX
  5
12A
100
AcDbEntity
  8
0
370
     0
390
0
100
AcDbVertex
100
AcDb2dVertex
 10
8.111775
 20
0.589767
 30
0.0
  0
VERTEX
  5
12B
100
AcDbEntity
  8
0
370
     0
390
0
100
AcDbVertex
100
AcDb2dVertex
 10
8.115029
 20
0.588965
 30
0.0
  0
VERTEX
  5
12C
100
AcDbEntity
  8
0
370
     0
390
0
100
AcDbVertex
100
AcDb2dVertex
 10
8.117954
 20
0.587933
 30
0.0
  0
VERTEX
  5
12D
100
AcDbEntity
  8
0
370
     0
390
0
100
AcDbVertex
100
AcDb2dVertex
 10
8.120546
 20
0.586671
 30
0.0
  0
VERTEX
  5
12E
100
AcDbEntity
  8
0
370
     0
390
0
100
AcDbVertex
100
AcDb2dVertex
 10
8.122807
 20
0.58518
 30
0.0
  0
VERTEX
  5
12F
100
AcDbEntity
  8
0
370
     0
390
0
100
AcDbVertex
100
AcDb2dVertex
 10
8.124737
 20
0.583461
 30
0.0
  0
VERTEX
  5
130
100
AcDbEntity
  8
0
370
     0
390
0
100
AcDbVertex
100
AcDb2dVertex
 10
8.126338
 20
0.581511
 30
0.0
  0
VERTEX
  5
131
100
AcDbEntity
  8
0
370
     0
390
0
100
AcDbVertex
100
AcDb2dVertex
 10
8.127607
 20
0.579333
 30
0.0
  0
VERTEX
  5
132
100
AcDbEntity
  8
0
370
     0
390
0
100
AcDbVertex
100
AcDb2dVertex
 10
8.125449
 20
0.581235
 30
0.0
  0
VERTEX
  5
133
100
AcDbEntity
  8
0
370
     0
390
0
100
AcDbVertex
100
AcDb2dVertex
 10
8.123219
 20
0.582873
 30
0.0
  0
VERTEX
  5
134
100
AcDbEntity
  8
0
370
     0
390
0
100
AcDbVertex
100
AcDb2dVertex
 10
8.120915
 20
0.584246
 30
0.0
  0
VERTEX
  5
135
100
AcDbEntity
  8
0
370
     0
390
0
100
AcDbVertex
100
AcDb2dVertex
 10
8.118538
 20
0.585356
 30
0.0
  0
VERTEX
  5
136
100
AcDbEntity
  8
0
370
     0
390
0
100
AcDbVertex
100
AcDb2dVertex
 10
8.116087
 20
0.586202
 30
0.0
  0
VERTEX
  5
137
100
AcDbEntity
  8
0
370
     0
390
0
100
AcDbVertex
100
AcDb2dVertex
 10
8.113329
 20
0.586844
 30
0.0
  0
VERTEX
  5
138
100
AcDbEntity
  8
0
370
     0
390
0
100
AcDbVertex
100
AcDb2dVertex
 10
8.111747
 20
0.587112
 30
0.0
  0
VERTEX
  5
139
100
AcDbEntity
  8
0
370
     0
390
0
100
AcDbVertex
100
AcDb2dVertex
 10
8.110031
 20
0.587343
 30
0.0
  0
VERTEX
  5
13A
100
AcDbEntity
  8
0
370
     0
390
0
100
AcDbVertex
100
AcDb2dVertex
 10
8.108179
 20
0.58754
 30
0.0
  0
VERTEX
  5
13B
100
AcDbEntity
  8
0
370
     0
390
0
100
AcDbVertex
100
AcDb2dVertex
 10
8.106191
 20
0.5877
 30
0.0
  0
VERTEX
  5
13C
100
AcDbEntity
  8
0
370
     0
390
0
100
AcDbVertex
100
AcDb2dVertex
 10
8.104068
 20
0.587826
 30
0.0
  0
VERTEX
  5
13D
100
AcDbEntity
  8
0
370
     0
390
0
100
AcDbVertex
100
AcDb2dVertex
 10
8.101811
 20
0.587915
 30
0.0
  0
VERTEX
  5
13E
100
AcDbEntity
  8
0
370
     0
390
0
100
AcDbVertex
100
AcDb2dVertex
 10
8.099417
 20
0.587969
 30
0.0
  0
VERTEX
  5
13F
100
AcDbEntity
  8
0
370
     0
390
0
100
AcDbVertex
100
AcDb2dVertex
 10
8.09689
 20
0.587987
 30
0.0
  0
VERTEX
  5
140
100
AcDbEntity
  8
0
370
     0
390
0
100
AcDbVertex
100
AcDb2dVertex
 10
8.094938
 20
0.587964
 30
0.0
  0
VERTEX
  5
141
100
AcDbEntity
  8
0
370
     0
390
0
100
AcDbVertex
100
AcDb2dVertex
 10
8.092805
 20
0.5879
 30
0.0
  0
VERTEX
  5
142
100
AcDbEntity
  8
0
370
     0
390
0
100
AcDbVertex
100
AcDb2dVertex
 10
8.090491
 20
0.587792
 30
0.0
  0
VERTEX
  5
143
100
AcDbEntity
  8
0
370
     0
390
0
100
AcDbVertex
100
AcDb2dVertex
 10
8.087994
 20
0.58764
 30
0.0
  0
VERTEX
  5
144
100
AcDbEntity
  8
0
370
     0
390
0
100
AcDbVertex
100
AcDb2dVertex
 10
8.085316
 20
0.587445
 30
0.0
  0
VERTEX
  5
145
100
AcDbEntity
  8
0
370
     0
390
0
100
AcDbVertex
100
AcDb2dVertex
 10
8.085316
 20
0.545696
 30
0.0
  0
VERTEX
  5
146
100
AcDbEntity
  8
0
370
     0
390
0
100
AcDbVertex
100
AcDb2dVertex
 10
8.101647
 20
0.545696
 30
0.0
  0
VERTEX
  5
147
100
AcDbEntity
  8
0
370
     0
390
0
100
AcDbVertex
100
AcDb2dVertex
 10
8.118953
 20
0.563975
 30
0.0
  0
VERTEX
  5
148
100
AcDbEntity
  8
0
370
     0
390
0
100
AcDbVertex
100
AcDb2dVertex
 10
8.118953
 20
0.518655
 30
0.0
  0
VERTEX
  5
149
100
AcDbEntity
  8
0
370
     0
390
0
100
AcDbVertex
100
AcDb2dVertex
 10
8.100782
 20
0.53661
 30
0.0
  0
VERTEX
  5
14A
100
AcDbEntity
  8
0
370
     0
390
0
100
AcDbVertex
100
AcDb2dVertex
 10
8.076014
 20
0.53661
 30
0.0
  0
VERTEX
  5
14B
100
AcDbEntity
  8
0
370
     0
390
0
100
AcDbVertex
100
AcDb2dVertex
 10
8.076014
 20
0.482097
 30
0.0
  0
VERTEX
  5
14C
100
AcDbEntity
  8
0
370
     0
390
0
100
AcDbVertex
100
AcDb2dVertex
 10
8.089859
 20
0.468038
 30
0.0
  0
VERTEX
  5
14D
100
AcDbEntity
  8
0
370
     0
390
0
100
AcDbVertex
100
AcDb2dVertex
 10
8.036753
 20
0.468038
 30
0.0
  0
VERTEX
  5
14E
100
AcDbEntity
  8
0
370
     0
390
0
100
AcDbVertex
100
AcDb2dVertex
 10
8.054382
 20
0.482097
 30
0.0
  0
VERTEX
  5
14F
100
AcDbEntity
  8
0
370
     0
390
0
100
AcDbVertex
100
AcDb2dVertex
 10
8.054382
 20
0.528606
 30
0.0
  0
VERTEX
  5
150
100
AcDbEntity
  8
0
370
     0
390
0
100
AcDbVertex
100
AcDb2dVertex
 10
8.052737
 20
0.528543
 30
0.0
  0
VERTEX
  5
151
100
AcDbEntity
  8
0
370
     0
390
0
100
AcDbVertex
100
AcDb2dVertex
 10
8.051134
 20
0.528356
 30
0.0
  0
VERTEX
  5
152
100
AcDbEntity
  8
0
370
     0
390
0
100
AcDbVertex
100
AcDb2dVertex
 10
8.049571
 20
0.528042
 30
0.0
  0
VERTEX
  5
153
100
AcDbEntity
  8
0
370
     0
390
0
100
AcDbVertex
100
AcDb2dVertex
 10
8.048048
 20
0.527603
 30
0.0
  0
VERTEX
  5
154
100
AcDbEntity
  8
0
370
     0
390
0
100
AcDbVertex
100
AcDb2dVertex
 10
8.046567
 20
0.527039
 30
0.0
  0
VERTEX
  5
155
100
AcDbEntity
  8
0
370
     0
390
0
100
AcDbVertex
100
AcDb2dVertex
 10
8.045129
 20
0.526349
 30
0.0
  0
VERTEX
  5
156
100
AcDbEntity
  8
0
370
     0
390
0
100
AcDbVertex
100
AcDb2dVertex
 10
8.04373
 20
0.525533
 30
0.0
  0
VERTEX
  5
157
100
AcDbEntity
  8
0
370
     0
390
0
100
AcDbVertex
100
AcDb2dVertex
 10
8.042372
 20
0.524592
 30
0.0
  0
VERTEX
  5
158
100
AcDbEntity
  8
0
370
     0
390
0
100
AcDbVertex
100
AcDb2dVertex
 10
8.041057
 20
0.523526
 30
0.0
  0
VERTEX
  5
159
100
AcDbEntity
  8
0
370
     0
390
0
100
AcDbVertex
100
AcDb2dVertex
 10
8.03978
 20
0.522333
 30
0.0
  0
VERTEX
  5
15A
100
AcDbEntity
  8
0
370
     0
390
0
100
AcDbVertex
100
AcDb2dVertex
 10
8.037725
 20
0.524604
 30
0.0
  0
VERTEX
  5
15B
100
AcDbEntity
  8
0
370
     0
390
0
100
AcDbVertex
100
AcDb2dVertex
 10
8.039021
 20
0.52592
 30
0.0
  0
VERTEX
  5
15C
100
AcDbEntity
  8
0
370
     0
390
0
100
AcDbVertex
100
AcDb2dVertex
 10
8.0404
 20
0.527097
 30
0.0
  0
VERTEX
  5
15D
100
AcDbEntity
  8
0
370
     0
390
0
100
AcDbVertex
100
AcDb2dVertex
 10
8.041859
 20
0.528135
 30
0.0
  0
VERTEX
  5
15E
100
AcDbEntity
  8
0
370
     0
390
0
100
AcDbVertex
100
AcDb2dVertex
 10
8.043403
 20
0.529035
 30
0.0
  0
VERTEX
  5
15F
100
AcDbEntity
  8
0
370
     0
390
0
100
AcDbVertex
100
AcDb2dVertex
 10
8.045027
 20
0.529796
 30
0.0
  0
VERTEX
  5
160
100
AcDbEntity
  8
0
370
     0
390
0
100
AcDbVertex
100
AcDb2dVertex
 10
8.046733
 20
0.53042
 30
0.0
  0
VERTEX
  5
161
100
AcDbEntity
  8
0
370
     0
390
0
100
AcDbVertex
100
AcDb2dVertex
 10
8.048522
 20
0.530904
 30
0.0
  0
VERTEX
  5
162
100
AcDbEntity
  8
0
370
     0
390
0
100
AcDbVertex
100
AcDb2dVertex
 10
8.050394
 20
0.531249
 30
0.0
  0
VERTEX
  5
163
100
AcDbEntity
  8
0
370
     0
390
0
100
AcDbVertex
100
AcDb2dVertex
 10
8.052347
 20
0.531458
 30
0.0
  0
VERTEX
  5
164
100
AcDbEntity
  8
0
370
     0
390
0
100
AcDbVertex
100
AcDb2dVertex
 10
8.054382
 20
0.531527
 30
0.0
  0
VERTEX
  5
165
100
AcDbEntity
  8
0
370
     0
390
0
100
AcDbVertex
100
AcDb2dVertex
 10
8.054382
 20
0.53661
 30
0.0
  0
VERTEX
  5
166
100
AcDbEntity
  8
0
370
     0
390
0
100
AcDbVertex
100
AcDb2dVertex
 10
8.052773
 20
0.536748
 30
0.0
  0
VERTEX
  5
167
100
AcDbEntity
  8
0
370
     0
390
0
100
AcDbVertex
100
AcDb2dVertex
 10
8.051138
 20
0.536826
 30
0.0
  0
VERTEX
  5
168
100
AcDbEntity
  8
0
370
     0
390
0
100
AcDbVertex
100
AcDb2dVertex
 10
8.049152
 20
0.536744
 30
0.0
  0
VERTEX
  5
169
100
AcDbEntity
  8
0
370
     0
390
0
100
AcDbVertex
100
AcDb2dVertex
 10
8.047222
 20
0.536498
 30
0.0
  0
VERTEX
  5
16A
100
AcDbEntity
  8
0
370
     0
390
0
100
AcDbVertex
100
AcDb2dVertex
 10
8.045345
 20
0.536087
 30
0.0
  0
VERTEX
  5
16B
100
AcDbEntity
  8
0
370
     0
390
0
100
AcDbVertex
100
AcDb2dVertex
 10
8.043522
 20
0.535512
 30
0.0
  0
VERTEX
  5
16C
100
AcDbEntity
  8
0
370
     0
390
0
100
AcDbVertex
100
AcDb2dVertex
 10
8.041754
 20
0.534771
 30
0.0
  0
VERTEX
  5
16D
100
AcDbEntity
  8
0
370
     0
390
0
100
AcDbVertex
100
AcDb2dVertex
 10
8.04004
 20
0.533868
 30
0.0
  0
VERTEX
  5
16E
100
AcDbEntity
  8
0
370
     0
390
0
100
AcDbVertex
100
AcDb2dVertex
 10
8.038381
 20
0.532799
 30
0.0
  0
VERTEX
  5
16F
100
AcDbEntity
  8
0
370
     0
390
0
100
AcDbVertex
100
AcDb2dVertex
 10
8.036774
 20
0.531566
 30
0.0
  0
VERTEX
  5
170
100
AcDbEntity
  8
0
370
     0
390
0
100
AcDbVertex
100
AcDb2dVertex
 10
8.035222
 20
0.530168
 30
0.0
  0
VERTEX
  5
171
100
AcDbEntity
  8
0
370
     0
390
0
100
AcDbVertex
100
AcDb2dVertex
 10
8.033725
 20
0.528606
 30
0.0
  0
VERTEX
  5
172
100
AcDbEntity
  8
0
370
     0
390
0
100
AcDbVertex
100
AcDb2dVertex
 10
8.032967
 20
0.530337
 30
0.0
  0
VERTEX
  5
173
100
AcDbEntity
  8
0
370
     0
390
0
100
AcDbVertex
100
AcDb2dVertex
 10
8.034058
 20
0.533022
 30
0.0
  0
VERTEX
  5
174
100
AcDbEntity
  8
0
370
     0
390
0
100
AcDbVertex
100
AcDb2dVertex
 10
8.03538
 20
0.535451
 30
0.0
  0
VERTEX
  5
175
100
AcDbEntity
  8
0
370
     0
390
0
100
AcDbVertex
100
AcDb2dVertex
 10
8.036938
 20
0.537626
 30
0.0
  0
VERTEX
  5
176
100
AcDbEntity
  8
0
370
     0
390
0
100
AcDbVertex
100
AcDb2dVertex
 10
8.03873
 20
0.539544
 30
0.0
  0
VERTEX
  5
177
100
AcDbEntity
  8
0
370
     0
390
0
100
AcDbVertex
100
AcDb2dVertex
 10
8.040755
 20
0.541208
 30
0.0
  0
VERTEX
  5
178
100
AcDbEntity
  8
0
370
     0
390
0
100
AcDbVertex
100
AcDb2dVertex
 10
8.043013
 20
0.542615
 30
0.0
  0
VERTEX
  5
179
100
AcDbEntity
  8
0
370
     0
390
0
100
AcDbVertex
100
AcDb2dVertex
 10
8.045504
 20
0.543768
 30
0.0
  0
VERTEX
  5
17A
100
AcDbEntity
  8
0
370
     0
390
0
100
AcDbVertex
100
AcDb2dVertex
 10
8.048231
 20
0.544665
 30
0.0
  0
VERTEX
  5
17B
100
AcDbEntity
  8
0
370
     0
390
0
100
AcDbVertex
100
AcDb2dVertex
 10
8.051189
 20
0.545309
 30
0.0
  0
VERTEX
  5
17C
100
AcDbEntity
  8
0
370
     0
390
0
100
AcDbVertex
100
AcDb2dVertex
 10
8.054382
 20
0.545696
 30
0.0
  0
VERTEX
  5
17D
100
AcDbEntity
  8
0
370
     0
390
0
100
AcDbVertex
100
AcDb2dVertex
 10
8.054382
 20
0.591339
 30
0.0
  0
SEQEND
  5
17E
100
AcDbEntity
  8
0
370
     0
390
0
  0
POLYLINE
  5
17F
100
AcDbEntity
  8
0
370
    13
390
0
 62
     7
 48
0.03937
100
AcDb2dPolyline
 66
     1
 10
0.0
 20
0.0
 30
0.0
 70
     1
 71
    22
  0
VERTEX
  5
180
100
AcDbEntity
  8
0
370
     0
390
0
100
AcDbVertex
100
AcDb2dVertex
 10
8.160271
 20
0.598694
 30
0.0
  0
VERTEX
  5
181
100
AcDbEntity
  8
0
370
     0
390
0
100
AcDbVertex
100
AcDb2dVertex
 10
8.157292
 20
0.595112
 30
0.0
  0
VERTEX
  5
182
100
AcDbEntity
  8
0
370
     0
390
0
100
AcDbVertex
100
AcDb2dVertex
 10
8.154542
 20
0.59159
 30
0.0
  0
VERTEX
  5
183
100
AcDbEntity
  8
0
370
     0
390
0
100
AcDbVertex
100
AcDb2dVertex
 10
8.152022
 20
0.588129
 30
0.0
  0
VERTEX
  5
184
100
AcDbEntity
  8
0
370
     0
390
0
100
AcDbVertex
100
AcDb2dVertex
 10
8.149732
 20
0.584729
 30
0.0
  0
VERTEX
  5
185
100
AcDbEntity
  8
0
370
     0
390
0
100
AcDbVertex
100
AcDb2dVertex
 10
8.147671
 20
0.581388
 30
0.0
  0
VERTEX
  5
186
100
AcDbEntity
  8
0
370
     0
390
0
100
AcDbVertex
100
AcDb2dVertex
 10
8.145838
 20
0.578109
 30
0.0
  0
VERTEX
  5
187
100
AcDbEntity
  8
0
370
     0
390
0
100
AcDbVertex
100
AcDb2dVertex
 10
8.144234
 20
0.57489
 30
0.0
  0
VERTEX
  5
188
100
AcDbEntity
  8
0
370
     0
390
0
100
AcDbVertex
100
AcDb2dVertex
 10
8.142862
 20
0.571733
 30
0.0
  0
VERTEX
  5
189
100
AcDbEntity
  8
0
370
     0
390
0
100
AcDbVertex
100
AcDb2dVertex
 10
8.141717
 20
0.568634
 30
0.0
  0
VERTEX
  5
18A
100
AcDbEntity
  8
0
370
     0
390
0
100
AcDbVertex
100
AcDb2dVertex
 10
8.140802
 20
0.565596
 30
0.0
  0
VERTEX
  5
18B
100
AcDbEntity
  8
0
370
     0
390
0
100
AcDbVertex
100
AcDb2dVertex
 10
8.138531
 20
0.567111
 30
0.0
  0
VERTEX
  5
18C
100
AcDbEntity
  8
0
370
     0
390
0
100
AcDbVertex
100
AcDb2dVertex
 10
8.139469
 20
0.570503
 30
0.0
  0
VERTEX
  5
18D
100
AcDbEntity
  8
0
370
     0
390
0
100
AcDbVertex
100
AcDb2dVertex
 10
8.140637
 20
0.573882
 30
0.0
  0
VERTEX
  5
18E
100
AcDbEntity
  8
0
370
     0
390
0
100
AcDbVertex
100
AcDb2dVertex
 10
8.142038
 20
0.577251
 30
0.0
  0
VERTEX
  5
18F
100
AcDbEntity
  8
0
370
     0
390
0
100
AcDbVertex
100
AcDb2dVertex
 10
8.14367
 20
0.58061
 30
0.0
  0
VERTEX
  5
190
100
AcDbEntity
  8
0
370
     0
390
0
100
AcDbVertex
100
AcDb2dVertex
 10
8.145533
 20
0.583958
 30
0.0
  0
VERTEX
  5
191
100
AcDbEntity
  8
0
370
     0
390
0
100
AcDbVertex
100
AcDb2dVertex
 10
8.147629
 20
0.587294
 30
0.0
  0
VERTEX
  5
192
100
AcDbEntity
  8
0
370
     0
390
0
100
AcDbVertex
100
AcDb2dVertex
 10
8.149955
 20
0.590619
 30
0.0
  0
VERTEX
  5
193
100
AcDbEntity
  8
0
370
     0
390
0
100
AcDbVertex
100
AcDb2dVertex
 10
8.152513
 20
0.593936
 30
0.0
  0
VERTEX
  5
194
100
AcDbEntity
  8
0
370
     0
390
0
100
AcDbVertex
100
AcDb2dVertex
 10
8.155303
 20
0.597239
 30
0.0
  0
VERTEX
  5
195
100
AcDbEntity
  8
0
370
     0
390
0
100
AcDbVertex
100
AcDb2dVertex
 10
8.158324
 20
0.600533
 30
0.0
  0
SEQEND
  5
196
100
AcDbEntity
  8
0
370
     0
390
0
  0
POLYLINE
  5
197
100
AcDbEntity
  8
0
370
    13
390
0
 62
     7
 48
0.03937
100
AcDb2dPolyline
 66
     1
 10
0.0
 20
0.0
 30
0.0
 70
     1
 71
     4
  0
VERTEX
  5
198
100
AcDbEntity
  8
0
370
     0
390
0
100
AcDbVertex
100
AcDb2dVertex
 10
8.126849
 20
0.560189
 30
0.0
  0
VERTEX
  5
199
100
AcDbEntity
  8
0
370
     0
390
0
100
AcDbVertex
100
AcDb2dVertex
 10
8.126849
 20
0.513464
 30
0.0
  0
VERTEX
  5
19A
100
AcDbEntity
  8
0
370
     0
390
0
100
AcDbVertex
100
AcDb2dVertex
 10
8.124036
 20
0.515087
 30
0.0
  0
VERTEX
  5
19B
100
AcDbEntity
  8
0
370
     0
390
0
100
AcDbVertex
100
AcDb2dVertex
 10
8.124036
 20
0.561812
 30
0.0
  0
SEQEND
  5
19C
100
AcDbEntity
  8
0
370
     0
390
0
  0
POLYLINE
  5
19D
100
AcDbEntity
  8
0
370
    13
390
0
 62
     7
 48
0.03937
100
AcDb2dPolyline
 66
     1
 10
0.0
 20
0.0
 30
0.0
 70
     1
 71
    10
  0
VERTEX
  5
19E
100
AcDbEntity
  8
0
370
     0
390
0
100
AcDbVertex
100
AcDb2dVertex
 10
8.107488
 20
0.527525
 30
0.0
  0
VERTEX
  5
19F
100
AcDbEntity
  8
0
370
     0
390
0
100
AcDbVertex
100
AcDb2dVertex
 10
8.085316
 20
0.527525
 30
0.0
  0
VERTEX
  5
1A0
100
AcDbEntity
  8
0
370
     0
390
0
100
AcDbVertex
100
AcDb2dVertex
 10
8.085316
 20
0.481233
 30
0.0
  0
VERTEX
  5
1A1
100
AcDbEntity
  8
0
370
     0
390
0
100
AcDbVertex
100
AcDb2dVertex
 10
8.104352
 20
0.457653
 30
0.0
  0
VERTEX
  5
1A2
100
AcDbEntity
  8
0
370
     0
390
0
100
AcDbVertex
100
AcDb2dVertex
 10
8.041727
 20
0.457653
 30
0.0
  0
VERTEX
  5
1A3
100
AcDbEntity
  8
0
370
     0
390
0
100
AcDbVertex
100
AcDb2dVertex
 10
8.039024
 20
0.460574
 30
0.0
  0
VERTEX
  5
1A4
100
AcDbEntity
  8
0
370
     0
390
0
100
AcDbVertex
100
AcDb2dVertex
 10
8.098295
 20
0.460574
 30
0.0
  0
VERTEX
  5
1A5
100
AcDbEntity
  8
0
370
     0
390
0
100
AcDbVertex
100
AcDb2dVertex
 10
8.082612
 20
0.479934
 30
0.0
  0
VERTEX
  5
1A6
100
AcDbEntity
  8
0
370
     0
390
0
100
AcDbVertex
100
AcDb2dVertex
 10
8.082612
 20
0.530445
 30
0.0
  0
VERTEX
  5
1A7
100
AcDbEntity
  8
0
370
     0
390
0
100
AcDbVertex
100
AcDb2dVertex
 10
8.104352
 20
0.530445
 30
0.0
  0
SEQEND
  5
1A8
100
AcDbEntity
  8
0
370
     0
390
0
  0
POLYLINE
  5
1A9
100
AcDbEntity
  8
0
370
    35
390
0
 62
     7
 48
0.03937
100
AcDb2dPolyline
 66
     1
 10
0.0
 20
0.0
 30
0.0
 71
     2
  0
VERTEX
  5
1AA
100
AcDbEntity
  8
0
370
     0
390
0
100
AcDbVertex
100
AcDb2dVertex
 10
2.414093
 20
4.544841
 30
0.0
 42
0.241051
  0
VERTEX
  5
1AB
100
AcDbEntity
  8
0
370
     0
390
0
100
AcDbVertex
100
AcDb2dVertex
 10
2.501441
 20
4.718991
 30
0.0
  0
SEQEND
  5
1AC
100
AcDbEntity
  8
0
370
     0
390
0
  0
POLYLINE
  5
1AD
100
AcDbEntity
  8
0
370
    35
390
0
 62
     7
 48
0.03937
100
AcDb2dPolyline
 66
     1
 10
0.0
 20
0.0
 30
0.0
 71
     2
  0
VERTEX
  5
1AE
100
AcDbEntity
  8
0
370
     0
390
0
100
AcDbVertex
100
AcDb2dVertex
 10
2.501441
 20
4.718991
 30
0.0
 42
1.747581
  0
VERTEX
  5
1AF
100
AcDbEntity
  8
0
370
     0
390
0
100
AcDbVertex
100
AcDb2dVertex
 10
2.185145
 20
4.529615
 30
0.0
  0
SEQEND
  5
1B0
100
AcDbEntity
  8
0
370
     0
390
0
  0
SPLINE
  5
1B1
100
AcDbEntity
  8
0
370
    35
390
0
 62
     7
 48
0.03937
100
AcDbSpline
210
0.0
220
0.0
230
1.0
 70
     8
 71
     5
 72
    15
 73
     9
 74
     0
 42
0.0
 43
0.0
 40
0.0
 40
0.0
 40
0.0
 40
0.0
 40
0.0
 40
0.0
 40
8.2285506334759475
 40
8.2285506334759475
 40
8.2285506334759475
 40
13.664210617178593
 40
13.664210617178593
 40
13.664210617178593
 40
13.664210617178593
 40
13.664210617178593
 40
13.664210617178593
 10
2.507004305281618
 20
4.7157541454260663
 30
0.0
 10
2.5061705030018704
 20
4.691246073788645
 30
0.0
 10
2.5019132493303302
 20
4.6669270293685523
 30
0.0
 10
2.4942712828157219
 20
4.6433391164855085
 30
0.0
 10
2.4761945964537508
 20
4.6065630254364516
 30
0.0
 10
2.4506415893383329
 20
4.5754880249496033
 30
0.0
 10
2.439386074963517
 20
4.5641183995699439
 30
0.0
 10
2.4271450821141003
 20
4.5538651416058977
 30
0.0
 10
2.4140926210065032
 20
4.5448412390418449
 30
0.0
  0
POLYLINE
  5
1B2
100
AcDbEntity
  8
0
370
    35
390
0
 62
     7
 48
0.03937
100
AcDb2dPolyline
 66
     1
 10
0.0
 20
0.0
 30
0.0
 71
     2
  0
VERTEX
  5
1B3
100
AcDbEntity
  8
0
370
     0
390
0
100
AcDbVertex
100
AcDb2dVertex
 10
2.185145
 20
4.529615
 30
0.0
 42
0.291026
  0
VERTEX
  5
1B4
100
AcDbEntity
  8
0
370
     0
390
0
100
AcDbVertex
100
AcDb2dVertex
 10
2.414093
 20
4.544841
 30
0.0
  0
SEQEND
  5
1B5
100
AcDbEntity
  8
0
370
     0
390
0
  0
POLYLINE
  5
1B6
100
AcDbEntity
  8
0
370
    35
390
0
 62
     7
 48
0.03937
100
AcDb2dPolyline
 66
     1
 10
0.0
 20
0.0
 30
0.0
 71
     2
  0
VERTEX
  5
1B7
100
AcDbEntity
  8
0
370
     0
390
0
100
AcDbVertex
100
AcDb2dVertex
 10
2.389803
 20
4.529418
 30
0.0
 42
0.064243
  0
VERTEX
  5
1B8
100
AcDbEntity
  8
0
370
     0
390
0
100
AcDbVertex
100
AcDb2dVertex
 10
2.44223
 20
4.51886
 30
0.0
  0
SEQEND
  5
1B9
100
AcDbEntity
  8
0
370
     0
390
0
  0
SPLINE
  5
1BA
100
AcDbEntity
  8
0
370
    35
390
0
 62
     7
 48
0.03937
100
AcDbSpline
210
0.0
220
0.0
230
1.0
 70
     8
 71
     5
 72
    15
 73
     9
 74
     0
 42
0.0
 43
0.0
 40
0.0
 40
0.0
 40
0.0
 40
0.0
 40
0.0
 40
0.0
 40
11.175278735255169
 40
11.175278735255169
 40
11.175278735255169
 40
15.928112887179491
 40
15.928112887179491
 40
15.928112887179491
 40
15.928112887179491
 40
15.928112887179491
 40
15.928112887179491
 10
2.395900534878276
 20
4.9154003058386797
 30
0.0
 10
2.4253321135427952
 20
4.8982957671308718
 30
0.0
 10
2.4514217820022033
 20
4.8757110724074266
 30
0.0
 10
2.4728024505091741
 20
4.848508832781306
 30
0.0
 10
2.49512781473083
 20
4.8051116071012538
 30
0.0
 10
2.5050141540523385
 20
4.7582869549618767
 30
0.0
 10
2.5068253690502265
 20
4.7441290678781707
 30
0.0
 10
2.507485911835075
 20
4.7299100770195395
 30
0.0
 10
2.507004305281618
 20
4.7157541454260672
 30
0.0
  0
SPLINE
  5
1BB
100
AcDbEntity
  8
0
370
    35
390
0
 62
     7
 48
0.03937
100
AcDbSpline
210
0.0
220
0.0
230
1.0
 70
     8
 71
     5
 72
    36
 73
    30
 74
     0
 42
0.0
 43
0.0
 40
0.0
 40
0.0
 40
0.0
 40
0.0
 40
0.0
 40
0.0
 40
8.0569199115845755
 40
8.0569199115845755
 40
8.0569199115845755
 40
10.741942028651117
 40
10.741942028651117
 40
10.741942028651117
 40
17.018964215371842
 40
17.018964215371842
 40
17.018964215371842
 40
18.363679800590113
 40
18.363679800590113
 40
18.363679800590113
 40
19.708395385808377
 40
19.708395385808377
 40
19.708395385808377
 40
22.419704473485147
 40
22.419704473485147
 40
22.419704473485147
 40
27.054532321142069
 40
27.054532321142069
 40
27.054532321142069
 40
28.885310056076847
 40
28.885310056076847
 40
28.885310056076847
 40
31.06133280590349
 40
31.06133280590349
 40
31.06133280590349
 40
31.06133280590349
 40
31.06133280590349
 40
31.06133280590349
 10
2.0494955552563261
 20
4.7178624825200055
 30
0.0
 10
2.0502030470191097
 20
4.7434175743796754
 30
0.0
 10
2.0543388984909163
 20
4.7688133575325287
 30
0.0
 10
2.0618728089007363
 20
4.7935496862751048
 30
0.0
 10
2.076310242203264
 20
4.824721560842435
 30
0.0
 10
2.0956883243902631
 20
4.8523383790686587
 30
0.0
 10
2.1008342044093156
 20
4.8590141437680563
 30
0.0
 10
2.1189696767169117
 20
4.8804796344947308
 30
0.0
 10
2.1402885118516215
 20
4.899165691066627
 30
0.0
 10
2.1565736472462183
 20
4.9106164689497476
 30
0.0
 10
2.1776190719005979
 20
4.9222616665375822
 30
0.0
 10
2.1996552772951419
 20
4.9310168826489411
 30
0.0
 10
2.2035729976032492
 20
4.9324716687893
 30
0.0
 10
2.2114577222633103
 20
4.9351987265901291
 30
0.0
 10
2.2194437755960541
 20
4.9375630958725036
 30
0.0
 10
2.2234667897774583
 20
4.938655888224992
 30
0.0
 10
2.2356193631817733
 20
4.9416632026863256
 30
0.0
 10
2.2477839896598573
 20
4.9438095605045831
 30
0.0
 10
2.2558658679445327
 20
4.9448606151764309
 30
0.0
 10
2.2775368061576939
 20
4.9467312431322918
 30
0.0
 10
2.2988414627961649
 20
4.9460488995196865
 30
0.0
 10
2.3123460261733557
 20
4.9446676504096452
 30
0.0
 10
2.3313701811895382
 20
4.9412393994206587
 30
0.0
 10
2.3502803380652058
 20
4.9356608648684652
 30
0.0
 10
2.3556165894167322
 20
4.9339052414974018
 30
0.0
 10
2.3671355387506727
 20
4.9297159880010666
 30
0.0
 10
2.3783316665766989
 20
4.924765204614677
 30
0.0
 10
2.3843121389860871
 20
4.9218536325744351
 30
0.0
 10
2.3901696903727818
 20
4.9187308594861747
 30
0.0
 10
2.395900534878276
 20
4.9154003058386797
 30
0.0
  0
CIRCLE
  5
1BC
100
AcDbEntity
  8
0
370
    35
390
0
 62
     7
 48
0.03937
100
AcDbCircle
 10
2.287647
 20
4.717244
 30
0.0
 40
0.262091
210
0.0
220
0.0
230
1.0
  0
SPLINE
  5
1BD
100
AcDbEntity
  8
0
370
    35
390
0
 62
     7
 48
0.03937
100
AcDbSpline
210
0.0
220
0.0
230
1.0
 70
     8
 71
     5
 72
    18
 73
    12
 74
     0
 42
0.0
 43
0.0
 40
0.0
 40
0.0
 40
0.0
 40
0.0
 40
0.0
 40
0.0
 40
8.8787720784942259
 40
8.8787720784942259
 40
8.8787720784942259
 40
10.642393981410923
 40
10.642393981410923
 40
10.642393981410923
 40
17.63341343122854
 40
17.63341343122854
 40
17.63341343122854
 40
17.63341343122854
 40
17.63341343122854
 40
17.63341343122854
 10
2.442229517196576
 20
4.5188495763714096
 30
0.0
 10
2.4186843966327549
 20
4.5013862344299209
 30
0.0
 10
2.3926523588242641
 20
4.4873971547075531
 30
0.0
 10
2.3647406027742286
 20
4.4773112214806376
 30
0.0
 10
2.330036313483173
 20
4.4703597176761614
 30
0.0
 10
2.2952553910309366
 20
4.4695240439908943
 30
0.0
 10
2.2894862208244193
 20
4.4695531533283122
 30
0.0
 10
2.2609186277928739
 20
4.4705297946681801
 30
0.0
 10
2.2327872419737278
 20
4.4756039245638322
 30
0.0
 10
2.2109001591305271
 20
4.482208389629589
 30
0.0
 10
2.1899722013921741
 20
4.4912935153692146
 30
0.0
 10
2.1703962423216332
 20
4.5026174671202916
 30
0.0
  0
SPLINE
  5
1BE
100
AcDbEntity
  8
0
370
    35
390
0
 62
     7
 48
0.03937
100
AcDbSpline
210
0.0
220
0.0
230
1.0
 70
     8
 71
     5
 72
    15
 73
     9
 74
     0
 42
0.0
 43
0.0
 40
0.0
 40
0.0
 40
0.0
 40
0.0
 40
0.0
 40
0.0
 40
8.1128590015114632
 40
8.1128590015114632
 40
8.1128590015114632
 40
16.184472067795376
 40
16.184472067795376
 40
16.184472067795376
 40
16.184472067795376
 40
16.184472067795376
 40
16.184472067795376
 10
2.1703962423216332
 20
4.5026174671202916
 30
0.0
 10
2.1476789552508895
 20
4.5157585582810098
 30
0.0
 10
2.1267824152871726
 20
4.5319146315292134
 30
0.0
 10
2.1082778180098281
 20
4.5507305496942383
 30
0.0
 10
2.0769160088040448
 20
4.5925945564919823
 30
0.0
 10
2.0577279131769939
 20
4.6411787994299472
 30
0.0
 10
2.0515188663191668
 20
4.6664992162734471
 30
0.0
 10
2.0487867732517815
 20
4.692260786632227
 30
0.0
 10
2.0494955552563261
 20
4.7178624825200055
 30
0.0
  0
CIRCLE
  5
1BF
100
AcDbEntity
  8
0
370
    35
390
0
 62
     7
 48
0.03937
100
AcDbCircle
 10
3.283566
 20
5.713163
 30
0.0
 40
1.963771
210
0.0
220
0.0
230
1.0
  0
CIRCLE
  5
1C0
100
AcDbEntity
  8
0
370
    35
390
0
 62
     7
 48
0.03937
100
AcDbCircle
 10
4.279485
 20
4.717244
 30
0.0
 40
0.262091
210
0.0
220
0.0
230
1.0
  0
CIRCLE
  5
1C1
100
AcDbEntity
  8
0
370
    35
390
0
 62
     7
 48
0.03937
100
AcDbCircle
 10
4.279485
 20
6.709081
 30
0.0
 40
0.262091
210
0.0
220
0.0
230
1.0
  0
CIRCLE
  5
1C2
100
AcDbEntity
  8
0
370
    35
390
0
 62
     7
 48
0.03937
100
AcDbCircle
 10
2.287647
 20
6.709081
 30
0.0
 40
0.262091
210
0.0
220
0.0
230
1.0
  0
CIRCLE
  5
1C3
100
AcDbEntity
  8
0
370
    35
390
0
 62
     7
 48
0.03937
100
AcDbCircle
 10
3.283566
 20
5.713163
 30
0.0
 40
0.804824
210
0.0
220
0.0
230
1.0
  0
POLYLINE
  5
1C4
100
AcDbEntity
  8
0
370
    35
390
0
 62
     7
 48
0.03937
100
AcDb2dPolyline
 66
     1
 10
0.0
 20
0.0
 30
0.0
 71
     2
  0
VERTEX
  5
1C5
100
AcDbEntity
  8
0
370
     0
390
0
100
AcDbVertex
100
AcDb2dVertex
 10
4.467301
 20
4.819402
 30
0.0
 42
0.033674
  0
VERTEX
  5
1C6
100
AcDbEntity
  8
0
370
     0
390
0
100
AcDbVertex
100
AcDb2dVertex
 10
4.451887
 20
4.843689
 30
0.0
  0
SEQEND
  5
1C7
100
AcDbEntity
  8
0
370
     0
390
0
  0
SPLINE
  5
1C8
100
AcDbEntity
  8
0
370
    35
390
0
 62
     7
 48
0.03937
100
AcDbSpline
210
0.0
220
0.0
230
1.0
 70
     8
 71
     5
 72
    15
 73
     9
 74
     0
 42
0.0
 43
0.0
 40
0.0
 40
0.0
 40
0.0
 40
0.0
 40
0.0
 40
0.0
 40
8.2285506297738813
 40
8.2285506297738813
 40
8.2285506297738813
 40
13.664210641429154
 40
13.664210641429154
 40
13.664210641429154
 40
13.664210641429154
 40
13.664210641429154
 40
13.664210641429154
 10
4.2809744062433159
 20
4.9366009133609428
 30
0.0
 10
4.3054824778697123
 20
4.9357671110815708
 30
0.0
 10
4.3298015222788289
 20
4.9315098574136087
 30
0.0
 10
4.3533894349967195
 20
4.923867890916215
 30
0.0
 10
4.3901655258344219
 20
4.9057912047840224
 30
0.0
 10
4.421240526521375
 20
4.8802381976230746
 30
0.0
 10
4.4326101519939858
 20
4.8689826831687908
 30
0.0
 10
4.4428634100170799
 20
4.856741690260546
 30
0.0
 10
4.4518873126275382
 20
4.843689229085828
 30
0.0
  0
SPLINE
  5
1C9
100
AcDbEntity
  8
0
370
    35
390
0
 62
     7
 48
0.03937
100
AcDbSpline
210
0.0
220
0.0
230
1.0
 70
     8
 71
     5
 72
    15
 73
     9
 74
     0
 42
0.0
 43
0.0
 40
0.0
 40
0.0
 40
0.0
 40
0.0
 40
0.0
 40
0.0
 40
11.17527873516338
 40
11.17527873516338
 40
11.17527873516338
 40
15.92811288706962
 40
15.92811288706962
 40
15.92811288706962
 40
15.92811288706962
 40
15.92811288706962
 40
15.92811288706962
 10
4.0813282458307034
 20
4.8254971429576008
 30
0.0
 10
4.098432784538371
 20
4.8549287216218779
 30
0.0
 10
4.1210174792611456
 20
4.8810183900807695
 30
0.0
 10
4.1482197188883623
 20
4.90239905858928
 30
0.0
 10
4.1916169445684544
 20
4.9247244228099687
 30
0.0
 10
4.2384415967073785
 20
4.9346107621316841
 30
0.0
 10
4.2525994837912018
 20
4.9364219771294842
 30
0.0
 10
4.2668184746498969
 20
4.9370825199143979
 30
0.0
 10
4.2809744062433159
 20
4.9366009133609428
 30
0.0
  0
SPLINE
  5
1CA
100
AcDbEntity
  8
0
370
    35
390
0
 62
     7
 48
0.03937
100
AcDbSpline
210
0.0
220
0.0
230
1.0
 70
     8
 71
     5
 72
    18
 73
    12
 74
     0
 42
0.0
 43
0.0
 40
0.0
 40
0.0
 40
0.0
 40
0.0
 40
0.0
 40
0.0
 40
8.8787720543329094
 40
8.8787720543329094
 40
8.8787720543329094
 40
10.642393959403307
 40
10.642393959403307
 40
10.642393959403307
 40
17.633413432744774
 40
17.633413432744774
 40
17.633413432744774
 40
17.633413432744774
 40
17.633413432744774
 40
17.633413432744774
 10
4.4778789752979726
 20
4.8718261252759021
 30
0.0
 10
4.4953423171919393
 20
4.8482810047761529
 30
0.0
 10
4.5093313968855542
 20
4.8222489670452688
 30
0.0
 10
4.5194173300691194
 20
4.7943372111352334
 30
0.0
 10
4.5263688339137236
 20
4.7596329220387252
 30
0.0
 10
4.5272045076751972
 20
4.7248519996544518
 30
0.0
 10
4.5271753983503116
 20
4.7190828294413389
 30
0.0
 10
4.5261987570691096
 20
4.6905152363138471
 30
0.0
 10
4.5211246271946672
 20
4.6623838503135504
 30
0.0
 10
4.5145201621008919
 20
4.6404967673506912
 30
0.0
 10
4.5054350363382714
 20
4.6195688095373697
 30
0.0
 10
4.4941110845490906
 20
4.599992850400958
 30
0.0
  0
POLYLINE
  5
1CB
100
AcDbEntity
  8
0
370
    35
390
0
 62
     7
 48
0.03937
100
AcDb2dPolyline
 66
     1
 10
0.0
 20
0.0
 30
0.0
 71
     2
  0
VERTEX
  5
1CC
100
AcDbEntity
  8
0
370
     0
390
0
100
AcDbVertex
100
AcDb2dVertex
 10
4.46731
 20
4.819399
 30
0.0
 42
0.064243
  0
VERTEX
  5
1CD
100
AcDbEntity
  8
0
370
     0
390
0
100
AcDbVertex
100
AcDb2dVertex
 10
4.477868
 20
4.871827
 30
0.0
  0
SEQEND
  5
1CE
100
AcDbEntity
  8
0
370
     0
390
0
  0
SPLINE
  5
1CF
100
AcDbEntity
  8
0
370
    35
390
0
 62
     7
 48
0.03937
100
AcDbSpline
210
0.0
220
0.0
230
1.0
 70
     8
 71
     5
 72
    36
 73
    30
 74
     0
 42
0.0
 43
0.0
 40
0.0
 40
0.0
 40
0.0
 40
0.0
 40
0.0
 40
0.0
 40
8.0569199448606312
 40
8.0569199448606312
 40
8.0569199448606312
 40
10.741942100585197
 40
10.741942100585197
 40
10.741942100585197
 40
17.01896405956396
 40
17.01896405956396
 40
17.01896405956396
 40
18.363679558205181
 40
18.363679558205181
 40
18.363679558205181
 40
19.708395056846399
 40
19.708395056846399
 40
19.708395056846399
 40
22.419704280505844
 40
22.419704280505844
 40
22.419704280505844
 40
27.054549351619869
 40
27.054549351619869
 40
27.054549351619869
 40
28.885324155020502
 40
28.885324155020502
 40
28.885324155020502
 40
31.061407682219276
 40
31.061407682219276
 40
31.061407682219276
 40
31.061407682219276
 40
31.061407682219276
 40
31.061407682219276
 10
4.2788660691493767
 20
4.4790921633356513
 30
0.0
 10
4.2533109771841602
 20
4.479799655101357
 30
0.0
 10
4.2279151939271928
 20
4.4839355066044071
 30
0.0
 10
4.2031788653648636
 20
4.4914694170593785
 30
0.0
 10
4.1720069910466613
 20
4.5059068501515362
 30
0.0
 10
4.1443901726405228
 20
4.5252849324315978
 30
0.0
 10
4.1377144078710604
 20
4.5304308125055996
 30
0.0
 10
4.1162489175175825
 20
4.5485662844893398
 30
0.0
 10
4.0975628602303429
 20
4.5698851202867328
 30
0.0
 10
4.0861120819459851
 20
4.5861702563298072
 30
0.0
 10
4.0744668843208967
 20
4.6072156816583449
 30
0.0
 10
4.0657116685472401
 20
4.6292518866292731
 30
0.0
 10
4.0642568825061289
 20
4.6331696067375532
 30
0.0
 10
4.0615298249002176
 20
4.6410543309392835
 30
0.0
 10
4.0591654557838242
 20
4.649040383749619
 30
0.0
 10
4.058072663335583
 20
4.6530633984355596
 30
0.0
 10
4.0550653510784391
 20
4.6652159640569613
 30
0.0
 10
4.0529190014738363
 20
4.6773805426396677
 30
0.0
 10
4.0518679541381335
 20
4.6854623593720373
 30
0.0
 10
4.0499973276257473
 20
4.7071331049446066
 30
0.0
 10
4.0506796227034227
 20
4.7284374431506144
 30
0.0
 10
4.0520608040397077
 20
4.7419418502486659
 30
0.0
 10
4.055488953470868
 20
4.7609658951613127
 30
0.0
 10
4.0610674151380239
 20
4.7798760829555444
 30
0.0
 10
4.0628230145113928
 20
4.7852123341068165
 30
0.0
 10
4.0670122821820334
 20
4.7967314676851238
 30
0.0
 10
4.0719631031053556
 20
4.8079277735350843
 30
0.0
 10
4.0748747446539717
 20
4.8139084198568032
 30
0.0
 10
4.077997599159227
 20
4.8197661383868367
 30
0.0
 10
4.0813282458307034
 20
4.8254971429576008
 30
0.0
  0
SPLINE
  5
1D0
100
AcDbEntity
  8
0
370
    35
390
0
 62
     7
 48
0.03937
100
AcDbSpline
210
0.0
220
0.0
230
1.0
 70
     8
 71
     5
 72
    15
 73
     9
 74
     0
 42
0.0
 43
0.0
 40
0.0
 40
0.0
 40
0.0
 40
0.0
 40
0.0
 40
0.0
 40
8.112858885765954
 40
8.112858885765954
 40
8.112858885765954
 40
16.184472515161104
 40
16.184472515161104
 40
16.184472515161104
 40
16.184472515161104
 40
16.184472515161104
 40
16.184472515161104
 10
4.4941110845490906
 20
4.5999928504009571
 30
0.0
 10
4.4809699935758562
 20
4.577275563654319
 30
0.0
 10
4.4648139206009905
 20
4.5563790239629283
 30
0.0
 10
4.445998004523787
 20
4.5378744297253668
 30
0.0
 10
4.4041340061446057
 20
4.5065126232314405
 30
0.0
 10
4.3555497593201435
 20
4.4873245225750917
 30
0.0
 10
4.3302293389905318
 20
4.4811154747790489
 30
0.0
 10
4.3044677668232421
 20
4.4783833812816587
 30
0.0
 10
4.2788660691493776
 20
4.4790921633356504
 30
0.0
  0
POLYLINE
  5
1D1
100
AcDbEntity
  8
0
370
    35
390
0
 62
     7
 48
0.03937
100
AcDb2dPolyline
 66
     1
 10
0.0
 20
0.0
 30
0.0
 71
     2
  0
VERTEX
  5
1D2
100
AcDbEntity
  8
0
370
     0
390
0
100
AcDbVertex
100
AcDb2dVertex
 10
4.177327
 20
6.896897
 30
0.0
 42
0.033674
  0
VERTEX
  5
1D3
100
AcDbEntity
  8
0
370
     0
390
0
100
AcDbVertex
100
AcDb2dVertex
 10
4.153039
 20
6.881484
 30
0.0
  0
SEQEND
  5
1D4
100
AcDbEntity
  8
0
370
     0
390
0
  0
SPLINE
  5
1D5
100
AcDbEntity
  8
0
370
    35
390
0
 62
     7
 48
0.03937
100
AcDbSpline
210
0.0
220
0.0
230
1.0
 70
     8
 71
     5
 72
    15
 73
     9
 74
     0
 42
0.0
 43
0.0
 40
0.0
 40
0.0
 40
0.0
 40
0.0
 40
0.0
 40
0.0
 40
8.2285506286560501
 40
8.2285506286560501
 40
8.2285506286560501
 40
13.664210647414704
 40
13.664210647414704
 40
13.664210647414704
 40
13.664210647414704
 40
13.664210647414704
 40
13.664210647414704
 10
4.0601276383084404
 20
6.7105710143226398
 30
0.0
 10
4.0609614405876995
 20
6.7350790859457064
 30
0.0
 10
4.0652186942546402
 20
6.7593981303515456
 30
0.0
 10
4.0728606607478079
 20
6.7829860430289433
 30
0.0
 10
4.0909373468209154
 20
6.8197621338107757
 30
0.0
 10
4.1164903539927105
 20
6.8508371345490149
 30
0.0
 10
4.127745868468546
 20
6.8622067600465115
 30
0.0
 10
4.1399868613917796
 20
6.8724600180846114
 30
0.0
 10
4.1530393225835551
 20
6.881483920706863
 30
0.0
  0
SPLINE
  5
1D6
100
AcDbEntity
  8
0
370
    35
390
0
 62
     7
 48
0.03937
100
AcDbSpline
210
0.0
220
0.0
230
1.0
 70
     8
 71
     5
 72
    15
 73
     9
 74
     0
 42
0.0
 43
0.0
 40
0.0
 40
0.0
 40
0.0
 40
0.0
 40
0.0
 40
0.0
 40
11.175278735169616
 40
11.175278735169616
 40
11.175278735169616
 40
15.92811288702463
 40
15.92811288702463
 40
15.92811288702463
 40
15.92811288702463
 40
15.92811288702463
 40
15.92811288702463
 10
4.1712314087117814
 20
6.5109248539100282
 30
0.0
 10
4.1417998300474874
 20
6.5280293926177055
 30
0.0
 10
4.1157101615884741
 20
6.5506140873398913
 30
0.0
 10
4.0943294930807195
 20
6.5778163269678682
 30
0.0
 10
4.0720041288592288
 20
6.6212135526475393
 30
0.0
 10
4.0621177895379779
 20
6.6680382047864697
 30
0.0
 10
4.0603065745396707
 20
6.6821960918708712
 30
0.0
 10
4.0596460317549896
 20
6.6964150827293736
 30
0.0
 10
4.0601276383084404
 20
6.7105710143226398
 30
0.0
  0
SPLINE
  5
1D7
100
AcDbEntity
  8
0
370
    35
390
0
 62
     7
 48
0.03937
100
AcDbSpline
210
0.0
220
0.0
230
1.0
 70
     8
 71
     5
 72
    18
 73
    12
 74
     0
 42
0.0
 43
0.0
 40
0.0
 40
0.0
 40
0.0
 40
0.0
 40
0.0
 40
0.0
 40
8.8787720773058467
 40
8.8787720773058467
 40
8.8787720773058467
 40
10.642393990778514
 40
10.642393990778514
 40
10.642393990778514
 40
17.633413460528953
 40
17.633413460528953
 40
17.633413460528953
 40
17.633413460528953
 40
17.633413460528953
 40
17.633413460528953
 10
4.1249024263934801
 20
6.9074755833772965
 30
0.0
 10
4.1484475469541495
 20
6.9249389253164484
 30
0.0
 10
4.1744795847586849
 20
6.9389280050376154
 30
0.0
 10
4.2023913407271278
 20
6.9490139382077905
 30
0.0
 10
4.2370956298660287
 20
6.9559654420379733
 30
0.0
 10
4.271876552354704
 20
6.9568011157577923
 30
0.0
 10
4.2776457225980122
 20
6.9567720064243854
 30
0.0
 10
4.3062133157175397
 20
6.9557953650971491
 30
0.0
 10
4.3343447014901892
 20
6.9507212352055765
 30
0.0
 10
4.3562317843404497
 20
6.9441167701716999
 30
0.0
 10
4.3771597421420694
 20
6.9350316444117794
 30
0.0
 10
4.3967357012684252
 20
6.9237076926284153
 30
0.0
  0
POLYLINE
  5
1D8
100
AcDbEntity
  8
0
370
    35
390
0
 62
     7
 48
0.03937
100
AcDb2dPolyline
 66
     1
 10
0.0
 20
0.0
 30
0.0
 71
     2
  0
VERTEX
  5
1D9
100
AcDbEntity
  8
0
370
     0
390
0
100
AcDbVertex
100
AcDb2dVertex
 10
4.177329
 20
6.896907
 30
0.0
 42
0.064243
  0
VERTEX
  5
1DA
100
AcDbEntity
  8
0
370
     0
390
0
100
AcDbVertex
100
AcDb2dVertex
 10
4.124902
 20
6.907465
 30
0.0
  0
SEQEND
  5
1DB
100
AcDbEntity
  8
0
370
     0
390
0
  0
SPLINE
  5
1DC
100
AcDbEntity
  8
0
370
    35
390
0
 62
     7
 48
0.03937
100
AcDbSpline
210
0.0
220
0.0
230
1.0
 70
     8
 71
     5
 72
    36
 73
    30
 74
     0
 42
0.0
 43
0.0
 40
0.0
 40
0.0
 40
0.0
 40
0.0
 40
0.0
 40
0.0
 40
8.0569199394517295
 40
8.0569199394517295
 40
8.0569199394517295
 40
10.741942088192664
 40
10.741942088192664
 40
10.741942088192664
 40
17.018964026194961
 40
17.018964026194961
 40
17.018964026194961
 40
18.363679517522652
 40
18.363679517522652
 40
18.363679517522652
 40
19.708395008850339
 40
19.708395008850339
 40
19.708395008850339
 40
22.419703949520265
 40
22.419703949520265
 40
22.419703949520265
 40
27.054523311199901
 40
27.054523311199901
 40
27.054523311199901
 40
28.88530249250676
 40
28.88530249250676
 40
28.88530249250676
 40
31.061295488978711
 40
31.061295488978711
 40
31.061295488978711
 40
31.061295488978711
 40
31.061295488978711
 40
31.061295488978711
 10
4.5176363883337318
 20
6.7084626772287006
 30
0.0
 10
4.5169288965685013
 20
6.682907585280641
 30
0.0
 10
4.5127930450702873
 20
6.6575118020403865
 30
0.0
 10
4.5052591346250734
 20
6.6327754734527806
 30
0.0
 10
4.490821701494939
 20
6.6016035990867952
 30
0.0
 10
4.4714436192302127
 20
6.5739867807118442
 30
0.0
 10
4.4662977391732355
 20
6.5673110159642905
 30
0.0
 10
4.4481622672451664
 20
6.5458455256674037
 30
0.0
 10
4.4268434314214486
 20
6.5271594683314671
 30
0.0
 10
4.4105582953304836
 20
6.5157086900084016
 30
0.0
 10
4.389512869946067
 20
6.5040634923706371
 30
0.0
 10
4.3674766650163264
 20
6.4953082766179753
 30
0.0
 10
4.3635589449251535
 20
6.4938534905836152
 30
0.0
 10
4.3556742207627819
 20
6.4911264329910834
 30
0.0
 10
4.3476881679974753
 20
6.4887620638856651
 30
0.0
 10
4.3436651544726459
 20
6.4876692716873183
 30
0.0
 10
4.3315125778909191
 20
6.4846619562629071
 30
0.0
 10
4.31934792847761
 20
6.4825155944309634
 30
0.0
 10
4.3112660201207014
 20
6.4814645361125116
 30
0.0
 10
4.2895949873010295
 20
6.4795939072689075
 30
0.0
 10
4.2682901741549593
 20
6.4802762745494897
 30
0.0
 10
4.2547855338830098
 20
6.4816575568806973
 30
0.0
 10
4.2357613247150878
 20
6.4850858576393406
 30
0.0
 10
4.2168511830464164
 20
6.4906644278423542
 30
0.0
 10
4.2115149315692477
 20
6.4924200629686935
 30
0.0
 10
4.1999960723980978
 20
6.4966093095350894
 30
0.0
 10
4.188800031691553
 20
6.5015600745590083
 30
0.0
 10
4.1828196444201913
 20
6.5044716125713755
 30
0.0
 10
4.1769621748578709
 20
6.5075943458021044
 30
0.0
 10
4.1712314087117814
 20
6.5109248539100282
 30
0.0
  0
SPLINE
  5
1DD
100
AcDbEntity
  8
0
370
    35
390
0
 62
     7
 48
0.03937
100
AcDbSpline
210
0.0
220
0.0
230
1.0
 70
     8
 71
     5
 72
    15
 73
     9
 74
     0
 42
0.0
 43
0.0
 40
0.0
 40
0.0
 40
0.0
 40
0.0
 40
0.0
 40
0.0
 40
8.1128590736921407
 40
8.1128590736921407
 40
8.1128590736921407
 40
16.184471789991427
 40
16.184471789991427
 40
16.184471789991427
 40
16.184471789991427
 40
16.184471789991427
 40
16.184471789991427
 10
4.3967357012684252
 20
6.9237076926284153
 30
0.0
 10
4.4194529885412859
 20
6.9105666013507809
 30
0.0
 10
4.4403495286747221
 20
6.894410527931373
 30
0.0
 10
4.458854127837264
 20
6.8755946084728752
 30
0.0
 10
4.4902159387286318
 20
6.833730596445954
 30
0.0
 10
4.5094040312314236
 20
6.7851463559219374
 30
0.0
 10
4.5156130775080801
 20
6.7598259412413348
 30
0.0
 10
4.5183451703075441
 20
6.734064372006392
 30
0.0
 10
4.5176363883337327
 20
6.7084626772287015
 30
0.0
  0
POLYLINE
  5
1DE
100
AcDbEntity
  8
0
370
    35
390
0
 62
     7
 48
0.03937
100
AcDb2dPolyline
 66
     1
 10
0.0
 20
0.0
 30
0.0
 71
     2
  0
VERTEX
  5
1DF
100
AcDbEntity
  8
0
370
     0
390
0
100
AcDbVertex
100
AcDb2dVertex
 10
2.099831
 20
6.606923
 30
0.0
 42
0.033674
  0
VERTEX
  5
1E0
100
AcDbEntity
  8
0
370
     0
390
0
100
AcDbVertex
100
AcDb2dVertex
 10
2.115245
 20
6.582636
 30
0.0
  0
SEQEND
  5
1E1
100
AcDbEntity
  8
0
370
     0
390
0
  0
SPLINE
  5
1E2
100
AcDbEntity
  8
0
370
    35
390
0
 62
     7
 48
0.03937
100
AcDbSpline
210
0.0
220
0.0
230
1.0
 70
     8
 71
     5
 72
    15
 73
     9
 74
     0
 42
0.0
 43
0.0
 40
0.0
 40
0.0
 40
0.0
 40
0.0
 40
0.0
 40
0.0
 40
8.22855063115626
 40
8.22855063115626
 40
8.22855063115626
 40
13.66421063225436
 40
13.66421063225436
 40
13.66421063225436
 40
13.66421063225436
 40
13.66421063225436
 40
13.66421063225436
 10
2.286157537346742
 20
6.4897242463877651
 30
0.0
 10
2.2616494657162294
 20
6.4905580486672774
 30
0.0
 10
2.2373304213029988
 20
6.4948153023361055
 30
0.0
 10
2.2137425085221292
 20
6.5024572688408613
 30
0.0
 10
2.1769664176031429
 20
6.5205339550604
 30
0.0
 10
2.1458914169927699
 20
6.5460869622043987
 30
0.0
 10
2.1345217915562205
 20
6.5573424766274639
 30
0.0
 10
2.1242685335554534
 20
6.5695834695135096
 30
0.0
 10
2.1152446309625215
 20
6.5826359306628781
 30
0.0
  0
SPLINE
  5
1E3
100
AcDbEntity
  8
0
370
    35
390
0
 62
     7
 48
0.03937
100
AcDbSpline
210
0.0
220
0.0
230
1.0
 70
     8
 71
     5
 72
    15
 73
     9
 74
     0
 42
0.0
 43
0.0
 40
0.0
 40
0.0
 40
0.0
 40
0.0
 40
0.0
 40
0.0
 40
11.175278735567483
 40
11.175278735567483
 40
11.175278735567483
 40
15.928112887441385
 40
15.928112887441385
 40
15.928112887441385
 40
15.928112887441385
 40
15.928112887441385
 40
15.928112887441385
 10
2.4858036977593549
 20
6.6008280167911062
 30
0.0
 10
2.4686991590510687
 20
6.5713964381257641
 30
0.0
 10
2.4461144643264001
 20
6.5453067696664897
 30
0.0
 10
2.4189122247039236
 20
6.5239261011612761
 30
0.0
 10
2.3755149990228652
 20
6.5016007369387223
 30
0.0
 10
2.3286903468828162
 20
6.491714397617284
 30
0.0
 10
2.3145324597985448
 20
6.4899031826190026
 30
0.0
 10
2.3003134689400655
 20
6.4892426398343126
 30
0.0
 10
2.2861575373467424
 20
6.4897242463877651
 30
0.0
  0
SPLINE
  5
1E4
100
AcDbEntity
  8
0
370
    35
390
0
 62
     7
 48
0.03937
100
AcDbSpline
210
0.0
220
0.0
230
1.0
 70
     8
 71
     5
 72
    18
 73
    12
 74
     0
 42
0.0
 43
0.0
 40
0.0
 40
0.0
 40
0.0
 40
0.0
 40
0.0
 40
0.0
 40
8.8787720830368482
 40
8.8787720830368482
 40
8.8787720830368482
 40
10.642393982223661
 40
10.642393982223661
 40
10.642393982223661
 40
17.633413421705125
 40
17.633413421705125
 40
17.633413421705125
 40
17.633413421705125
 40
17.633413421705125
 40
17.633413421705125
 10
2.0892529682920826
 20
6.5544990344728093
 30
0.0
 10
2.0717896263416598
 20
6.5780441550486772
 30
0.0
 10
2.0578005466141214
 20
6.604076192871899
 30
0.0
 10
2.0477146133604931
 20
6.6319879489723625
 30
0.0
 10
2.0407631095722043
 20
6.6666922383455409
 30
0.0
 10
2.0399274359109625
 20
6.7014731607978364
 30
0.0
 10
2.0399565452518789
 20
6.7072423309915106
 30
0.0
 10
2.04093318660584
 20
6.7358099239787874
 30
0.0
 10
2.0460073165069335
 20
6.7639413097813561
 30
0.0
 10
2.0526117815771712
 20
6.7858283926007825
 30
0.0
 10
2.0616969073066325
 20
6.8067563503061512
 30
0.0
 10
2.0730208590409669
 20
6.8263323093477508
 30
0.0
  0
POLYLINE
  5
1E5
100
AcDbEntity
  8
0
370
    35
390
0
 62
     7
 48
0.03937
100
AcDb2dPolyline
 66
     1
 10
0.0
 20
0.0
 30
0.0
 71
     2
  0
VERTEX
  5
1E6
100
AcDbEntity
  8
0
370
     0
390
0
100
AcDbVertex
100
AcDb2dVertex
 10
2.099821
 20
6.606926
 30
0.0
 42
0.064243
  0
VERTEX
  5
1E7
100
AcDbEntity
  8
0
370
     0
390
0
100
AcDbVertex
100
AcDb2dVertex
 10
2.089264
 20
6.554498
 30
0.0
  0
SEQEND
  5
1E8
100
AcDbEntity
  8
0
370
     0
390
0
  0
SPLINE
  5
1E9
100
AcDbEntity
  8
0
370
    35
390
0
 62
     7
 48
0.03937
100
AcDbSpline
210
0.0
220
0.0
230
1.0
 70
     8
 71
     5
 72
    36
 73
    30
 74
     0
 42
0.0
 43
0.0
 40
0.0
 40
0.0
 40
0.0
 40
0.0
 40
0.0
 40
0.0
 40
8.0569199593968133
 40
8.0569199593968133
 40
8.0569199593968133
 40
10.741942129234619
 40
10.741942129234619
 40
10.741942129234619
 40
17.018963912970818
 40
17.018963912970818
 40
17.018963912970818
 40
18.363679346051935
 40
18.363679346051935
 40
18.363679346051935
 40
19.708394779133048
 40
19.708394779133048
 40
19.708394779133048
 40
22.419703675528908
 40
22.419703675528908
 40
22.419703675528908
 40
27.054522100236404
 40
27.054522100236404
 40
27.054522100236404
 40
28.885301442541792
 40
28.885301442541792
 40
28.885301442541792
 40
31.061291213394657
 40
31.061291213394657
 40
31.061291213394657
 40
31.061291213394657
 40
31.061291213394657
 40
31.061291213394657
 10
2.2882658744406821
 20
6.9472329964130566
 30
0.0
 10
2.313820966452004
 20
6.9465255046460745
 30
0.0
 10
2.3392167497547316
 20
6.9423896531296654
 30
0.0
 10
2.3639530782576608
 20
6.9348557426531681
 30
0.0
 10
2.3951249524906291
 20
6.920418309631172
 30
0.0
 10
2.4227417709652896
 20
6.9010402273084566
 30
0.0
 10
2.4294175357458783
 20
6.8958943472239138
 30
0.0
 10
2.4508830257760805
 20
6.8777588755240036
 30
0.0
 10
2.4695690835849251
 20
6.8564400392670235
 30
0.0
 10
2.4810198621782376
 20
6.8401549027386395
 30
0.0
 10
2.4926650598420497
 20
6.8191094769003806
 30
0.0
 10
2.5014202753673591
 20
6.7970732722577107
 30
0.0
 10
2.5028750613351405
 20
6.7931555523009068
 30
0.0
 10
2.5056021187967579
 20
6.7852708284468433
 30
0.0
 10
2.5079664877907675
 20
6.7772847760330919
 30
0.0
 10
2.5090592799339388
 20
6.7732617627237364
 30
0.0
 10
2.5120665954199461
 20
6.761109186020966
 30
0.0
 10
2.5142129576819379
 20
6.7489445343047905
 30
0.0
 10
2.5152640164134996
 20
6.7408626227129815
 30
0.0
 10
2.5171346454146368
 20
6.7191915795395323
 30
0.0
 10
2.5164522755995722
 20
6.697886749222266
 30
0.0
 10
2.5150709896539216
 20
6.6843821004876869
 30
0.0
 10
2.5116426834830148
 20
6.6653578853604527
 30
0.0
 10
2.5060641094238241
 20
6.6464477453588664
 30
0.0
 10
2.5043084730203811
 20
6.6411114938573581
 30
0.0
 10
2.5001192272015631
 20
6.6295926444485733
 30
0.0
 10
2.4951684641633198
 20
6.6183966131750465
 30
0.0
 10
2.4922569298399346
 20
6.6124162351336837
 30
0.0
 10
2.4891342009302448
 20
6.6065587744420995
 30
0.0
 10
2.4858036977593545
 20
6.6008280167911062
 30
0.0
  0
SPLINE
  5
1EA
100
AcDbEntity
  8
0
370
    35
390
0
 62
     7
 48
0.03937
100
AcDbSpline
210
0.0
220
0.0
230
1.0
 70
     8
 71
     5
 72
    15
 73
     9
 74
     0
 42
0.0
 43
0.0
 40
0.0
 40
0.0
 40
0.0
 40
0.0
 40
0.0
 40
0.0
 40
8.1128591675766479
 40
8.1128591675766479
 40
8.1128591675766479
 40
16.184471427785084
 40
16.184471427785084
 40
16.184471427785084
 40
16.184471427785084
 40
16.184471427785084
 40
16.184471427785084
 10
2.0730208590409669
 20
6.8263323093477508
 30
0.0
 10
2.0861619504706752
 20
6.8490495968835026
 30
0.0
 10
2.1023180241119932
 20
6.8699461372376307
 30
0.0
 10
2.1211339452583649
 20
6.888450738858749
 30
0.0
 10
2.162997964099199
 20
6.919812551945558
 30
0.0
 10
2.2115822014769431
 20
6.9390006403773974
 30
0.0
 10
2.2369026133391614
 20
6.9452096858965726
 30
0.0
 10
2.2626641811096282
 20
6.9479417783468191
 30
0.0
 10
2.2882658744406807
 20
6.9472329964130566
 30
0.0
  0
CIRCLE
  5
1EB
100
AcDbEntity
  8
0
370
    35
390
0
 62
     7
 48
0.03937
100
AcDbCircle
 10
3.283566
 20
5.713163
 30
0.0
 40
0.402412
210
0.0
220
0.0
230
1.0
  0
POLYLINE
  5
1EC
100
AcDbEntity
  8
0
370
    35
390
0
 62
     7
 48
0.03937
100
AcDb2dPolyline
 66
     1
 10
0.0
 20
0.0
 30
0.0
 71
     2
  0
VERTEX
  5
1ED
100
AcDbEntity
  8
0
370
     0
390
0
100
AcDbVertex
100
AcDb2dVertex
 10
2.2859
 20
6.922876
 30
0.0
 42
0.566203
  0
VERTEX
  5
1EE
100
AcDbEntity
  8
0
370
     0
390
0
100
AcDbVertex
100
AcDb2dVertex
 10
2.099831
 20
6.606923
 30
0.0
  0
SEQEND
  5
1EF
100
AcDbEntity
  8
0
370
     0
390
0
  0
POLYLINE
  5
1F0
100
AcDbEntity
  8
0
370
    35
390
0
 62
     7
 48
0.03937
100
AcDb2dPolyline
 66
     1
 10
0.0
 20
0.0
 30
0.0
 71
     2
  0
VERTEX
  5
1F1
100
AcDbEntity
  8
0
370
     0
390
0
100
AcDbVertex
100
AcDb2dVertex
 10
4.493279
 20
6.710829
 30
0.0
 42
0.566203
  0
VERTEX
  5
1F2
100
AcDbEntity
  8
0
370
     0
390
0
100
AcDbVertex
100
AcDb2dVertex
 10
4.177327
 20
6.896897
 30
0.0
  0
SEQEND
  5
1F3
100
AcDbEntity
  8
0
370
     0
390
0
  0
POLYLINE
  5
1F4
100
AcDbEntity
  8
0
370
    35
390
0
 62
     7
 48
0.03937
100
AcDb2dPolyline
 66
     1
 10
0.0
 20
0.0
 30
0.0
 71
     2
  0
VERTEX
  5
1F5
100
AcDbEntity
  8
0
370
     0
390
0
100
AcDbVertex
100
AcDb2dVertex
 10
4.281232
 20
4.503449
 30
0.0
 42
0.566203
  0
VERTEX
  5
1F6
100
AcDbEntity
  8
0
370
     0
390
0
100
AcDbVertex
100
AcDb2dVertex
 10
4.467301
 20
4.819402
 30
0.0
  0
SEQEND
  5
1F7
100
AcDbEntity
  8
0
370
     0
390
0
  0
POLYLINE
  5
1F8
100
AcDbEntity
  8
0
370
    35
390
0
 62
     7
 48
0.03937
100
AcDb2dPolyline
 66
     1
 10
0.0
 20
0.0
 30
0.0
 71
     2
  0
VERTEX
  5
1F9
100
AcDbEntity
  8
0
370
     0
390
0
100
AcDbVertex
100
AcDb2dVertex
 10
4.451889
 20
4.843687
 30
0.0
 42
0.241055
  0
VERTEX
  5
1FA
100
AcDbEntity
  8
0
370
     0
390
0
100
AcDbVertex
100
AcDb2dVertex
 10
4.277738
 20
4.931038
 30
0.0
  0
SEQEND
  5
1FB
100
AcDbEntity
  8
0
370
     0
390
0
  0
POLYLINE
  5
1FC
100
AcDbEntity
  8
0
370
    35
390
0
 62
     7
 48
0.03937
100
AcDb2dPolyline
 66
     1
 10
0.0
 20
0.0
 30
0.0
 71
     2
  0
VERTEX
  5
1FD
100
AcDbEntity
  8
0
370
     0
390
0
100
AcDbVertex
100
AcDb2dVertex
 10
4.277738
 20
4.931038
 30
0.0
 42
1.0
  0
VERTEX
  5
1FE
100
AcDbEntity
  8
0
370
     0
390
0
100
AcDbVertex
100
AcDb2dVertex
 10
4.281232
 20
4.503449
 30
0.0
  0
SEQEND
  5
1FF
100
AcDbEntity
  8
0
370
     0
390
0
  0
POLYLINE
  5
200
100
AcDbEntity
  8
0
370
    35
390
0
 62
     7
 48
0.03937
100
AcDb2dPolyline
 66
     1
 10
0.0
 20
0.0
 30
0.0
 71
     2
  0
VERTEX
  5
201
100
AcDbEntity
  8
0
370
     0
390
0
100
AcDbVertex
100
AcDb2dVertex
 10
4.15304
 20
6.881484
 30
0.0
 42
0.241052
  0
VERTEX
  5
202
100
AcDbEntity
  8
0
370
     0
390
0
100
AcDbVertex
100
AcDb2dVertex
 10
4.065691
 20
6.707334
 30
0.0
  0
SEQEND
  5
203
100
AcDbEntity
  8
0
370
     0
390
0
  0
POLYLINE
  5
204
100
AcDbEntity
  8
0
370
    35
390
0
 62
     7
 48
0.03937
100
AcDb2dPolyline
 66
     1
 10
0.0
 20
0.0
 30
0.0
 71
     2
  0
VERTEX
  5
205
100
AcDbEntity
  8
0
370
     0
390
0
100
AcDbVertex
100
AcDb2dVertex
 10
4.065691
 20
6.707334
 30
0.0
 42
1.0
  0
VERTEX
  5
206
100
AcDbEntity
  8
0
370
     0
390
0
100
AcDbVertex
100
AcDb2dVertex
 10
4.493279
 20
6.710829
 30
0.0
  0
SEQEND
  5
207
100
AcDbEntity
  8
0
370
     0
390
0
  0
POLYLINE
  5
208
100
AcDbEntity
  8
0
370
    35
390
0
 62
     7
 48
0.03937
100
AcDb2dPolyline
 66
     1
 10
0.0
 20
0.0
 30
0.0
 71
     2
  0
VERTEX
  5
209
100
AcDbEntity
  8
0
370
     0
390
0
100
AcDbVertex
100
AcDb2dVertex
 10
2.115246
 20
6.582634
 30
0.0
 42
0.241048
  0
VERTEX
  5
20A
100
AcDbEntity
  8
0
370
     0
390
0
100
AcDbVertex
100
AcDb2dVertex
 10
2.289394
 20
6.495287
 30
0.0
  0
SEQEND
  5
20B
100
AcDbEntity
  8
0
370
     0
390
0
  0
POLYLINE
  5
20C
100
AcDbEntity
  8
0
370
    35
390
0
 62
     7
 48
0.03937
100
AcDb2dPolyline
 66
     1
 10
0.0
 20
0.0
 30
0.0
 71
     2
  0
VERTEX
  5
20D
100
AcDbEntity
  8
0
370
     0
390
0
100
AcDbVertex
100
AcDb2dVertex
 10
2.289394
 20
6.495287
 30
0.0
 42
1.0
  0
VERTEX
  5
20E
100
AcDbEntity
  8
0
370
     0
390
0
100
AcDbVertex
100
AcDb2dVertex
 10
2.2859
 20
6.922876
 30
0.0
  0
SEQEND
  5
20F
100
AcDbEntity
  8
0
370
     0
390
0
  0
LINE
  5
210
100
AcDbEntity
  8
0
370
    35
390
0
 62
     7
 48
0.03937
100
AcDbLine
 10
2.881154
 20
1.184933
 30
0.0
 11
2.881154
 21
2.794581
 31
0.0
210
0.0
220
0.0
230
1.0
  0
LINE
  5
211
100
AcDbEntity
  8
0
370
    35
390
0
 62
     7
 48
0.01006
100
AcDbLine
 10
2.881154
 20
2.794581
 30
0.0
 11
2.478742
 21
2.794581
 31
0.0
210
0.0
220
0.0
230
1.0
  0
LINE
  5
212
100
AcDbEntity
  8
0
370
    35
390
0
 62
     7
 48
0.00503
100
AcDbLine
 10
2.478742
 20
2.593375
 30
0.0
 11
2.478742
 21
2.794581
 31
0.0
210
0.0
220
0.0
230
1.0
  0
LINE
  5
213
100
AcDbEntity
  8
0
370
    35
390
0
 62
     7
 48
0.03937
100
AcDbLine
 10
2.478742
 20
2.593375
 30
0.0
 11
1.319795
 21
2.593375
 31
0.0
210
0.0
220
0.0
230
1.0
  0
LINE
  5
214
100
AcDbEntity
  8
0
370
    35
390
0
 62
     7
 48
0.03937
100
AcDbLine
 10
1.319795
 20
1.184933
 30
0.0
 11
1.319795
 21
2.593375
 31
0.0
210
0.0
220
0.0
230
1.0
  0
LINE
  5
215
100
AcDbEntity
  8
0
370
    35
390
0
 62
     7
 48
0.03937
100
AcDbLine
 10
2.881154
 20
1.184933
 30
0.0
 11
1.319795
 21
1.184933
 31
0.0
210
0.0
220
0.0
230
1.0
  0
LINE
  5
216
100
AcDbEntity
  8
0
370
    35
390
0
 62
     7
 48
0.03937
100
AcDbLine
 10
5.247337
 20
1.184933
 30
0.0
 11
3.685978
 21
1.184933
 31
0.0
210
0.0
220
0.0
230
1.0
  0
LINE
  5
217
100
AcDbEntity
  8
0
370
    35
390
0
 62
     7
 48
0.03937
100
AcDbLine
 10
5.247337
 20
1.184933
 30
0.0
 11
5.247337
 21
2.593375
 31
0.0
210
0.0
220
0.0
230
1.0
  0
LINE
  5
218
100
AcDbEntity
  8
0
370
    35
390
0
 62
     7
 48
0.03937
100
AcDbLine
 10
5.247337
 20
2.593375
 30
0.0
 11
4.08839
 21
2.593375
 31
0.0
210
0.0
220
0.0
230
1.0
  0
LINE
  5
219
100
AcDbEntity
  8
0
370
    35
390
0
 62
     7
 48
0.00503
100
AcDbLine
 10
4.08839
 20
2.593375
 30
0.0
 11
4.08839
 21
2.794581
 31
0.0
210
0.0
220
0.0
230
1.0
  0
LINE
  5
21A
100
AcDbEntity
  8
0
370
    35
390
0
 62
     7
 48
0.01006
100
AcDbLine
 10
4.08839
 20
2.794581
 30
0.0
 11
3.685978
 21
2.794581
 31
0.0
210
0.0
220
0.0
230
1.0
  0
LINE
  5
21B
100
AcDbEntity
  8
0
370
    35
390
0
 62
     7
 48
0.03937
100
AcDbLine
 10
3.685978
 20
1.184933
 30
0.0
 11
3.685978
 21
2.794581
 31
0.0
210
0.0
220
0.0
230
1.0
  0
POLYLINE
  5
21C
100
AcDbEntity
  8
0
370
    35
390
0
 62
     7
 48
0.03937
100
AcDb2dPolyline
 66
     1
 10
0.0
 20
0.0
 30
0.0
 71
     2
  0
VERTEX
  5
21D
100
AcDbEntity
  8
0
370
     0
390
0
100
AcDbVertex
100
AcDb2dVertex
 10
7.117616
 20
4.531943
 30
0.0
 42
0.058196
  0
VERTEX
  5
21E
100
AcDbEntity
  8
0
370
     0
390
0
100
AcDbVertex
100
AcDb2dVertex
 10
7.141288
 20
4.454429
 30
0.0
  0
SEQEND
  5
21F
100
AcDbEntity
  8
0
370
     0
390
0
  0
POLYLINE
  5
220
100
AcDbEntity
  8
0
370
    35
390
0
 62
     7
 48
0.03937
100
AcDb2dPolyline
 66
     1
 10
0.0
 20
0.0
 30
0.0
 71
     2
  0
VERTEX
  5
221
100
AcDbEntity
  8
0
370
     0
390
0
100
AcDbVertex
100
AcDb2dVertex
 10
7.119998
 20
4.526065
 30
0.0
 42
0.048982
  0
VERTEX
  5
222
100
AcDbEntity
  8
0
370
     0
390
0
100
AcDbVertex
100
AcDb2dVertex
 10
7.13997
 20
4.460659
 30
0.0
  0
SEQEND
  5
223
100
AcDbEntity
  8
0
370
     0
390
0
  0
POLYLINE
  5
224
100
AcDbEntity
  8
0
370
    35
390
0
 62
     7
 48
0.03937
100
AcDb2dPolyline
 66
     1
 10
0.0
 20
0.0
 30
0.0
 71
     2
  0
VERTEX
  5
225
100
AcDbEntity
  8
0
370
     0
390
0
100
AcDbVertex
100
AcDb2dVertex
 10
7.061149
 20
4.612669
 30
0.0
 42
0.019459
  0
VERTEX
  5
226
100
AcDbEntity
  8
0
370
     0
390
0
100
AcDbVertex
100
AcDb2dVertex
 10
7.060562
 20
4.586342
 30
0.0
  0
SEQEND
  5
227
100
AcDbEntity
  8
0
370
     0
390
0
  0
SPLINE
  5
228
100
AcDbEntity
  8
0
370
    35
390
0
 62
     7
 48
0.03937
100
AcDbSpline
210
0.0
220
0.0
230
1.0
 70
     8
 71
     5
 72
    15
 73
     9
 74
     0
 42
0.0
 43
0.0
 40
0.0
 40
0.0
 40
0.0
 40
0.0
 40
0.0
 40
0.0
 40
7.6628659735952889
 40
7.6628659735952889
 40
7.6628659735952889
 40
11.035834933777284
 40
11.035834933777284
 40
11.035834933777284
 40
11.035834933777284
 40
11.035834933777284
 40
11.035834933777284
 10
7.1431473189095174
 20
4.3525972458370488
 30
0.0
 10
7.122043924666559
 20
4.3782942937027247
 30
0.0
 10
7.1038145479812798
 20
4.4081280555970084
 30
0.0
 10
7.0888858893288722
 20
4.4405450385745437
 30
0.0
 10
7.0723921194363841
 20
4.489533125776453
 30
0.0
 10
7.0637609475563137
 20
4.5400275741343314
 30
0.0
 10
7.0618853188884803
 20
4.5555223073449183
 30
0.0
 10
7.0608058204648598
 20
4.5709942918722701
 30
0.0
 10
7.0605608598494563
 20
4.5863424631315395
 30
0.0
  0
POLYLINE
  5
229
100
AcDbEntity
  8
0
370
    35
390
0
 62
     7
 48
0.03937
100
AcDb2dPolyline
 66
     1
 10
0.0
 20
0.0
 30
0.0
 71
     2
  0
VERTEX
  5
22A
100
AcDbEntity
  8
0
370
     0
390
0
100
AcDbVertex
100
AcDb2dVertex
 10
7.063356
 20
4.625187
 30
0.0
 42
0.024526
  0
VERTEX
  5
22B
100
AcDbEntity
  8
0
370
     0
390
0
100
AcDbVertex
100
AcDb2dVertex
 10
7.059726
 20
4.601378
 30
0.0
  0
SEQEND
  5
22C
100
AcDbEntity
  8
0
370
     0
390
0
  0
POLYLINE
  5
22D
100
AcDbEntity
  8
0
370
    35
390
0
 62
     7
 48
0.03937
100
AcDb2dPolyline
 66
     1
 10
0.0
 20
0.0
 30
0.0
 71
     2
  0
VERTEX
  5
22E
100
AcDbEntity
  8
0
370
     0
390
0
100
AcDbVertex
100
AcDb2dVertex
 10
7.059722
 20
4.601379
 30
0.0
 42
0.026834
  0
VERTEX
  5
22F
100
AcDbEntity
  8
0
370
     0
390
0
100
AcDbVertex
100
AcDb2dVertex
 10
7.05826
 20
4.571232
 30
0.0
  0
SEQEND
  5
230
100
AcDbEntity
  8
0
370
     0
390
0
  0
SPLINE
  5
231
100
AcDbEntity
  8
0
370
    35
390
0
 62
     7
 48
0.03937
100
AcDbSpline
210
0.0
220
0.0
230
1.0
 70
     8
 71
     5
 72
    21
 73
    15
 74
     0
 42
0.0
 43
0.0
 40
0.0
 40
0.0
 40
0.0
 40
0.0
 40
0.0
 40
0.0
 40
2.4582097291589644
 40
2.4582097291589644
 40
2.4582097291589644
 40
8.8191230160453316
 40
8.8191230160453316
 40
8.8191230160453316
 40
11.372196409926936
 40
11.372196409926936
 40
11.372196409926936
 40
12.654619232081128
 40
12.654619232081128
 40
12.654619232081128
 40
12.654619232081128
 40
12.654619232081128
 40
12.654619232081128
 10
7.1300075008214447
 20
4.3651210361978166
 30
0.0
 10
7.1249172142916875
 20
4.371072513088933
 30
0.0
 10
7.119999947266507
 20
4.3773300867624299
 30
0.0
 10
7.1152444196119324
 20
4.383897980358233
 30
0.0
 10
7.0989376935604431
 20
4.4082901184465397
 30
0.0
 10
7.0850869199338042
 20
4.435949946392455
 30
0.0
 10
7.0766896653893987
 20
4.4570526024784378
 30
0.0
 10
7.0673164978138141
 20
4.4874756010575334
 30
0.0
 10
7.0614658257068186
 20
4.5185122211469864
 30
0.0
 10
7.060087432978019
 20
4.5274150680210319
 30
0.0
 10
7.0584680308145975
 20
4.5408231499867187
 30
0.0
 10
7.0575497510939655
 20
4.5541739943790063
 30
0.0
 10
7.0573219388584132
 20
4.5586294716065163
 30
0.0
 10
7.0571743664323279
 20
4.5630698655689157
 30
0.0
 10
7.0571077497265318
 20
4.5674928872958462
 30
0.0
  0
POLYLINE
  5
232
100
AcDbEntity
  8
0
370
    35
390
0
 62
     7
 48
0.03937
100
AcDb2dPolyline
 66
     1
 10
0.0
 20
0.0
 30
0.0
 71
     2
  0
VERTEX
  5
233
100
AcDbEntity
  8
0
370
     0
390
0
100
AcDbVertex
100
AcDb2dVertex
 10
7.062465
 20
4.626277
 30
0.0
 42
0.055657
  0
VERTEX
  5
234
100
AcDbEntity
  8
0
370
     0
390
0
100
AcDbVertex
100
AcDb2dVertex
 10
7.057125
 20
4.567493
 30
0.0
  0
SEQEND
  5
235
100
AcDbEntity
  8
0
370
     0
390
0
  0
SPLINE
  5
236
100
AcDbEntity
  8
0
370
    35
390
0
 62
     7
 48
0.03937
100
AcDbSpline
210
0.0
220
0.0
230
1.0
 70
     8
 71
     5
 72
    18
 73
    12
 74
     0
 42
0.0
 43
0.0
 40
0.0
 40
0.0
 40
0.0
 40
0.0
 40
0.0
 40
0.0
 40
2.4961732942013088
 40
2.4961732942013088
 40
2.4961732942013088
 40
8.9582435632896118
 40
8.9582435632896118
 40
8.9582435632896118
 40
12.847209777927372
 40
12.847209777927372
 40
12.847209777927372
 40
12.847209777927372
 40
12.847209777927372
 40
12.847209777927372
 10
7.1311892075670551
 20
4.3655073095324104
 30
0.0
 10
7.1260219549513319
 20
4.3715490075087073
 30
0.0
 10
7.1210320865990777
 20
4.3779073430593094
 30
0.0
 10
7.1162071854134323
 20
4.3845882147809192
 30
0.0
 10
7.0996745564639099
 20
4.4094115754213909
 30
0.0
 10
7.0856806925197455
 20
4.4375951537793616
 30
0.0
 10
7.0772480046402526
 20
4.4590816189095968
 30
0.0
 10
7.066567072909681
 20
4.494444437147938
 30
0.0
 10
7.0606423719474796
 20
4.5306342873977004
 30
0.0
 10
7.0591113568754755
 20
4.5442976301750528
 30
0.0
 10
7.0583108761175133
 20
4.5578523296328317
 30
0.0
 10
7.058258235891933
 20
4.5712316660897505
 30
0.0
  0
POLYLINE
  5
237
100
AcDbEntity
  8
0
370
    35
390
0
 62
     7
 48
0.03937
100
AcDb2dPolyline
 66
     1
 10
0.0
 20
0.0
 30
0.0
 71
     2
  0
VERTEX
  5
238
100
AcDbEntity
  8
0
370
     0
390
0
100
AcDbVertex
100
AcDb2dVertex
 10
7.135363
 20
4.360764
 30
0.0
 42
0.0216
  0
VERTEX
  5
239
100
AcDbEntity
  8
0
370
     0
390
0
100
AcDbVertex
100
AcDb2dVertex
 10
7.147893
 20
4.348034
 30
0.0
  0
SEQEND
  5
23A
100
AcDbEntity
  8
0
370
     0
390
0
  0
LINE
  5
23B
100
AcDbEntity
  8
0
370
    35
390
0
 62
     7
 48
0.000158
100
AcDbLine
 10
7.135362
 20
4.360763
 30
0.0
 11
7.131189
 21
4.365507
 31
0.0
210
0.0
220
0.0
230
1.0
  0
POLYLINE
  5
23C
100
AcDbEntity
  8
0
370
    35
390
0
 62
     7
 48
0.03937
100
AcDb2dPolyline
 66
     1
 10
0.0
 20
0.0
 30
0.0
 71
     2
  0
VERTEX
  5
23D
100
AcDbEntity
  8
0
370
     0
390
0
100
AcDbVertex
100
AcDb2dVertex
 10
7.005987
 20
4.594637
 30
0.0
 42
0.019459
  0
VERTEX
  5
23E
100
AcDbEntity
  8
0
370
     0
390
0
100
AcDbVertex
100
AcDb2dVertex
 10
7.0054
 20
4.568311
 30
0.0
  0
SEQEND
  5
23F
100
AcDbEntity
  8
0
370
     0
390
0
  0
SPLINE
  5
240
100
AcDbEntity
  8
0
370
    35
390
0
 62
     7
 48
0.03937
100
AcDbSpline
210
0.0
220
0.0
230
1.0
 70
     8
 71
     5
 72
    15
 73
     9
 74
     0
 42
0.0
 43
0.0
 40
0.0
 40
0.0
 40
0.0
 40
0.0
 40
0.0
 40
0.0
 40
7.662865719876252
 40
7.662865719876252
 40
7.662865719876252
 40
11.035834584005634
 40
11.035834584005634
 40
11.035834584005634
 40
11.035834584005634
 40
11.035834584005634
 40
11.035834584005634
 10
7.0879851002520287
 20
4.3345659517913706
 30
0.0
 10
7.0668817058113813
 20
4.3602629992188655
 30
0.0
 10
7.0486523285808982
 20
4.390096761338742
 30
0.0
 10
7.03372366925226
 20
4.4225137452884464
 30
0.0
 10
7.0172298979196004
 20
4.4715018347963316
 30
0.0
 10
7.0085987246385431
 20
4.5219962848407214
 30
0.0
 10
7.0067230955787325
 20
4.5374910184581925
 30
0.0
 10
7.0056435968703195
 20
4.5529630031370658
 30
0.0
 10
7.0053986362617984
 20
4.5683111739576958
 30
0.0
  0
POLYLINE
  5
241
100
AcDbEntity
  8
0
370
    35
390
0
 62
     7
 48
0.03937
100
AcDb2dPolyline
 66
     1
 10
0.0
 20
0.0
 30
0.0
 71
     2
  0
VERTEX
  5
242
100
AcDbEntity
  8
0
370
     0
390
0
100
AcDbVertex
100
AcDb2dVertex
 10
7.13001
 20
4.365123
 30
0.0
 42
0.030235
  0
VERTEX
  5
243
100
AcDbEntity
  8
0
370
     0
390
0
100
AcDbVertex
100
AcDb2dVertex
 10
7.147664
 20
4.346765
 30
0.0
  0
SEQEND
  5
244
100
AcDbEntity
  8
0
370
     0
390
0
  0
ELLIPSE
  5
245
100
AcDbEntity
  8
0
370
    35
390
0
 62
     7
 48
0.03937
100
AcDbEllipse
 10
7.155306
 20
4.496173
 30
0.0
 11
0.0675106820572988
 21
-0.2169480042712279
 31
0.0
210
0.0
220
0.0
230
1.0
 40
0.628829
 41
3.6919048257979958
 42
4.11379726259291
  0
POLYLINE
  5
246
100
AcDbEntity
  8
0
370
    35
390
0
 62
     7
 48
0.03937
100
AcDb2dPolyline
 66
     1
 10
0.0
 20
0.0
 30
0.0
 71
     2
  0
VERTEX
  5
247
100
AcDbEntity
  8
0
370
     0
390
0
100
AcDbVertex
100
AcDb2dVertex
 10
7.00456
 20
4.583347
 30
0.0
 42
0.026834
  0
VERTEX
  5
248
100
AcDbEntity
  8
0
370
     0
390
0
100
AcDbVertex
100
AcDb2dVertex
 10
7.003098
 20
4.5532
 30
0.0
  0
SEQEND
  5
249
100
AcDbEntity
  8
0
370
     0
390
0
  0
SPLINE
  5
24A
100
AcDbEntity
  8
0
370
    35
390
0
 62
     7
 48
0.03937
100
AcDbSpline
210
0.0
220
0.0
230
1.0
 70
     8
 71
     5
 72
    21
 73
    15
 74
     0
 42
0.0
 43
0.0
 40
0.0
 40
0.0
 40
0.0
 40
0.0
 40
0.0
 40
0.0
 40
2.4582129849632683
 40
2.4582129849632683
 40
2.4582129849632683
 40
8.819127527489611
 40
8.819127527489611
 40
8.819127527489611
 40
11.372204013430631
 40
11.372204013430631
 40
11.372204013430631
 40
12.654629000151054
 40
12.654629000151054
 40
12.654629000151054
 40
12.654629000151054
 40
12.654629000151054
 40
12.654629000151054
 10
7.0748452780944318
 20
4.347089747305299
 30
0.0
 10
7.0697549923705925
 20
4.3530412232645288
 30
0.0
 10
7.0648377222640208
 20
4.3592988003063331
 30
0.0
 10
7.0600821916600953
 20
4.3658666978713789
 30
0.0
 10
7.0437754627880116
 20
4.3902588431562766
 30
0.0
 10
7.0299247129134628
 20
4.4179186307675904
 30
0.0
 10
7.021527465215688
 20
4.439021249639918
 30
0.0
 10
7.0121542925622684
 20
4.469444239027025
 30
0.0
 10
7.0063036125961702
 20
4.5004808663080231
 30
0.0
 10
7.0049252165022482
 20
4.5093837254237856
 30
0.0
 10
7.0033058106363191
 20
4.5227918224711869
 30
0.0
 10
7.0023875286390691
 20
4.5361426833625993
 30
0.0
 10
7.0021597157688094
 20
4.5405981676920257
 30
0.0
 10
7.0020121429543796
 20
4.5450385689287378
 30
0.0
 10
7.0019455261388721
 20
4.5494615981220017
 30
0.0
  0
ELLIPSE
  5
24B
100
AcDbEntity
  8
0
370
    35
390
0
 62
     7
 48
0.03937
100
AcDbEllipse
 10
7.152297
 20
4.497376
 30
0.0
 11
0.0653996948594006
 21
-0.2153382478131193
 31
0.0
210
0.0
220
0.0
230
1.0
 40
0.628874
 41
3.6922716869017216
 42
4.2837917065058653
  0
SPLINE
  5
24C
100
AcDbEntity
  8
0
370
    35
390
0
 62
     7
 48
0.03937
100
AcDbSpline
210
0.0
220
0.0
230
1.0
 70
     8
 71
     5
 72
    18
 73
    12
 74
     0
 42
0.0
 43
0.0
 40
0.0
 40
0.0
 40
0.0
 40
0.0
 40
0.0
 40
0.0
 40
2.4961786131261827
 40
2.4961786131261827
 40
2.4961786131261827
 40
8.9582462216271033
 40
8.9582462216271033
 40
8.9582462216271033
 40
12.847218980966279
 40
12.847218980966279
 40
12.847218980966279
 40
12.847218980966279
 40
12.847218980966279
 40
12.847218980966279
 10
7.0760269841576964
 20
4.3474760204168481
 30
0.0
 10
7.0708597224963521
 20
4.3535177291199831
 30
0.0
 10
7.0658698445506314
 20
4.3598760779478241
 30
0.0
 10
7.0610449461487388
 20
4.3665569474612997
 30
0.0
 10
7.0445123159161254
 20
4.3913803215210292
 30
0.0
 10
7.0305184989219924
 20
4.419563826963322
 30
0.0
 10
7.0220858203144907
 20
4.441050231324974
 30
0.0
 10
7.011404872544877
 20
4.476413062282024
 30
0.0
 10
7.0054801576823742
 20
4.5126029279140525
 30
0.0
 10
7.0039491366577993
 20
4.5262662949512773
 30
0.0
 10
7.0031486526241524
 20
4.5398210179434466
 30
0.0
 10
7.0030960123042734
 20
4.5532003769159077
 30
0.0
  0
ELLIPSE
  5
24D
100
AcDbEntity
  8
0
370
    35
390
0
 62
     7
 48
0.03937
100
AcDbEllipse
 10
7.131699
 20
4.48815
 30
0.0
 11
0.0599120482079931
 21
-0.1909303638485928
 31
0.0
210
0.0
220
0.0
230
1.0
 40
0.588082
 41
5.3764319226661526
 42
5.7863754299443633
  0
LINE
  5
24E
100
AcDbEntity
  8
0
370
    35
390
0
 62
     7
 48
0.000158
100
AcDbLine
 10
7.0802
 20
4.342732
 30
0.0
 11
7.076027
 21
4.347476
 31
0.0
210
0.0
220
0.0
230
1.0
  0
POLYLINE
  5
24F
100
AcDbEntity
  8
0
370
    35
390
0
 62
     7
 48
0.03937
100
AcDb2dPolyline
 66
     1
 10
0.0
 20
0.0
 30
0.0
 71
     2
  0
VERTEX
  5
250
100
AcDbEntity
  8
0
370
     0
390
0
100
AcDbVertex
100
AcDb2dVertex
 10
6.950825
 20
4.576606
 30
0.0
 42
0.019459
  0
VERTEX
  5
251
100
AcDbEntity
  8
0
370
     0
390
0
100
AcDbVertex
100
AcDb2dVertex
 10
6.950237
 20
4.55028
 30
0.0
  0
SEQEND
  5
252
100
AcDbEntity
  8
0
370
     0
390
0
  0
SPLINE
  5
253
100
AcDbEntity
  8
0
370
    35
390
0
 62
     7
 48
0.03937
100
AcDbSpline
210
0.0
220
0.0
230
1.0
 70
     8
 71
     5
 72
    15
 73
     9
 74
     0
 42
0.0
 43
0.0
 40
0.0
 40
0.0
 40
0.0
 40
0.0
 40
0.0
 40
0.0
 40
7.6628682115497115
 40
7.6628682115497115
 40
7.6628682115497115
 40
11.035838663564036
 40
11.035838663564036
 40
11.035838663564036
 40
11.035838663564036
 40
11.035838663564036
 40
11.035838663564036
 10
7.0328228728625026
 20
4.3165346645180618
 30
0.0
 10
7.0117194794427302
 20
4.3422317117579476
 30
0.0
 10
6.9934901062036303
 20
4.3720654713520712
 30
0.0
 10
6.9785614511166152
 20
4.4044824499070216
 30
0.0
 10
6.9620676799004615
 20
4.4534705318309369
 30
0.0
 10
6.9534365034194803
 20
4.5039649815177922
 30
0.0
 10
6.9515608730867244
 20
4.519459717746968
 30
0.0
 10
6.9504813734021349
 20
4.5349317067377637
 30
0.0
 10
6.9502364126741369
 20
4.5502798847838513
 30
0.0
  0
ELLIPSE
  5
254
100
AcDbEntity
  8
0
370
    35
390
0
 62
     7
 48
0.03937
100
AcDbEllipse
 10
7.130536
 20
4.488267
 30
0.0
 11
0.0598359949079319
 21
-0.1914560612251626
 31
0.0
210
0.0
220
0.0
230
1.0
 40
0.587685
 41
5.3421520728273935
 42
5.793452656449821
  0
ELLIPSE
  5
255
100
AcDbEntity
  8
0
370
    35
390
0
 62
     7
 48
0.03937
100
AcDbEllipse
 10
7.101429
 20
4.476926
 30
0.0
 11
0.069023113626089
 21
-0.2181544711745263
 31
0.0
210
0.0
220
0.0
230
1.0
 40
0.628488
 41
3.4236007836593454
 42
4.1074269143670543
  0
POLYLINE
  5
256
100
AcDbEntity
  8
0
370
    35
390
0
 62
     7
 48
0.03937
100
AcDb2dPolyline
 66
     1
 10
0.0
 20
0.0
 30
0.0
 71
     2
  0
VERTEX
  5
257
100
AcDbEntity
  8
0
370
     0
390
0
100
AcDbVertex
100
AcDb2dVertex
 10
6.949398
 20
4.565316
 30
0.0
 42
0.026834
  0
VERTEX
  5
258
100
AcDbEntity
  8
0
370
     0
390
0
100
AcDbVertex
100
AcDb2dVertex
 10
6.947936
 20
4.535169
 30
0.0
  0
SEQEND
  5
259
100
AcDbEntity
  8
0
370
     0
390
0
  0
SPLINE
  5
25A
100
AcDbEntity
  8
0
370
    35
390
0
 62
     7
 48
0.03937
100
AcDbSpline
210
0.0
220
0.0
230
1.0
 70
     8
 71
     5
 72
    21
 73
    15
 74
     0
 42
0.0
 43
0.0
 40
0.0
 40
0.0
 40
0.0
 40
0.0
 40
0.0
 40
0.0
 40
2.4582089033338645
 40
2.4582089033338645
 40
2.4582089033338645
 40
8.8191229594789569
 40
8.8191229594789569
 40
8.8191229594789569
 40
11.372196103219082
 40
11.372196103219082
 40
11.372196103219082
 40
12.65461890678541
 40
12.65461890678541
 40
12.65461890678541
 40
12.65461890678541
 40
12.65461890678541
 40
12.65461890678541
 10
7.0196830558660706
 20
4.329058458575779
 30
0.0
 10
7.0145927739397482
 20
4.3350099306408501
 30
0.0
 10
7.0096755098836372
 20
4.3412675005560599
 30
0.0
 10
7.0049199807383964
 20
4.347835396279331
 30
0.0
 10
6.9886132564541033
 20
4.3722275313395835
 30
0.0
 10
6.9747624777916393
 20
4.399887365907805
 30
0.0
 10
6.9663652208547937
 20
4.4209900291046607
 30
0.0
 10
6.9569920521064121
 20
4.451413028250653
 30
0.0
 10
6.9511413790912959
 20
4.4824496477147369
 30
0.0
 10
6.9497629863466024
 20
4.491352492569364
 30
0.0
 10
6.9481435839153463
 20
4.5047605730895661
 30
0.0
 10
6.9472253040054728
 20
4.5181114163015668
 30
0.0
 10
6.9469974917122919
 20
4.5225668934120806
 30
0.0
 10
6.9468499192561346
 20
4.5270072872848042
 30
0.0
 10
6.9467833025512133
 20
4.531430308948158
 30
0.0
  0
SPLINE
  5
25B
100
AcDbEntity
  8
0
370
    35
390
0
 62
     7
 48
0.03937
100
AcDbSpline
210
0.0
220
0.0
230
1.0
 70
     8
 71
     5
 72
    18
 73
    12
 74
     0
 42
0.0
 43
0.0
 40
0.0
 40
0.0
 40
0.0
 40
0.0
 40
0.0
 40
0.0
 40
4.9291835574489395
 40
4.9291835574489395
 40
4.9291835574489395
 40
6.9529519782994242
 40
6.9529519782994242
 40
6.9529519782994242
 40
10.082428937081081
 40
10.082428937081081
 40
10.082428937081081
 40
10.082428937081081
 40
10.082428937081081
 40
10.082428937081081
 10
6.9964520333572953
 20
4.6745974625564317
 30
0.0
 10
6.9866570760725786
 20
4.6658293935983526
 30
0.0
 10
6.9778598132973624
 20
4.6552280892232307
 30
0.0
 10
6.9702510851960264
 20
4.6429824287539505
 30
0.0
 10
6.9613648802842283
 20
4.6238795283071861
 30
0.0
 10
6.9550883400332655
 20
4.602927172308438
 30
0.0
 10
6.9534784866353823
 20
4.5966840621478298
 30
0.0
 10
6.9499271449294184
 20
4.5804565058216919
 30
0.0
 10
6.9477563163609304
 20
4.5634714031896886
 30
0.0
 10
6.9469402658530308
 20
4.5529137180323316
 30
0.0
 10
6.9466207388222028
 20
4.5422237417766738
 30
0.0
 10
6.9467833025512116
 20
4.5314303089481571
 30
0.0
  0
SPLINE
  5
25C
100
AcDbEntity
  8
0
370
    35
390
0
 62
     7
 48
0.03937
100
AcDbSpline
210
0.0
220
0.0
230
1.0
 70
     8
 71
     5
 72
    18
 73
    12
 74
     0
 42
0.0
 43
0.0
 40
0.0
 40
0.0
 40
0.0
 40
0.0
 40
0.0
 40
0.0
 40
2.4961785734373003
 40
2.4961785734373003
 40
2.4961785734373003
 40
8.9582486946391473
 40
8.9582486946391473
 40
8.9582486946391473
 40
12.84722483538501
 40
12.84722483538501
 40
12.84722483538501
 40
12.84722483538501
 40
12.84722483538501
 40
12.84722483538501
 10
7.0208647585090462
 20
4.3294447305693131
 30
0.0
 10
7.0156975107585904
 20
4.3354864226003604
 30
0.0
 10
7.0107076377427617
 20
4.3418447624152705
 30
0.0
 10
7.0058827291844556
 20
4.3485256440846909
 30
0.0
 10
6.9893500975211929
 20
4.3733490158915664
 30
0.0
 10
6.9753562863227945
 20
4.4015325057334032
 30
0.0
 10
6.9669236074392105
 20
4.4230189009819068
 30
0.0
 10
6.9562426544071316
 20
4.4583817343701897
 30
0.0
 10
6.9503179358594709
 20
4.4945716093905359
 30
0.0
 10
6.9487869136320244
 20
4.5082349844357843
 30
0.0
 10
6.9479864290776421
 20
4.5217897171346122
 30
0.0
 10
6.9479337887166146
 20
4.5351690877420632
 30
0.0
  0
ELLIPSE
  5
25D
100
AcDbEntity
  8
0
370
    35
390
0
 62
     7
 48
0.03937
100
AcDbEllipse
 10
7.076439
 20
4.46953
 30
0.0
 11
0.0600478547458397
 21
-0.190310299683562
 31
0.0
210
0.0
220
0.0
230
1.0
 40
0.588235
 41
5.3742795653420652
 42
5.857743441383465
  0
LINE
  5
25E
100
AcDbEntity
  8
0
370
    35
390
0
 62
     7
 48
0.000158
100
AcDbLine
 10
7.025037
 20
4.3247
 30
0.0
 11
7.020865
 21
4.329445
 31
0.0
210
0.0
220
0.0
230
1.0
  0
POLYLINE
  5
25F
100
AcDbEntity
  8
0
370
    35
390
0
 62
     7
 48
0.03937
100
AcDb2dPolyline
 66
     1
 10
0.0
 20
0.0
 30
0.0
 71
     2
  0
VERTEX
  5
260
100
AcDbEntity
  8
0
370
     0
390
0
100
AcDbVertex
100
AcDb2dVertex
 10
7.084933
 20
4.281614
 30
0.0
 42
0.064369
  0
VERTEX
  5
261
100
AcDbEntity
  8
0
370
     0
390
0
100
AcDbVertex
100
AcDb2dVertex
 10
7.107721
 20
4.276314
 30
0.0
  0
SEQEND
  5
262
100
AcDbEntity
  8
0
370
     0
390
0
  0
POLYLINE
  5
263
100
AcDbEntity
  8
0
370
    35
390
0
 62
     7
 48
0.03937
100
AcDb2dPolyline
 66
     1
 10
0.0
 20
0.0
 30
0.0
 71
     2
  0
VERTEX
  5
264
100
AcDbEntity
  8
0
370
     0
390
0
100
AcDbVertex
100
AcDb2dVertex
 10
6.895662
 20
4.558575
 30
0.0
 42
0.019459
  0
VERTEX
  5
265
100
AcDbEntity
  8
0
370
     0
390
0
100
AcDbVertex
100
AcDb2dVertex
 10
6.895075
 20
4.532249
 30
0.0
  0
SEQEND
  5
266
100
AcDbEntity
  8
0
370
     0
390
0
  0
SPLINE
  5
267
100
AcDbEntity
  8
0
370
    35
390
0
 62
     7
 48
0.03937
100
AcDbSpline
210
0.0
220
0.0
230
1.0
 70
     8
 71
     5
 72
    15
 73
     9
 74
     0
 42
0.0
 43
0.0
 40
0.0
 40
0.0
 40
0.0
 40
0.0
 40
0.0
 40
0.0
 40
7.662866350511063
 40
7.662866350511063
 40
7.662866350511063
 40
11.035835710182061
 40
11.035835710182061
 40
11.035835710182061
 40
11.035835710182061
 40
11.035835710182061
 40
11.035835710182061
 10
6.9776606564373767
 20
4.2985033682055436
 30
0.0
 10
6.9565572619731455
 20
4.324200414792756
 30
0.0
 10
6.9383278855113755
 20
4.3540341760028802
 30
0.0
 10
6.9233992271370104
 20
4.3864511590272697
 30
0.0
 10
6.9069054546520929
 20
4.4354392486087493
 30
0.0
 10
6.8982742789712175
 20
4.4859337007607749
 30
0.0
 10
6.8963986490824869
 20
4.5014284359560639
 30
0.0
 10
6.8953191497364132
 20
4.5169004225354694
 30
0.0
 10
6.8950741890864764
 20
4.5322485956100076
 30
0.0
  0
POLYLINE
  5
268
100
AcDbEntity
  8
0
370
    35
390
0
 62
     7
 48
0.03937
100
AcDb2dPolyline
 66
     1
 10
0.0
 20
0.0
 30
0.0
 71
     2
  0
VERTEX
  5
269
100
AcDbEntity
  8
0
370
     0
390
0
100
AcDbVertex
100
AcDb2dVertex
 10
7.083751
 20
4.281228
 30
0.0
 42
0.06633
  0
VERTEX
  5
26A
100
AcDbEntity
  8
0
370
     0
390
0
100
AcDbVertex
100
AcDb2dVertex
 10
7.107161
 20
4.275871
 30
0.0
  0
SEQEND
  5
26B
100
AcDbEntity
  8
0
370
     0
390
0
  0
ELLIPSE
  5
26C
100
AcDbEntity
  8
0
370
    35
390
0
 62
     7
 48
0.03937
100
AcDbEllipse
 10
7.075294
 20
4.469794
 30
0.0
 11
0.0599422777535047
 21
-0.1909895944839203
 31
0.0
210
0.0
220
0.0
230
1.0
 40
0.587774
 41
5.3404925394056262
 42
5.85922027232108
  0
SPLINE
  5
26D
100
AcDbEntity
  8
0
370
    35
390
0
 62
     7
 48
0.03937
100
AcDbSpline
210
0.0
220
0.0
230
1.0
 70
     8
 71
     5
 72
    21
 73
    15
 74
     0
 42
0.0
 43
0.0
 40
0.0
 40
0.0
 40
0.0
 40
0.0
 40
0.0
 40
0.0
 40
2.1603304274095385
 40
2.1603304274095385
 40
2.1603304274095385
 40
7.6822698999991665
 40
7.6822698999991665
 40
7.6822698999991665
 40
9.9526269588048315
 40
9.9526269588048315
 40
9.9526269588048315
 40
11.131360489954366
 40
11.131360489954366
 40
11.131360489954366
 40
11.131360489954366
 40
11.131360489954366
 40
11.131360489954366
 10
6.9759869821551854
 20
4.6766624697406023
 30
0.0
 10
6.9707199513549893
 20
4.6749035451360186
 30
0.0
 10
6.9655955484796257
 20
4.6727453978374065
 30
0.0
 10
6.9606224402617212
 20
4.6701907644089609
 30
0.0
 10
6.9436387294244897
 20
4.6598171682687939
 30
0.0
 10
6.9290058872916891
 20
4.6448786150849397
 30
0.0
 10
6.9198550044830052
 20
4.6319821813370821
 30
0.0
 10
6.9091857914647337
 20
4.6111613925519848
 30
0.0
 10
6.9018035460752687
 20
4.5879006336424499
 30
0.0
 10
6.8999276549350288
 20
4.58093783538878
 30
0.0
 10
6.8974904164679947
 20
4.5701105390939851
 30
0.0
 10
6.8956718952775811
 20
4.5589422581813857
 30
0.0
 10
6.8951221841568415
 20
4.5550874842176841
 30
0.0
 10
6.894644294266449
 20
4.5512010251426709
 30
0.0
 10
6.8942375466749244
 20
4.5472845554200356
 30
0.0
  0
POLYLINE
  5
26E
100
AcDbEntity
  8
0
370
    35
390
0
 62
     7
 48
0.03937
100
AcDb2dPolyline
 66
     1
 10
0.0
 20
0.0
 30
0.0
 71
     2
  0
VERTEX
  5
26F
100
AcDbEntity
  8
0
370
     0
390
0
100
AcDbVertex
100
AcDb2dVertex
 10
6.894236
 20
4.547285
 30
0.0
 42
0.026834
  0
VERTEX
  5
270
100
AcDbEntity
  8
0
370
     0
390
0
100
AcDbVertex
100
AcDb2dVertex
 10
6.892774
 20
4.517138
 30
0.0
  0
SEQEND
  5
271
100
AcDbEntity
  8
0
370
     0
390
0
  0
SPLINE
  5
272
100
AcDbEntity
  8
0
370
    35
390
0
 62
     7
 48
0.03937
100
AcDbSpline
210
0.0
220
0.0
230
1.0
 70
     8
 71
     5
 72
    21
 73
    15
 74
     0
 42
0.0
 43
0.0
 40
0.0
 40
0.0
 40
0.0
 40
0.0
 40
0.0
 40
0.0
 40
2.4582084881702526
 40
2.4582084881702526
 40
2.4582084881702526
 40
8.8191228782318785
 40
8.8191228782318785
 40
8.8191228782318785
 40
11.372195635375048
 40
11.372195635375048
 40
11.372195635375048
 40
12.654618187549911
 40
12.654618187549911
 40
12.654618187549911
 40
12.654618187549911
 40
12.654618187549911
 40
12.654618187549911
 10
6.9645208312181346
 20
4.3110271690553548
 30
0.0
 10
6.9594305492801638
 20
4.3169786408577533
 30
0.0
 10
6.9545132856643583
 20
4.323236209946697
 30
0.0
 10
6.949757756412021
 20
4.3298041054846257
 30
0.0
 10
6.9334510318090192
 20
4.3541962393946303
 30
0.0
 10
6.9196002485492016
 20
4.3818560817002554
 30
0.0
 10
6.9112029909708799
 20
4.4029587516835305
 30
0.0
 10
6.9018298244257954
 20
4.4333817513784917
 30
0.0
 10
6.8959791535253476
 20
4.4644183689968644
 30
0.0
 10
6.8946007615276859
 20
4.4733212114671765
 30
0.0
 10
6.8929813598253959
 20
4.4867292892288777
 30
0.0
 10
6.8920630802721057
 20
4.5000801298744744
 30
0.0
 10
6.8918352680634172
 20
4.504535606023687
 30
0.0
 10
6.8916876956527702
 20
4.5089759989775926
 30
0.0
 10
6.8916210789635528
 20
4.5133990197743143
 30
0.0
  0
POLYLINE
  5
273
100
AcDbEntity
  8
0
370
    35
390
0
 62
     7
 48
0.03937
100
AcDb2dPolyline
 66
     1
 10
0.0
 20
0.0
 30
0.0
 71
     2
  0
VERTEX
  5
274
100
AcDbEntity
  8
0
370
     0
390
0
100
AcDbVertex
100
AcDb2dVertex
 10
6.983906
 20
4.678799
 30
0.0
 42
0.024324
  0
VERTEX
  5
275
100
AcDbEntity
  8
0
370
     0
390
0
100
AcDbVertex
100
AcDb2dVertex
 10
6.975356
 20
4.676458
 30
0.0
  0
SEQEND
  5
276
100
AcDbEntity
  8
0
370
     0
390
0
  0
SPLINE
  5
277
100
AcDbEntity
  8
0
370
    35
390
0
 62
     7
 48
0.03937
100
AcDbSpline
210
0.0
220
0.0
230
1.0
 70
     8
 71
     5
 72
    21
 73
    15
 74
     0
 42
0.0
 43
0.0
 40
0.0
 40
0.0
 40
0.0
 40
0.0
 40
0.0
 40
0.0
 40
2.5374659577121825
 40
2.5374659577121825
 40
2.5374659577121825
 40
7.7208305771308332
 40
7.7208305771308332
 40
7.7208305771308332
 40
10.388926058730556
 40
10.388926058730556
 40
10.388926058730556
 40
13.14941366473991
 40
13.14941366473991
 40
13.14941366473991
 40
13.14941366473991
 40
13.14941366473991
 40
13.14941366473991
 10
6.9753560109289943
 20
4.6764581643514411
 30
0.0
 10
6.9691594423795724
 20
4.6744326449783635
 30
0.0
 10
6.9631562247337806
 20
4.6718557124296973
 30
0.0
 10
6.9573879193840993
 20
4.6687457634448704
 30
0.0
 10
6.9406044262820199
 20
4.6577482867711062
 30
0.0
 10
6.926209875771999
 20
4.6421779047740097
 30
0.0
 10
6.917783842280957
 20
4.6298350703927911
 30
0.0
 10
6.90717132285691
 20
4.6087563057704344
 30
0.0
 10
6.8998952494519834
 20
4.585198821746169
 30
0.0
 10
6.897807279918827
 20
4.5769686772799485
 30
0.0
 10
6.894303689422105
 20
4.5597214346253629
 30
0.0
 10
6.8923258599186719
 20
4.5416998587794737
 30
0.0
 10
6.8917093951497908
 20
4.5323601301479792
 30
0.0
 10
6.8914776827431066
 20
4.5229198240304544
 30
0.0
 10
6.8916210789635519
 20
4.5133990197743135
 30
0.0
  0
SPLINE
  5
278
100
AcDbEntity
  8
0
370
    35
390
0
 62
     7
 48
0.03937
100
AcDbSpline
210
0.0
220
0.0
230
1.0
 70
     8
 71
     5
 72
    18
 73
    12
 74
     0
 42
0.0
 43
0.0
 40
0.0
 40
0.0
 40
0.0
 40
0.0
 40
0.0
 40
0.0
 40
2.4961764675000158
 40
2.4961764675000158
 40
2.4961764675000158
 40
8.9582455116931392
 40
8.9582455116931392
 40
8.9582455116931392
 40
12.847216636658811
 40
12.847216636658811
 40
12.847216636658811
 40
12.847216636658811
 40
12.847216636658811
 40
12.847216636658811
 10
6.9657025347063666
 20
4.3114134413251843
 30
0.0
 10
6.9605352803572771
 20
4.3174551408960076
 30
0.0
 10
6.9555454073394181
 20
4.3238134818052725
 30
0.0
 10
6.9507205048643739
 20
4.330494355308379
 30
0.0
 10
6.9341878743450307
 20
4.3553177226209607
 30
0.0
 10
6.9201940414086618
 20
4.3835012504910935
 30
0.0
 10
6.9117613595455598
 20
4.4049876755589867
 30
0.0
 10
6.9010804173363685
 20
4.4403505038267594
 30
0.0
 10
6.8951557073767411
 20
4.4765403674944215
 30
0.0
 10
6.8936246883807675
 20
4.4902037281877121
 30
0.0
 10
6.8928242054304159
 20
4.5037584452193764
 30
0.0
 10
6.8927715651289532
 20
4.5171377985682186
 30
0.0
  0
ELLIPSE
  5
279
100
AcDbEntity
  8
0
370
    35
390
0
 62
     7
 48
0.03937
100
AcDbEllipse
 10
7.021277
 20
4.451499
 30
0.0
 11
0.0600478424213981
 21
-0.1903104226822935
 31
0.0
210
0.0
220
0.0
230
1.0
 40
0.588235
 41
5.3742800167694051
 42
5.8577437014585776
  0
LINE
  5
27A
100
AcDbEntity
  8
0
370
    35
390
0
 62
     7
 48
0.000158
100
AcDbLine
 10
6.969875
 20
4.306669
 30
0.0
 11
6.965703
 21
4.311413
 31
0.0
210
0.0
220
0.0
230
1.0
  0
ELLIPSE
  5
27B
100
AcDbEntity
  8
0
370
    35
390
0
 62
     7
 48
0.03937
100
AcDbEllipse
 10
7.021319
 20
4.446661
 30
0.0
 11
0.0604607757237051
 21
-0.1852836009821433
 31
0.0
210
0.0
220
0.0
230
1.0
 40
0.592591
 41
5.8472992083018855
 42
6.2781659879480118
  0
ELLIPSE
  5
27C
100
AcDbEntity
  8
0
370
    35
390
0
 62
     7
 48
0.03937
100
AcDbEllipse
 10
7.019685
 20
4.460857
 30
0.0
 11
0.0638841355190301
 21
-0.1976276305854297
 31
0.0
210
0.0
220
0.0
230
1.0
 40
0.594558
 41
0.1933902471472975
 42
0.7828577345120914
  0
POLYLINE
  5
27D
100
AcDbEntity
  8
0
370
    35
390
0
 62
     7
 48
0.03937
100
AcDb2dPolyline
 66
     1
 10
0.0
 20
0.0
 30
0.0
 71
     2
  0
VERTEX
  5
27E
100
AcDbEntity
  8
0
370
     0
390
0
100
AcDbVertex
100
AcDb2dVertex
 10
6.841107
 20
4.548664
 30
0.0
 42
0.025871
  0
VERTEX
  5
27F
100
AcDbEntity
  8
0
370
     0
390
0
100
AcDbVertex
100
AcDb2dVertex
 10
6.839914
 20
4.514217
 30
0.0
  0
SEQEND
  5
280
100
AcDbEntity
  8
0
370
     0
390
0
  0
ELLIPSE
  5
281
100
AcDbEntity
  8
0
370
    35
390
0
 62
     7
 48
0.03937
100
AcDbEllipse
 10
7.020195
 20
4.446032
 30
0.0
 11
0.0604137869357029
 21
-0.1850365989994024
 31
0.0
210
0.0
220
0.0
230
1.0
 40
0.592978
 41
5.8469181780249242
 42
6.2833847233411646
  0
POLYLINE
  5
282
100
AcDbEntity
  8
0
370
    35
390
0
 62
     7
 48
0.03937
100
AcDb2dPolyline
 66
     1
 10
0.0
 20
0.0
 30
0.0
 71
     2
  0
VERTEX
  5
283
100
AcDbEntity
  8
0
370
     0
390
0
100
AcDbVertex
100
AcDb2dVertex
 10
7.080631
 20
4.261002
 30
0.0
 42
0.03612
  0
VERTEX
  5
284
100
AcDbEntity
  8
0
370
     0
390
0
100
AcDbVertex
100
AcDb2dVertex
 10
7.089825
 20
4.264764
 30
0.0
  0
SEQEND
  5
285
100
AcDbEntity
  8
0
370
     0
390
0
  0
ELLIPSE
  5
286
100
AcDbEntity
  8
0
370
    35
390
0
 62
     7
 48
0.03937
100
AcDbEllipse
 10
7.020132
 20
4.451763
 30
0.0
 11
0.0599421519228031
 21
-0.1909893373739357
 31
0.0
210
0.0
220
0.0
230
1.0
 40
0.587775
 41
5.3404915544044966
 42
5.8592193706956515
  0
SPLINE
  5
287
100
AcDbEntity
  8
0
370
    35
390
0
 62
     7
 48
0.03937
100
AcDbSpline
210
0.0
220
0.0
230
1.0
 70
     8
 71
     5
 72
    15
 73
     9
 74
     0
 42
0.0
 43
0.0
 40
0.0
 40
0.0
 40
0.0
 40
0.0
 40
0.0
 40
0.0
 40
7.9870385538355091
 40
7.9870385538355091
 40
7.9870385538355091
 40
11.524573318573562
 40
11.524573318573562
 40
11.524573318573562
 40
11.524573318573562
 40
11.524573318573562
 40
11.524573318573562
 10
6.9293615279141179
 20
4.2724299955241802
 30
0.0
 10
6.9066121127025317
 20
4.2980690537303898
 30
0.0
 10
6.8868772400145257
 20
4.3285503052932057
 30
0.0
 10
6.8707071151244357
 20
4.3620167675478996
 30
0.0
 10
6.8527862895917169
 20
4.412935997352152
 30
0.0
 10
6.8433922705015275
 20
4.4656342112126248
 30
0.0
 10
6.8413437480012114
 20
4.4818871125051398
 30
0.0
 10
6.8401688776493872
 20
4.4981203040508131
 30
0.0
 10
6.8399119654988167
 20
4.5142173064361621
 30
0.0
  0
POLYLINE
  5
288
100
AcDbEntity
  8
0
370
    35
390
0
 62
     7
 48
0.03937
100
AcDb2dPolyline
 66
     1
 10
0.0
 20
0.0
 30
0.0
 71
     2
  0
VERTEX
  5
289
100
AcDbEntity
  8
0
370
     0
390
0
100
AcDbVertex
100
AcDb2dVertex
 10
7.089847
 20
4.264766
 30
0.0
 42
0.051714
  0
VERTEX
  5
28A
100
AcDbEntity
  8
0
370
     0
390
0
100
AcDbVertex
100
AcDb2dVertex
 10
7.096246
 20
4.234387
 30
0.0
  0
SEQEND
  5
28B
100
AcDbEntity
  8
0
370
     0
390
0
  0
POLYLINE
  5
28C
100
AcDbEntity
  8
0
370
    35
390
0
 62
     7
 48
0.03937
100
AcDb2dPolyline
 66
     1
 10
0.0
 20
0.0
 30
0.0
 71
     2
  0
VERTEX
  5
28D
100
AcDbEntity
  8
0
370
     0
390
0
100
AcDbVertex
100
AcDb2dVertex
 10
6.840594
 20
4.543985
 30
0.0
 42
0.029019
  0
VERTEX
  5
28E
100
AcDbEntity
  8
0
370
     0
390
0
100
AcDbVertex
100
AcDb2dVertex
 10
6.839099
 20
4.508866
 30
0.0
  0
SEQEND
  5
28F
100
AcDbEntity
  8
0
370
     0
390
0
  0
SPLINE
  5
290
100
AcDbEntity
  8
0
370
    35
390
0
 62
     7
 48
0.03937
100
AcDbSpline
210
0.0
220
0.0
230
1.0
 70
     8
 71
     5
 72
    33
 73
    27
 74
     0
 42
0.0
 43
0.0
 40
0.0
 40
0.0
 40
0.0
 40
0.0
 40
0.0
 40
0.0
 40
5.3115257629122912
 40
5.3115257629122912
 40
5.3115257629122912
 40
7.9034306359234892
 40
7.9034306359234892
 40
7.9034306359234892
 40
12.97192248962908
 40
12.97192248962908
 40
12.97192248962908
 40
15.452161442602238
 40
15.452161442602238
 40
15.452161442602238
 40
17.958200830220047
 40
17.958200830220047
 40
17.958200830220047
 40
23.002473695437459
 40
23.002473695437459
 40
23.002473695437459
 40
24.284018260545555
 40
24.284018260545555
 40
24.284018260545555
 40
25.56556282565365
 40
25.56556282565365
 40
25.56556282565365
 40
25.56556282565365
 40
25.56556282565365
 40
25.56556282565365
 10
6.8405972113736828
 20
4.54398471330635
 30
0.0
 10
6.8421883993054244
 20
4.5594832723061902
 30
0.0
 10
6.8448238490597983
 20
4.5745105460001048
 30
0.0
 10
6.848525692972955
 20
4.5888344628058944
 30
0.0
 10
6.8555775698890935
 20
4.608754072005893
 30
0.0
 10
6.8647789084609716
 20
4.6262161487485436
 30
0.0
 10
6.868025433816884
 20
4.6316688968415649
 30
0.0
 10
6.8782790768976865
 20
4.646926366267671
 30
0.0
 10
6.8904946906495432
 20
4.6595708958618092
 30
0.0
 10
6.8993792275145127
 20
4.6666283214874964
 30
0.0
 10
6.91362130194402
 20
4.6749372477745741
 30
0.0
 10
6.9289010557153849
 20
4.6798664142001041
 30
0.0
 10
6.9340179842404011
 20
4.6811194890544012
 30
0.0
 10
6.9444691946022186
 20
4.6829047117901235
 30
0.0
 10
6.9551917559444805
 20
4.6832270667078966
 30
0.0
 10
6.9605771932952827
 20
4.6830166945449472
 30
0.0
 10
6.9766494333126552
 20
4.681370732489623
 30
0.0
 10
6.9923490834142505
 20
4.6768420025403898
 30
0.0
 10
7.0028288177746303
 20
4.6726716594986186
 30
0.0
 10
7.0161507955043971
 20
4.6658028616907012
 30
0.0
 10
7.0294846405876363
 20
4.656874418533568
 30
0.0
 10
7.0321832722604452
 20
4.6549817316581379
 30
0.0
 10
7.0375588054537896
 20
4.6510379696514885
 30
0.0
 10
7.0428599646861718
 20
4.6468031322961849
 30
0.0
 10
7.0454850873694204
 20
4.644618809344748
 30
0.0
 10
7.0480867751690122
 20
4.6423671009077481
 30
0.0
 10
7.0506628542472125
 20
4.6400505511117505
 30
0.0
  0
ELLIPSE
  5
291
100
AcDbEntity
  8
0
370
    35
390
0
 62
     7
 48
0.03937
100
AcDbEllipse
 10
7.013483
 20
4.463987
 30
0.0
 11
0.0664280624716847
 21
-0.2032200581572116
 31
0.0
210
0.0
220
0.0
230
1.0
 40
0.608973
 41
0.0820072626179213
 42
0.2166512297525495
  0
ELLIPSE
  5
292
100
AcDbEntity
  8
0
370
    35
390
0
 62
     7
 48
0.03937
100
AcDbEllipse
 10
6.977076
 20
4.452086
 30
0.0
 11
-0.081431577428587
 21
0.2491195631051983
 31
0.0
210
0.0
220
0.0
230
1.0
 40
0.608973
 41
5.4078383217504333
 42
10.300142937124631
  0
ELLIPSE
  5
293
100
AcDbEntity
  8
0
370
    35
390
0
 62
     7
 48
0.03937
100
AcDbEllipse
 10
6.977076
 20
4.452086
 30
0.0
 11
-0.081431577428587
 21
0.2491195631051983
 31
0.0
210
0.0
220
0.0
230
1.0
 40
0.608973
 41
4.016957629945046
 42
5.3670233043288667
  0
SPLINE
  5
294
100
AcDbEntity
  8
0
370
    35
390
0
 62
     7
 48
0.03937
100
AcDbSpline
210
0.0
220
0.0
230
1.0
 70
     8
 71
     5
 72
    18
 73
    12
 74
     0
 42
0.0
 43
0.0
 40
0.0
 40
0.0
 40
0.0
 40
0.0
 40
0.0
 40
0.0
 40
7.9052148849598689
 40
7.9052148849598689
 40
7.9052148849598689
 40
11.091605833881399
 40
11.091605833881399
 40
11.091605833881399
 40
15.990326394596906
 40
15.990326394596906
 40
15.990326394596906
 40
15.990326394596906
 40
15.990326394596906
 40
15.990326394596906
 10
7.0962677644035406
 20
4.2343943080253323
 30
0.0
 10
7.0825772019143143
 20
4.2232888253513385
 30
0.0
 10
7.0670868133092108
 20
4.2157512802919443
 30
0.0
 10
7.0501786459918412
 20
4.2121845554345807
 30
0.0
 10
7.0253288594872325
 20
4.2130076996727093
 30
0.0
 10
7.0003380504290709
 20
4.2212082551950836
 30
0.0
 10
6.9931638088159911
 20
4.2241569303819926
 30
0.0
 10
6.975130409534879
 20
4.2330457935474719
 30
0.0
 10
6.9576582947322274
 20
4.2453121815129355
 30
0.0
 10
6.9473462233934127
 20
4.2538871166784835
 30
0.0
 10
6.9373808460062634
 20
4.2635251147856668
 30
0.0
 10
6.9278613396723046
 20
4.2740810451245563
 30
0.0
  0
LINE
  5
295
100
AcDbEntity
  8
0
370
    35
390
0
 62
     7
 48
0.000136
100
AcDbLine
 10
6.927861
 20
4.274081
 30
0.0
 11
6.924257
 21
4.278159
 31
0.0
210
0.0
220
0.0
230
1.0
  0
SPLINE
  5
296
100
AcDbEntity
  8
0
370
    35
390
0
 62
     7
 48
0.03937
100
AcDbSpline
210
0.0
220
0.0
230
1.0
 70
     8
 71
     5
 72
    15
 73
     9
 74
     0
 42
0.0
 43
0.0
 40
0.0
 40
0.0
 40
0.0
 40
0.0
 40
0.0
 40
0.0
 40
7.9780670380986312
 40
7.9780670380986312
 40
7.9780670380986312
 40
16.049201709518453
 40
16.049201709518453
 40
16.049201709518453
 40
16.049201709518453
 40
16.049201709518453
 40
16.049201709518453
 10
6.9242572751790323
 20
4.2781594908064005
 30
0.0
 10
6.9089818469393052
 20
4.2957974884679286
 30
0.0
 10
6.8949593549084103
 20
4.3157664956641772
 30
0.0
 10
6.8825055277816043
 20
4.3375166921060755
 30
0.0
 10
6.8609508484704858
 20
4.3838124382734822
 30
0.0
 10
6.8470015245938605
 20
4.4336328034393269
 30
0.0
 10
6.8420987316328139
 20
4.4590655781711988
 30
0.0
 10
6.839437338228695
 20
4.484316978169427
 30
0.0
 10
6.8390964996175008
 20
4.508865872743832
 30
0.0
  0
ELLIPSE
  5
297
100
AcDbEntity
  8
0
370
    35
390
0
 62
     7
 48
0.03937
100
AcDbEllipse
 10
6.977076
 20
4.452086
 30
0.0
 11
-0.081431577428587
 21
0.2491195631051984
 31
0.0
210
0.0
220
0.0
230
1.0
 40
0.608973
 41
5.3670233043288675
 42
5.4078383217504333
  0
ELLIPSE
  5
298
100
AcDbEntity
  8
0
370
    35
390
0
 62
     7
 48
0.03937
100
AcDbEllipse
 10
7.579452
 20
5.183768
 30
0.0
 11
-0.6101429415806882
 21
1.866579867884798
 31
0.0
210
0.0
220
0.0
230
1.0
 40
0.608973
 41
3.1415595233208986
 42
6.2831521769106935
  0
ELLIPSE
  5
299
100
AcDbEntity
  8
0
370
    35
390
0
 62
     7
 48
0.03937
100
AcDbEllipse
 10
7.579452
 20
5.183768
 30
0.0
 11
-0.6101429415806882
 21
1.866579867884798
 31
0.0
210
0.0
220
0.0
230
1.0
 40
0.608973
 41
6.2831521769106935
 42
7.9378196311237623
  0
ELLIPSE
  5
29A
100
AcDbEntity
  8
0
370
    35
390
0
 62
     7
 48
0.03937
100
AcDbEllipse
 10
7.579452
 20
5.183768
 30
0.0
 11
-0.6101429415806882
 21
1.866579867884798
 31
0.0
210
0.0
220
0.0
230
1.0
 40
0.608973
 41
1.6546343239441779
 42
3.1415595233208986
  0
ELLIPSE
  5
29B
100
AcDbEntity
  8
0
370
    35
390
0
 62
     7
 48
0.03937
100
AcDbEllipse
 10
7.579452
 20
5.183768
 30
0.0
 11
-0.2500585826150362
 21
0.7649917491331141
 31
0.0
210
0.0
220
0.0
230
1.0
 40
0.608973
 41
3.1415595233208986
 42
4.796226977533971
  0
ELLIPSE
  5
29C
100
AcDbEntity
  8
0
370
    35
390
0
 62
     7
 48
0.03937
100
AcDbEllipse
 10
7.579452
 20
5.183768
 30
0.0
 11
-0.2500585826150362
 21
0.7649917491331141
 31
0.0
210
0.0
220
0.0
230
1.0
 40
0.608973
 41
4.796226977533971
 42
6.2831521769106935
  0
ELLIPSE
  5
29D
100
AcDbEntity
  8
0
370
    35
390
0
 62
     7
 48
0.03937
100
AcDbEllipse
 10
8.28179
 20
4.031435
 30
0.0
 11
-0.0814315774285863
 21
0.2491195631051986
 31
0.0
210
0.0
220
0.0
230
1.0
 40
0.608973
 41
0.6546343239441781
 42
4.0169576299450425
  0
ELLIPSE
  5
29E
100
AcDbEntity
  8
0
370
    35
390
0
 62
     7
 48
0.03937
100
AcDbEllipse
 10
8.28179
 20
4.031435
 30
0.0
 11
-0.0814315774285863
 21
0.2491195631051986
 31
0.0
210
0.0
220
0.0
230
1.0
 40
0.608973
 41
4.0169576299450451
 42
5.407838321750436
  0
ELLIPSE
  5
29F
100
AcDbEntity
  8
0
370
    35
390
0
 62
     7
 48
0.03937
100
AcDbEllipse
 10
8.28179
 20
4.031435
 30
0.0
 11
-0.0814315774285863
 21
0.2491195631051986
 31
0.0
210
0.0
220
0.0
230
1.0
 40
0.608973
 41
5.407838321750436
 42
6.9378196311237632
  0
ELLIPSE
  5
2A0
100
AcDbEntity
  8
0
370
    35
390
0
 62
     7
 48
0.03937
100
AcDbEllipse
 10
8.181829
 20
5.91545
 30
0.0
 11
-0.0814315774285853
 21
0.249119563105199
 31
0.0
210
0.0
220
0.0
230
1.0
 40
0.608973
 41
4.0169576299450469
 42
5.407838321750436
  0
ELLIPSE
  5
2A1
100
AcDbEntity
  8
0
370
    35
390
0
 62
     7
 48
0.03937
100
AcDbEllipse
 10
8.181829
 20
5.91545
 30
0.0
 11
-0.0814315774285853
 21
0.249119563105199
 31
0.0
210
0.0
220
0.0
230
1.0
 40
0.608973
 41
5.407838321750436
 42
8.5086159579186607
  0
ELLIPSE
  5
2A2
100
AcDbEntity
  8
0
370
    35
390
0
 62
     7
 48
0.03937
100
AcDbEllipse
 10
8.181829
 20
5.91545
 30
0.0
 11
-0.0814315774285853
 21
0.2491195631051989
 31
0.0
210
0.0
220
0.0
230
1.0
 40
0.608973
 41
2.2254306507390744
 42
4.0169576299450469
  0
ELLIPSE
  5
2A3
100
AcDbEntity
  8
0
370
    35
390
0
 62
     7
 48
0.03937
100
AcDbEllipse
 10
6.877115
 20
6.336101
 30
0.0
 11
-0.0814315774285863
 21
0.2491195631051986
 31
0.0
210
0.0
220
0.0
230
1.0
 40
0.608973
 41
5.4078383217504351
 42
10.300142937124628
  0
ELLIPSE
  5
2A4
100
AcDbEntity
  8
0
370
    35
390
0
 62
     7
 48
0.03937
100
AcDbEllipse
 10
6.877115
 20
6.336101
 30
0.0
 11
-0.0814315774285863
 21
0.2491195631051986
 31
0.0
210
0.0
220
0.0
230
1.0
 40
0.608973
 41
4.0169576299450451
 42
5.4078383217504351
  0
ELLIPSE
  5
2A5
100
AcDbEntity
  8
0
370
    35
390
0
 62
     7
 48
0.03937
100
AcDbEllipse
 10
8.641325
 20
5.53087
 30
0.0
 11
-0.6101429415806814
 21
1.8665798678848
 31
0.0
210
0.0
220
0.0
230
1.0
 40
0.608973
 41
3.1415595233208986
 42
6.2831521769106935
  0
ELLIPSE
  5
2A6
100
AcDbEntity
  8
0
370
    35
390
0
 62
     7
 48
0.03937
100
AcDbEllipse
 10
7.427756
 20
5.134182
 30
0.0
 11
-0.2500585826150364
 21
0.7649917491331137
 31
0.0
210
0.0
220
0.0
230
1.0
 40
0.608973
 41
6.2831521769106953
 42
9.4247448305004866
  0
ELLIPSE
  5
2A7
100
AcDbEntity
  8
0
370
    35
390
0
 62
     7
 48
0.03937
100
AcDbEllipse
 10
7.427756
 20
5.134182
 30
0.0
 11
-0.2500585826150364
 21
0.7649917491331137
 31
0.0
210
0.0
220
0.0
230
1.0
 40
0.608973
 41
3.1415595233208977
 42
4.796226977533971
  0
ELLIPSE
  5
2A8
100
AcDbEntity
  8
0
370
    35
390
0
 62
     7
 48
0.03937
100
AcDbEllipse
 10
7.427756
 20
5.134182
 30
0.0
 11
-0.2500585826150364
 21
0.7649917491331137
 31
0.0
210
0.0
220
0.0
230
1.0
 40
0.608973
 41
4.796226977533971
 42
6.2831521769106953
  0
ELLIPSE
  5
2A9
100
AcDbEntity
  8
0
370
    35
390
0
 62
     7
 48
0.03937
100
AcDbEllipse
 10
8.309922
 20
4.037546
 30
0.0
 11
0.0704144414931399
 21
-0.21356046084717
 31
0.0
210
0.0
220
0.0
230
1.0
 40
0.623944
 41
2.3316789265273159
 42
2.694948074419766
  0
SPLINE
  5
2AA
100
AcDbEntity
  8
0
370
    35
390
0
 62
     7
 48
0.03937
100
AcDbSpline
210
0.0
220
0.0
230
1.0
 70
     8
 71
     5
 72
    15
 73
     9
 74
     0
 42
0.0
 43
0.0
 40
0.0
 40
0.0
 40
0.0
 40
0.0
 40
0.0
 40
0.0
 40
10.491014433994181
 40
10.491014433994181
 40
10.491014433994181
 40
14.924751571377609
 40
14.924751571377609
 40
14.924751571377609
 40
14.924751571377609
 40
14.924751571377609
 40
14.924751571377609
 10
8.1739205607525527
 20
4.1846210630452578
 30
0.0
 10
8.1841624616401987
 20
4.2086840055820183
 30
0.0
 10
8.1981817130962149
 20
4.2288848097497391
 30
0.0
 10
8.2156733168300455
 20
4.2438660278370515
 30
0.0
 10
8.2442671362026694
 20
4.2562308261378048
 30
0.0
 10
8.2755626241111564
 20
4.2559301555162961
 30
0.0
 10
8.2850065891060876
 20
4.25472589085871
 30
0.0
 10
8.2945045940949544
 20
4.2524417992347701
 30
0.0
 10
8.3039713400731365
 20
4.2491338487567312
 30
0.0
  0
POLYLINE
  5
2AB
100
AcDbEntity
  8
0
370
    35
390
0
 62
     7
 48
0.03937
100
AcDb2dPolyline
 66
     1
 10
0.0
 20
0.0
 30
0.0
 71
     2
  0
VERTEX
  5
2AC
100
AcDbEntity
  8
0
370
     0
390
0
100
AcDbVertex
100
AcDb2dVertex
 10
8.441482
 20
3.879521
 30
0.0
 42
0.045548
  0
VERTEX
  5
2AD
100
AcDbEntity
  8
0
370
     0
390
0
100
AcDbVertex
100
AcDb2dVertex
 10
8.451289
 20
3.915832
 30
0.0
  0
SEQEND
  5
2AE
100
AcDbEntity
  8
0
370
     0
390
0
  0
ELLIPSE
  5
2AF
100
AcDbEntity
  8
0
370
    35
390
0
 62
     7
 48
0.03937
100
AcDbEllipse
 10
8.306095
 20
4.026381
 30
0.0
 11
0.0694363480148656
 21
-0.2175647165430125
 31
0.0
210
0.0
220
0.0
230
1.0
 40
0.604854
 41
5.3551199216632259
 42
5.8332143985862279
  0
SPLINE
  5
2B0
100
AcDbEntity
  8
0
370
    35
390
0
 62
     7
 48
0.03937
100
AcDbSpline
210
0.0
220
0.0
230
1.0
 70
     8
 71
     5
 72
    24
 73
    18
 74
     0
 42
0.0
 43
0.0
 40
0.0
 40
0.0
 40
0.0
 40
0.0
 40
0.0
 40
0.0
 40
3.7204664278353303
 40
3.7204664278353303
 40
3.7204664278353303
 40
11.3454584884435
 40
11.3454584884435
 40
11.3454584884435
 40
13.259126298714589
 40
13.259126298714589
 40
13.259126298714589
 40
17.005450487019758
 40
17.005450487019758
 40
17.005450487019758
 40
18.833363626050293
 40
18.833363626050293
 40
18.833363626050293
 40
18.833363626050293
 40
18.833363626050293
 40
18.833363626050293
 10
8.2423775487987019
 20
3.8623577980952062
 30
0.0
 10
8.2353344721082404
 20
3.8701615251058339
 30
0.0
 10
8.2285681143094855
 20
3.8784632762963396
 30
0.0
 10
8.2220679368259955
 20
3.887258642186707
 30
0.0
 10
8.2033109945132754
 20
3.9151629912856887
 30
0.0
 10
8.1875145465948744
 20
3.9467031731979678
 30
0.0
 10
8.1785721404700649
 20
3.9689712391223271
 30
0.0
 10
8.1696212040999985
 20
3.997477643973999
 30
0.0
 10
8.1635837096924018
 20
4.0262804743464766
 30
0.0
 10
8.1625211463521659
 20
4.0319031207152332
 30
0.0
 10
8.159661735399105
 20
4.0488721709265318
 30
0.0
 10
8.1578896788534134
 20
4.0653885152662994
 30
0.0
 10
8.1571781588902113
 20
4.0760409425267135
 30
0.0
 10
8.1567477713754641
 20
4.0916022076636871
 30
0.0
 10
8.1572951343959978
 20
4.1069386048805843
 30
0.0
 10
8.1575817972502662
 20
4.1119536496958622
 30
0.0
 10
8.1579800117995678
 20
4.1169565252996616
 30
0.0
 10
8.1584943065022557
 20
4.1219435902249115
 30
0.0
  0
ELLIPSE
  5
2B1
100
AcDbEntity
  8
0
370
    35
390
0
 62
     7
 48
0.03937
100
AcDbEllipse
 10
8.311646
 20
4.027887
 30
0.0
 11
0.0715413336700019
 21
-0.2234567187598812
 31
0.0
210
0.0
220
0.0
230
1.0
 40
0.613514
 41
3.7593573090052259
 42
4.0926662980958248
  0
SPLINE
  5
2B2
100
AcDbEntity
  8
0
370
    35
390
0
 62
     7
 48
0.03937
100
AcDbSpline
210
0.0
220
0.0
230
1.0
 70
     8
 71
     5
 72
    15
 73
     9
 74
     0
 42
0.0
 43
0.0
 40
0.0
 40
0.0
 40
0.0
 40
0.0
 40
0.0
 40
0.0
 40
7.5300216678539913
 40
7.5300216678539913
 40
7.5300216678539913
 40
14.918965279474424
 40
14.918965279474424
 40
14.918965279474424
 40
14.918965279474424
 40
14.918965279474424
 40
14.918965279474424
 10
8.4414736374400743
 20
3.8795243361173921
 30
0.0
 10
8.4345948486474729
 20
3.8612504796198759
 30
0.0
 10
8.4256325339384475
 20
3.8450533070483521
 30
0.0
 10
8.4147003396356563
 20
3.8315140169565067
 30
0.0
 10
8.3896582319288555
 20
3.8108347556008875
 30
0.0
 10
8.359406966202382
 20
3.8032650949610067
 30
0.0
 10
8.3435888734701802
 20
3.8029940590251461
 30
0.0
 10
8.3274395375129799
 20
3.806071865225634
 30
0.0
 10
8.3113840466140108
 20
3.8122057913827816
 30
0.0
  0
ELLIPSE
  5
2B3
100
AcDbEntity
  8
0
370
    35
390
0
 62
     7
 48
0.03937
100
AcDbEllipse
 10
8.218236
 20
5.92735
 30
0.0
 11
0.0664280624716847
 21
-0.2032200581572116
 31
0.0
210
0.0
220
0.0
230
1.0
 40
0.608973
 41
3.2235999162077142
 42
3.3582438833423418
  0
POLYLINE
  5
2B4
100
AcDbEntity
  8
0
370
    35
390
0
 62
     7
 48
0.03937
100
AcDb2dPolyline
 66
     1
 10
0.0
 20
0.0
 30
0.0
 71
     2
  0
VERTEX
  5
2B5
100
AcDbEntity
  8
0
370
     0
390
0
100
AcDbVertex
100
AcDb2dVertex
 10
8.071713
 20
6.004577
 30
0.0
 42
0.027748
  0
VERTEX
  5
2B6
100
AcDbEntity
  8
0
370
     0
390
0
100
AcDbVertex
100
AcDb2dVertex
 10
8.070285
 20
5.973714
 30
0.0
  0
SEQEND
  5
2B7
100
AcDbEntity
  8
0
370
     0
390
0
  0
ELLIPSE
  5
2B8
100
AcDbEntity
  8
0
370
    35
390
0
 62
     7
 48
0.03937
100
AcDbEllipse
 10
8.218587
 20
5.914366
 30
0.0
 11
0.06843636391148
 21
-0.2143906880871618
 31
0.0
210
0.0
220
0.0
230
1.0
 40
0.61374
 41
3.3296532941465302
 42
4.093258279044548
  0
SPLINE
  5
2B9
100
AcDbEntity
  8
0
370
    35
390
0
 62
     7
 48
0.03937
100
AcDbSpline
210
0.0
220
0.0
230
1.0
 70
     8
 71
     5
 72
    12
 73
     6
 74
     0
 42
0.0
 43
0.0
 40
0.0
 40
0.0
 40
0.0
 40
0.0
 40
0.0
 40
0.0
 40
15.79484260344532
 40
15.79484260344532
 40
15.79484260344532
 40
15.79484260344532
 40
15.79484260344532
 40
15.79484260344532
 10
8.1482262092677225
 20
5.7598257768201426
 30
0.0
 10
8.1199570016839893
 20
5.7926829611288495
 30
0.0
 10
8.0963232600589325
 20
5.8343015569979286
 30
0.0
 10
8.0794801864296861
 20
5.8809314496473553
 30
0.0
 10
8.0706338120867951
 20
5.9287028469222651
 30
0.0
 10
8.0702829066071242
 20
5.9737144009142451
 30
0.0
  0
SPLINE
  5
2BA
100
AcDbEntity
  8
0
370
    35
390
0
 62
     7
 48
0.03937
100
AcDbSpline
210
0.0
220
0.0
230
1.0
 70
     8
 71
     5
 72
    18
 73
    12
 74
     0
 42
0.0
 43
0.0
 40
0.0
 40
0.0
 40
0.0
 40
0.0
 40
0.0
 40
0.0
 40
7.6481864855267734
 40
7.6481864855267734
 40
7.6481864855267734
 40
10.728858528259066
 40
10.728858528259066
 40
10.728858528259066
 40
15.44459022094026
 40
15.44459022094026
 40
15.44459022094026
 40
15.44459022094026
 40
15.44459022094026
 40
15.44459022094026
 10
8.0785953531189314
 20
6.1383584252005781
 30
0.0
 10
8.0927292526336281
 20
6.1493469072124798
 30
0.0
 10
8.1085257684591703
 20
6.1570426206716968
 30
0.0
 10
8.1256659083264928
 20
6.1611099441763102
 30
0.0
 10
8.1508432691667334
 20
6.1614208375273378
 30
0.0
 10
8.176231057338347
 20
6.1548425194032745
 30
0.0
 10
8.1834956214334635
 20
6.1524111110195543
 30
0.0
 10
8.2018408463099348
 20
6.144901562392266
 30
0.0
 10
8.2197308314260447
 20
6.1342042666906424
 30
0.0
 10
8.2303164255893382
 20
6.1266551245064607
 30
0.0
 10
8.2406050464505629
 20
6.118104441625043
 30
0.0
 10
8.2505237984124502
 20
6.1086521955579425
 30
0.0
  0
POLYLINE
  5
2BB
100
AcDbEntity
  8
0
370
    35
390
0
 62
     7
 48
0.03937
100
AcDb2dPolyline
 66
     1
 10
0.0
 20
0.0
 30
0.0
 71
     2
  0
VERTEX
  5
2BC
100
AcDbEntity
  8
0
370
     0
390
0
100
AcDbVertex
100
AcDb2dVertex
 10
8.141891
 20
6.126568
 30
0.0
 42
0.04199
  0
VERTEX
  5
2BD
100
AcDbEntity
  8
0
370
     0
390
0
100
AcDbVertex
100
AcDb2dVertex
 10
8.078596
 20
6.138364
 30
0.0
  0
SEQEND
  5
2BE
100
AcDbEntity
  8
0
370
     0
390
0
  0
SPLINE
  5
2BF
100
AcDbEntity
  8
0
370
    35
390
0
 62
     7
 48
0.03937
100
AcDbSpline
210
0.0
220
0.0
230
1.0
 70
     8
 71
     5
 72
    30
 73
    24
 74
     0
 42
0.0
 43
0.0
 40
0.0
 40
0.0
 40
0.0
 40
0.0
 40
0.0
 40
0.0
 40
4.9699485045466139
 40
4.9699485045466139
 40
4.9699485045466139
 40
12.215484879540373
 40
12.215484879540373
 40
12.215484879540373
 40
14.602886127257664
 40
14.602886127257664
 40
14.602886127257664
 40
19.367059587665267
 40
19.367059587665267
 40
19.367059587665267
 40
21.789724541822533
 40
21.789724541822533
 40
21.789724541822533
 40
22.985705156000495
 40
22.985705156000495
 40
22.985705156000495
 40
24.181685770178458
 40
24.181685770178458
 40
24.181685770178458
 40
24.181685770178458
 40
24.181685770178458
 40
24.181685770178458
 10
8.3517927290807581
 20
5.803423560888584
 30
0.0
 10
8.3491923356074089
 20
5.7900743241495434
 30
0.0
 10
8.3456692698044659
 20
5.7774004486855128
 30
0.0
 10
8.3412590050540398
 20
5.7656697732393276
 30
0.0
 10
8.3283407730524459
 20
5.739229583474402
 30
0.0
 10
8.310358188657526
 20
5.7192839517619962
 30
0.0
 10
8.2980800893709095
 20
5.7102509337972371
 30
0.0
 10
8.2801214792507114
 20
5.7024614952260029
 30
0.0
 10
8.2609035214888671
 20
5.7002369197265148
 30
0.0
 10
8.2560836793487624
 20
5.7000268276255346
 30
0.0
 10
8.2415667711674789
 20
5.7004080473468237
 30
0.0
 10
8.2272491063142823
 20
5.7036074297299812
 30
0.0
 10
8.2178316816894856
 20
5.7068362679089217
 30
0.0
 10
8.2037037657732288
 20
5.7132571562083987
 30
0.0
 10
8.1893993376524854
 20
5.7223526723697606
 30
0.0
 10
8.184552214014774
 20
5.725736114984513
 30
0.0
 10
8.1773335394094264
 20
5.7312503214710766
 30
0.0
 10
8.1702562989050591
 20
5.737356391626947
 30
0.0
 10
8.1679394944021002
 20
5.7394331342318976
 30
0.0
 10
8.1633465688246698
 20
5.7437053102899922
 30
0.0
 10
8.1588421291750457
 20
5.7482064001794404
 30
0.0
 10
8.1566127239846242
 20
5.7505129791546024
 30
0.0
 10
8.1544081874865117
 20
5.7528729050275249
 30
0.0
 10
8.1522290882674486
 20
5.7552849604758674
 30
0.0
  0
LINE
  5
2C0
100
AcDbEntity
  8
0
370
    35
390
0
 62
     7
 48
0.000151
100
AcDbLine
 10
8.152229
 20
5.755285
 30
0.0
 11
8.148226
 21
5.759826
 31
0.0
210
0.0
220
0.0
230
1.0
  0
ELLIPSE
  5
2C1
100
AcDbEntity
  8
0
370
    35
390
0
 62
     7
 48
0.03937
100
AcDbEllipse
 10
6.913522
 20
6.348002
 30
0.0
 11
0.0664280624716842
 21
-0.2032200581572117
 31
0.0
210
0.0
220
0.0
230
1.0
 40
0.608973
 41
4.7943962430026081
 42
4.929040210137237
  0
ELLIPSE
  5
2C2
100
AcDbEntity
  8
0
370
    35
390
0
 62
     7
 48
0.03937
100
AcDbEllipse
 10
6.915554
 20
6.335689
 30
0.0
 11
0.0636107219770133
 21
-0.199754845356105
 31
0.0
210
0.0
220
0.0
230
1.0
 40
0.604493
 41
5.3577046485373083
 42
5.8262378002245105
  0
ELLIPSE
  5
2C3
100
AcDbEntity
  8
0
370
    35
390
0
 62
     7
 48
0.03937
100
AcDbEllipse
 10
6.91592
 20
6.336962
 30
0.0
 11
0.0632264296485194
 21
-0.201124471413523
 31
0.0
210
0.0
220
0.0
230
1.0
 40
0.604716
 41
4.8846980155792634
 42
5.3622461641346115
  0
SPLINE
  5
2C4
100
AcDbEntity
  8
0
370
    35
390
0
 62
     7
 48
0.03937
100
AcDbSpline
210
0.0
220
0.0
230
1.0
 70
     8
 71
     5
 72
    15
 73
     9
 74
     0
 42
0.0
 43
0.0
 40
0.0
 40
0.0
 40
0.0
 40
0.0
 40
0.0
 40
0.0
 40
8.9510408117023434
 40
8.9510408117023434
 40
8.9510408117023434
 40
14.827314035109989
 40
14.827314035109989
 40
14.827314035109989
 40
14.827314035109989
 40
14.827314035109989
 40
14.827314035109989
 10
7.0397085093201053
 20
6.2008033874369577
 30
0.0
 10
7.0320699393421107
 20
6.1805386383183514
 30
0.0
 10
7.0216611244116587
 20
6.1631052606886128
 30
0.0
 10
7.008660798864164
 20
6.1493588264429651
 30
0.0
 10
6.9836323954494777
 20
6.1339205341430123
 30
0.0
 10
6.9548930727898224
 20
6.1310681678518577
 30
0.0
 10
6.9431297303184225
 20
6.1319587856805038
 30
0.0
 10
6.9312182184625719
 20
6.1348025578311898
 30
0.0
 10
6.9193623422236135
 20
6.1394628210080251
 30
0.0
  0
ELLIPSE
  5
2C5
100
AcDbEntity
  8
0
370
    35
390
0
 62
     7
 48
0.03937
100
AcDbEllipse
 10
6.890259
 20
6.329242
 30
0.0
 11
0.0750277051979188
 21
-0.239390222053389
 31
0.0
210
0.0
220
0.0
230
1.0
 40
0.610995
 41
4.099973751984229
 42
4.9228846149178613
  0
ELLIPSE
  5
2C6
100
AcDbEntity
  8
0
370
    35
390
0
 62
     7
 48
0.03937
100
AcDbEllipse
 10
6.892729
 20
6.328022
 30
0.0
 11
0.0772549377830598
 21
-0.2411949113984253
 31
0.0
210
0.0
220
0.0
230
1.0
 40
0.613177
 41
3.7624370539336707
 42
4.0935790079450136
  0
POLYLINE
  5
2C7
100
AcDbEntity
  8
0
370
    35
390
0
 62
     7
 48
0.03937
100
AcDb2dPolyline
 66
     1
 10
0.0
 20
0.0
 30
0.0
 71
     2
  0
VERTEX
  5
2C8
100
AcDbEntity
  8
0
370
     0
390
0
100
AcDbVertex
100
AcDb2dVertex
 10
6.795615
 20
6.291044
 30
0.0
 42
0.047194
  0
VERTEX
  5
2C9
100
AcDbEntity
  8
0
370
     0
390
0
100
AcDbVertex
100
AcDb2dVertex
 10
6.762908
 20
6.234388
 30
0.0
  0
SEQEND
  5
2CA
100
AcDbEntity
  8
0
370
     0
390
0
  0
ELLIPSE
  5
2CB
100
AcDbEntity
  8
0
370
    35
390
0
 62
     7
 48
0.03937
100
AcDbEllipse
 10
6.89112
 20
6.337799
 30
0.0
 11
0.0762777202792418
 21
-0.2311716712802536
 31
0.0
210
0.0
220
0.0
230
1.0
 40
0.622901
 41
2.2963242229109793
 42
2.7005145365982237
  0
POLYLINE
  5
2CC
100
AcDbEntity
  8
0
370
    35
390
0
 62
     7
 48
0.03937
100
AcDb2dPolyline
 66
     1
 10
0.0
 20
0.0
 30
0.0
 71
     2
  0
VERTEX
  5
2CD
100
AcDbEntity
  8
0
370
     0
390
0
100
AcDbVertex
100
AcDb2dVertex
 10
7.039713
 20
6.200802
 30
0.0
 42
0.037952
  0
VERTEX
  5
2CE
100
AcDbEntity
  8
0
370
     0
390
0
100
AcDbVertex
100
AcDb2dVertex
 10
7.047496
 20
6.227764
 30
0.0
  0
SEQEND
  5
2CF
100
AcDbEntity
  8
0
370
     0
390
0
  0
SPLINE
  5
2D0
100
AcDbEntity
  8
0
370
    35
390
0
 62
     7
 48
0.03937
100
AcDbSpline
210
0.0
220
0.0
230
1.0
 70
     8
 71
     5
 72
    15
 73
     9
 74
     0
 42
0.0
 43
0.0
 40
0.0
 40
0.0
 40
0.0
 40
0.0
 40
0.0
 40
0.0
 40
7.5781708728565613
 40
7.5781708728565613
 40
7.5781708728565613
 40
15.020200143877366
 40
15.020200143877366
 40
15.020200143877366
 40
15.020200143877366
 40
15.020200143877366
 40
15.020200143877366
 10
6.7438572321639061
 20
6.4966500696319587
 30
0.0
 10
6.7516945221551889
 20
6.5152502361572884
 30
0.0
 10
6.7616254718481299
 20
6.5317620838092747
 30
0.0
 10
6.7735281258634883
 20
6.5456100625596125
 30
0.0
 10
6.8005013674953592
 20
6.5669145811771354
 30
0.0
 10
6.832691684055229
 20
6.5751245291490514
 30
0.0
 10
6.8494772561435475
 20
6.5757172658222061
 30
0.0
 10
6.8665938284511885
 20
6.5729570363202656
 30
0.0
 10
6.8836167052787101
 20
6.5671294812150256
 30
0.0
  0
ELLIPSE
  5
2D1
100
AcDbEntity
  8
0
370
    35
390
0
 62
     7
 48
0.03937
100
AcDbEllipse
 10
7.427756
 20
5.134182
 30
0.0
 11
-0.1250292913075182
 21
0.3824958745665569
 31
0.0
210
0.0
220
0.0
230
1.0
 40
0.608973
 41
6.2831401961152498
 42
9.4247328497050429
  0
ELLIPSE
  5
2D2
100
AcDbEntity
  8
0
370
    35
390
0
 62
     7
 48
0.03937
100
AcDbEllipse
 10
7.427756
 20
5.134182
 30
0.0
 11
-0.1250292913075182
 21
0.3824958745665569
 31
0.0
210
0.0
220
0.0
230
1.0
 40
0.608973
 41
3.1415475425254558
 42
4.7962269775339728
  0
ELLIPSE
  5
2D3
100
AcDbEntity
  8
0
370
    35
390
0
 62
     7
 48
0.03937
100
AcDbEllipse
 10
7.427756
 20
5.134182
 30
0.0
 11
-0.1250292913075182
 21
0.3824958745665569
 31
0.0
210
0.0
220
0.0
230
1.0
 40
0.608973
 41
4.7962269775339728
 42
6.2831401961152498
  0
POLYLINE
  5
2D4
100
AcDbEntity
  8
0
370
    35
390
0
 62
     7
 48
0.03937
100
AcDb2dPolyline
 66
     1
 10
0.0
 20
0.0
 30
0.0
 71
     2
  0
VERTEX
  5
2D5
100
AcDbEntity
  8
0
370
     0
390
0
100
AcDbVertex
100
AcDb2dVertex
 10
6.945973
 20
6.480906
 30
0.0
 42
0.028245
  0
VERTEX
  5
2D6
100
AcDbEntity
  8
0
370
     0
390
0
100
AcDbVertex
100
AcDb2dVertex
 10
6.94452
 20
6.449064
 30
0.0
  0
SEQEND
  5
2D7
100
AcDbEntity
  8
0
370
     0
390
0
  0
POLYLINE
  5
2D8
100
AcDbEntity
  8
0
370
    35
390
0
 62
     7
 48
0.03937
100
AcDb2dPolyline
 66
     1
 10
0.0
 20
0.0
 30
0.0
 71
     2
  0
VERTEX
  5
2D9
100
AcDbEntity
  8
0
370
     0
390
0
100
AcDbVertex
100
AcDb2dVertex
 10
6.95355
 20
6.520887
 30
0.0
 42
0.04368
  0
VERTEX
  5
2DA
100
AcDbEntity
  8
0
370
     0
390
0
100
AcDbVertex
100
AcDb2dVertex
 10
6.945983
 20
6.480905
 30
0.0
  0
SEQEND
  5
2DB
100
AcDbEntity
  8
0
370
     0
390
0
  0
ELLIPSE
  5
2DC
100
AcDbEntity
  8
0
370
    35
390
0
 62
     7
 48
0.03937
100
AcDbEllipse
 10
7.092611
 20
6.395599
 30
0.0
 11
0.064284690030323
 21
-0.2145123317994977
 31
0.0
210
0.0
220
0.0
230
1.0
 40
0.628116
 41
3.9099035495212329
 42
4.2807066958661393
  0
POLYLINE
  5
2DD
100
AcDbEntity
  8
0
370
    35
390
0
 62
     7
 48
0.03937
100
AcDb2dPolyline
 66
     1
 10
0.0
 20
0.0
 30
0.0
 71
     2
  0
VERTEX
  5
2DE
100
AcDbEntity
  8
0
370
     0
390
0
100
AcDbVertex
100
AcDb2dVertex
 10
6.89081
 20
6.462875
 30
0.0
 42
0.028245
  0
VERTEX
  5
2DF
100
AcDbEntity
  8
0
370
     0
390
0
100
AcDbVertex
100
AcDb2dVertex
 10
6.889358
 20
6.431032
 30
0.0
  0
SEQEND
  5
2E0
100
AcDbEntity
  8
0
370
     0
390
0
  0
ELLIPSE
  5
2E1
100
AcDbEntity
  8
0
370
    35
390
0
 62
     7
 48
0.03937
100
AcDbEllipse
 10
7.040782
 20
6.376298
 30
0.0
 11
0.0666463930805296
 21
-0.2162975382555241
 31
0.0
210
0.0
220
0.0
230
1.0
 40
0.628704
 41
3.7869473694978568
 42
4.1171938059934741
  0
ELLIPSE
  5
2E2
100
AcDbEntity
  8
0
370
    35
390
0
 62
     7
 48
0.03937
100
AcDbEllipse
 10
7.038189
 20
6.377106
 30
0.0
 11
0.0650366701327902
 21
-0.2150701557827941
 31
0.0
210
0.0
220
0.0
230
1.0
 40
0.628631
 41
3.79202778278187
 42
4.2774667248564189
  0
POLYLINE
  5
2E3
100
AcDbEntity
  8
0
370
    35
390
0
 62
     7
 48
0.03937
100
AcDb2dPolyline
 66
     1
 10
0.0
 20
0.0
 30
0.0
 71
     2
  0
VERTEX
  5
2E4
100
AcDbEntity
  8
0
370
     0
390
0
100
AcDbVertex
100
AcDb2dVertex
 10
6.835648
 20
6.444843
 30
0.0
 42
0.028245
  0
VERTEX
  5
2E5
100
AcDbEntity
  8
0
370
     0
390
0
100
AcDbVertex
100
AcDb2dVertex
 10
6.834196
 20
6.413001
 30
0.0
  0
SEQEND
  5
2E6
100
AcDbEntity
  8
0
370
     0
390
0
  0
ELLIPSE
  5
2E7
100
AcDbEntity
  8
0
370
    35
390
0
 62
     7
 48
0.03937
100
AcDbEllipse
 10
6.98562
 20
6.358267
 30
0.0
 11
0.0666464463077855
 21
-0.2162976010058877
 31
0.0
210
0.0
220
0.0
230
1.0
 40
0.628704
 41
3.7869471144589237
 42
4.117193486036764
  0
ELLIPSE
  5
2E8
100
AcDbEntity
  8
0
370
    35
390
0
 62
     7
 48
0.03937
100
AcDbEllipse
 10
6.983027
 20
6.359075
 30
0.0
 11
0.0650368480473482
 21
-0.2150702763621941
 31
0.0
210
0.0
220
0.0
230
1.0
 40
0.628631
 41
3.7920271760120801
 42
4.2774658872361719
  0
POLYLINE
  5
2E9
100
AcDbEntity
  8
0
370
    35
390
0
 62
     7
 48
0.03937
100
AcDb2dPolyline
 66
     1
 10
0.0
 20
0.0
 30
0.0
 71
     2
  0
VERTEX
  5
2EA
100
AcDbEntity
  8
0
370
     0
390
0
100
AcDbVertex
100
AcDb2dVertex
 10
6.780486
 20
6.426812
 30
0.0
 42
0.028245
  0
VERTEX
  5
2EB
100
AcDbEntity
  8
0
370
     0
390
0
100
AcDbVertex
100
AcDb2dVertex
 10
6.779034
 20
6.39497
 30
0.0
  0
SEQEND
  5
2EC
100
AcDbEntity
  8
0
370
     0
390
0
  0
ELLIPSE
  5
2ED
100
AcDbEntity
  8
0
370
    35
390
0
 62
     7
 48
0.03937
100
AcDbEllipse
 10
6.930457
 20
6.340236
 30
0.0
 11
0.0666462838177762
 21
-0.216297480177807
 31
0.0
210
0.0
220
0.0
230
1.0
 40
0.628704
 41
3.7869476569040295
 42
4.1171941788318165
  0
ELLIPSE
  5
2EE
100
AcDbEntity
  8
0
370
    35
390
0
 62
     7
 48
0.03937
100
AcDbEllipse
 10
6.927865
 20
6.341043
 30
0.0
 11
0.0650366937146624
 21
-0.2150701717103938
 31
0.0
210
0.0
220
0.0
230
1.0
 40
0.628631
 41
3.7920276221389124
 42
4.2774665603512823
  0
ELLIPSE
  5
2EF
100
AcDbEntity
  8
0
370
    35
390
0
 62
     7
 48
0.03937
100
AcDbEllipse
 10
6.919033
 20
6.343973
 30
0.0
 11
0.0582044102422067
 21
-0.2088950676921931
 31
0.0
210
0.0
220
0.0
230
1.0
 40
0.615826
 41
4.3013405658108557
 42
4.7948847819609357
  0
SPLINE
  5
2F0
100
AcDbEntity
  8
0
370
    35
390
0
 62
     7
 48
0.03937
100
AcDbSpline
210
0.0
220
0.0
230
1.0
 70
     8
 71
     5
 72
    12
 73
     6
 74
     0
 42
0.0
 43
0.0
 40
0.0
 40
0.0
 40
0.0
 40
0.0
 40
0.0
 40
0.0
 40
7.6109230725290553
 40
7.6109230725290553
 40
7.6109230725290553
 40
7.6109230725290553
 40
7.6109230725290553
 40
7.6109230725290553
 10
6.7790313719233097
 20
6.3949697643543804
 30
0.0
 10
6.7792806821385829
 20
6.3687520941776832
 30
0.0
 10
6.7823877665305066
 20
6.341893194876735
 30
0.0
 10
6.7881845219608419
 20
6.3151663606142439
 30
0.0
 10
6.7964450648913921
 20
6.2892540221204927
 30
0.0
 10
6.8069389128123277
 20
6.264810034100246
 30
0.0
  0
POLYLINE
  5
2F1
100
AcDbEntity
  8
0
370
    35
390
0
 62
     7
 48
0.03937
100
AcDb2dPolyline
 66
     1
 10
0.0
 20
0.0
 30
0.0
 71
     2
  0
VERTEX
  5
2F2
100
AcDbEntity
  8
0
370
     0
390
0
100
AcDbVertex
100
AcDb2dVertex
 10
8.235661
 20
6.121721
 30
0.0
 42
0.045983
  0
VERTEX
  5
2F3
100
AcDbEntity
  8
0
370
     0
390
0
100
AcDbVertex
100
AcDb2dVertex
 10
8.211881
 20
6.131012
 30
0.0
  0
SEQEND
  5
2F4
100
AcDbEntity
  8
0
370
     0
390
0
  0
ELLIPSE
  5
2F5
100
AcDbEntity
  8
0
370
    35
390
0
 62
     7
 48
0.03937
100
AcDbEllipse
 10
8.22525
 20
5.908456
 30
0.0
 11
0.0727454319922133
 21
-0.2223427383712651
 31
0.0
210
0.0
220
0.0
230
1.0
 40
0.623453
 41
2.7438290443707416
 42
3.1414237210398412
  0
POLYLINE
  5
2F6
100
AcDbEntity
  8
0
370
    35
390
0
 62
     7
 48
0.03937
100
AcDb2dPolyline
 66
     1
 10
0.0
 20
0.0
 30
0.0
 71
     2
  0
VERTEX
  5
2F7
100
AcDbEntity
  8
0
370
     0
390
0
100
AcDbVertex
100
AcDb2dVertex
 10
8.152528
 20
6.130806
 30
0.0
 42
0.031363
  0
VERTEX
  5
2F8
100
AcDbEntity
  8
0
370
     0
390
0
100
AcDbVertex
100
AcDb2dVertex
 10
8.141893
 20
6.126574
 30
0.0
  0
SEQEND
  5
2F9
100
AcDbEntity
  8
0
370
     0
390
0
  0
POLYLINE
  5
2FA
100
AcDbEntity
  8
0
370
    35
390
0
 62
     7
 48
0.03937
100
AcDb2dPolyline
 66
     1
 10
0.0
 20
0.0
 30
0.0
 71
     2
  0
VERTEX
  5
2FB
100
AcDbEntity
  8
0
370
     0
390
0
100
AcDbVertex
100
AcDb2dVertex
 10
8.153159
 20
6.131014
 30
0.0
 42
0.080101
  0
VERTEX
  5
2FC
100
AcDbEntity
  8
0
370
     0
390
0
100
AcDbVertex
100
AcDb2dVertex
 10
8.126761
 20
6.11712
 30
0.0
  0
SEQEND
  5
2FD
100
AcDbEntity
  8
0
370
     0
390
0
  0
SPLINE
  5
2FE
100
AcDbEntity
  8
0
370
    35
390
0
 62
     7
 48
0.03937
100
AcDbSpline
210
0.0
220
0.0
230
1.0
 70
     8
 71
     5
 72
    15
 73
     9
 74
     0
 42
0.0
 43
0.0
 40
0.0
 40
0.0
 40
0.0
 40
0.0
 40
0.0
 40
0.0
 40
7.2570054979676986
 40
7.2570054979676986
 40
7.2570054979676986
 40
12.201283620445794
 40
12.201283620445794
 40
12.201283620445794
 40
12.201283620445794
 40
12.201283620445794
 40
12.201283620445794
 10
8.2961645178980454
 20
3.8823605853733945
 30
0.0
 10
8.2761788981162585
 20
3.9066966545849082
 30
0.0
 10
8.2587709208882494
 20
3.9347428252723344
 30
0.0
 10
8.2443063660163052
 20
3.9651752405643816
 30
0.0
 10
8.2251958810602588
 20
4.0189036292889186
 30
0.0
 10
8.2155661265252693
 20
4.0748497502067487
 30
0.0
 10
8.2133028676128728
 20
4.0976517688662515
 30
0.0
 10
8.2127952549145071
 20
4.1202947994095922
 30
0.0
 10
8.2141674658737376
 20
4.1424307612520748
 30
0.0
  0
POLYLINE
  5
2FF
100
AcDbEntity
  8
0
370
    35
390
0
 62
     7
 48
0.03937
100
AcDb2dPolyline
 66
     1
 10
0.0
 20
0.0
 30
0.0
 71
     2
  0
VERTEX
  5
300
100
AcDbEntity
  8
0
370
     0
390
0
100
AcDbVertex
100
AcDb2dVertex
 10
8.21274
 20
4.131145
 30
0.0
 42
0.028228
  0
VERTEX
  5
301
100
AcDbEntity
  8
0
370
     0
390
0
100
AcDbVertex
100
AcDb2dVertex
 10
8.211289
 20
4.09932
 30
0.0
  0
SEQEND
  5
302
100
AcDbEntity
  8
0
370
     0
390
0
  0
SPLINE
  5
303
100
AcDbEntity
  8
0
370
    35
390
0
 62
     7
 48
0.03937
100
AcDbSpline
210
0.0
220
0.0
230
1.0
 70
     8
 71
     5
 72
    18
 73
    12
 74
     0
 42
0.0
 43
0.0
 40
0.0
 40
0.0
 40
0.0
 40
0.0
 40
0.0
 40
0.0
 40
5.104056441345505
 40
5.104056441345505
 40
5.104056441345505
 40
8.0558701648302993
 40
8.0558701648302993
 40
8.0558701648302993
 40
9.9524585207577747
 40
9.9524585207577747
 40
9.9524585207577747
 40
9.9524585207577747
 40
9.9524585207577747
 40
9.9524585207577747
 10
8.212742202161099
 20
4.1311447428425527
 30
0.0
 10
8.2145110917884701
 20
4.1481741538434154
 30
0.0
 10
8.2176318584173433
 20
4.1647013482703779
 30
0.0
 10
8.2221552450137914
 20
4.1803630884289715
 30
0.0
 10
8.2314444927392092
 20
4.2031920819205091
 30
0.0
 10
8.2439999370951167
 20
4.2224326511356614
 30
0.0
 10
8.2490569674895582
 20
4.2289968348920643
 30
0.0
 10
8.2580779406479881
 20
4.2388242182649645
 30
0.0
 10
8.268173995714621
 20
4.2469316025251862
 30
0.0
 10
8.272286250411284
 20
4.2498284643727029
 30
0.0
 10
8.2765244287427393
 20
4.2524216829420931
 30
0.0
 10
8.2808810828478325
 20
4.2547106482954984
 30
0.0
  0
SPLINE
  5
304
100
AcDbEntity
  8
0
370
    35
390
0
 62
     7
 48
0.03937
100
AcDbSpline
210
0.0
220
0.0
230
1.0
 70
     8
 71
     5
 72
    18
 73
    12
 74
     0
 42
0.0
 43
0.0
 40
0.0
 40
0.0
 40
0.0
 40
0.0
 40
0.0
 40
0.0
 40
6.6254174260280285
 40
6.6254174260280285
 40
6.6254174260280285
 40
9.2600593356675329
 40
9.2600593356675329
 40
9.2600593356675329
 40
13.125027134154974
 40
13.125027134154974
 40
13.125027134154974
 40
13.125027134154974
 40
13.125027134154974
 40
13.125027134154974
 10
8.211287086411426
 20
4.0993198903986539
 30
0.0
 10
8.2115041145198884
 20
4.076497033401818
 30
0.0
 10
8.2138867500588955
 20
4.0531882559956545
 30
0.0
 10
8.2183266440879343
 20
4.0298123918042199
 30
0.0
 10
8.2272823567598188
 20
3.9977645134875073
 30
0.0
 10
8.2396148297966967
 20
3.967710665347755
 30
0.0
 10
8.2434019827684484
 20
3.9593085417908664
 30
0.0
 10
8.2533807631299165
 20
3.9390898194039492
 30
0.0
 10
8.2649426304612152
 20
3.9201741124608396
 30
0.0
 10
8.2723371471726921
 20
3.9095140187532684
 30
0.0
 10
8.2801736897027247
 20
3.8995987019288818
 30
0.0
 10
8.28835722642558
 20
3.8905502336534901
 30
0.0
  0
ELLIPSE
  5
305
100
AcDbEntity
  8
0
370
    35
390
0
 62
     7
 48
0.03937
100
AcDbEllipse
 10
8.339813
 20
4.035496
 30
0.0
 11
0.0600081069121411
 21
-0.190458468544224
 31
0.0
210
0.0
220
0.0
230
1.0
 40
0.588236
 41
5.3746130449933185
 42
5.8495971974315237
  0
ELLIPSE
  5
306
100
AcDbEntity
  8
0
370
    35
390
0
 62
     7
 48
0.03937
100
AcDbEllipse
 10
8.339785
 20
4.030707
 30
0.0
 11
0.0604872500804228
 21
-0.1854757150364745
 31
0.0
210
0.0
220
0.0
230
1.0
 40
0.592311
 41
5.8390462367642284
 42
6.2784005256832476
  0
SPLINE
  5
307
100
AcDbEntity
  8
0
370
    35
390
0
 62
     7
 48
0.03937
100
AcDbSpline
210
0.0
220
0.0
230
1.0
 70
     8
 71
     5
 72
    21
 73
    15
 74
     0
 42
0.0
 43
0.0
 40
0.0
 40
0.0
 40
0.0
 40
0.0
 40
0.0
 40
0.0
 40
7.5972308916355518
 40
7.5972308916355518
 40
7.5972308916355518
 40
13.21078959801968
 40
13.21078959801968
 40
13.21078959801968
 40
15.024797664017019
 40
15.024797664017019
 40
15.024797664017019
 40
18.449651792301651
 40
18.449651792301651
 40
18.449651792301651
 40
18.449651792301651
 40
18.449651792301651
 40
18.449651792301651
 10
8.2652669474688505
 20
4.1169646918766736
 30
0.0
 10
8.2655158091727383
 20
4.0907941877391112
 30
0.0
 10
8.2686123735082262
 20
4.0639837865968236
 30
0.0
 10
8.2743909123705457
 20
4.0373023033326598
 30
0.0
 10
8.2887080857506241
 20
3.9923100682722197
 30
0.0
 10
8.3097543170402943
 20
3.951742555366561
 30
0.0
 10
8.3198924807822863
 20
3.9354174535558952
 30
0.0
 10
8.334705901257454
 20
3.9157039658860859
 30
0.0
 10
8.3507853507473353
 20
3.8992110977984673
 30
0.0
 10
8.3547830332109587
 20
3.8953828531951928
 30
0.0
 10
8.3665010928774812
 20
3.884938606907506
 30
0.0
 10
8.3787193908296551
 20
3.876292970652305
 30
0.0
 10
8.3868644644509285
 20
3.8714858856892973
 30
0.0
 10
8.3950943571243659
 20
3.867600454574895
 30
0.0
 10
8.4033249023046217
 20
3.8646911139891889
 30
0.0
  0
SPLINE
  5
308
100
AcDbEntity
  8
0
370
    35
390
0
 62
     7
 48
0.03937
100
AcDbSpline
210
0.0
220
0.0
230
1.0
 70
     8
 71
     5
 72
    15
 73
     9
 74
     0
 42
0.0
 43
0.0
 40
0.0
 40
0.0
 40
0.0
 40
0.0
 40
0.0
 40
0.0
 40
5.4897471305025363
 40
5.4897471305025363
 40
5.4897471305025363
 40
8.9700433068974892
 40
8.9700433068974892
 40
8.9700433068974892
 40
8.9700433068974892
 40
8.9700433068974892
 40
8.9700433068974892
 10
8.2652669474688505
 20
4.1169646918766736
 30
0.0
 10
8.2650871203918168
 20
4.1358754571334151
 30
0.0
 10
8.2663942195203166
 20
4.1544520959771578
 30
0.0
 10
8.2692559672440513
 20
4.1725498940572781
 30
0.0
 10
8.276648270898761
 20
4.200530846647319
 30
0.0
 10
8.2881985372963811
 20
4.2246991111828942
 30
0.0
 10
8.2932858930011086
 20
4.2334131463098226
 30
0.0
 10
8.2989953594307906
 20
4.2414335968340904
 30
0.0
 10
8.3053040165929417
 20
4.2486599797119418
 30
0.0
  0
POLYLINE
  5
309
100
AcDbEntity
  8
0
370
    35
390
0
 62
     7
 48
0.03937
100
AcDb2dPolyline
 66
     1
 10
0.0
 20
0.0
 30
0.0
 71
     2
  0
VERTEX
  5
30A
100
AcDbEntity
  8
0
370
     0
390
0
100
AcDbVertex
100
AcDb2dVertex
 10
8.402365
 20
3.86587
 30
0.0
 42
0.064129
  0
VERTEX
  5
30B
100
AcDbEntity
  8
0
370
     0
390
0
100
AcDbVertex
100
AcDb2dVertex
 10
8.425278
 20
3.860265
 30
0.0
  0
SEQEND
  5
30C
100
AcDbEntity
  8
0
370
     0
390
0
  0
SPLINE
  5
30D
100
AcDbEntity
  8
0
370
    35
390
0
 62
     7
 48
0.03937
100
AcDbSpline
210
0.0
220
0.0
230
1.0
 70
     8
 71
     5
 72
    15
 73
     9
 74
     0
 42
0.0
 43
0.0
 40
0.0
 40
0.0
 40
0.0
 40
0.0
 40
0.0
 40
0.0
 40
7.5795417364716
 40
7.5795417364716
 40
7.5795417364716
 40
12.756761156376871
 40
12.756761156376871
 40
12.756761156376871
 40
12.756761156376871
 40
12.756761156376871
 40
12.756761156376871
 10
8.2458208776936939
 20
3.858618199477724
 30
0.0
 10
8.224439994850453
 20
3.8832775982966528
 30
0.0
 10
8.20580393502199
 20
3.9122034808693029
 30
0.0
 10
8.1903681495215626
 20
3.9438296402613342
 30
0.0
 10
8.1700576370657192
 20
3.9999123496154425
 30
0.0
 10
8.1601031002768654
 20
4.0584418433321394
 30
0.0
 10
8.1578628223883278
 20
4.08233215178136
 30
0.0
 10
8.1575580467634463
 20
4.1060237234486223
 30
0.0
 10
8.1593319595894371
 20
4.1291078787049527
 30
0.0
  0
POLYLINE
  5
30E
100
AcDbEntity
  8
0
370
    35
390
0
 62
     7
 48
0.03937
100
AcDb2dPolyline
 66
     1
 10
0.0
 20
0.0
 30
0.0
 71
     2
  0
VERTEX
  5
30F
100
AcDbEntity
  8
0
370
     0
390
0
100
AcDbVertex
100
AcDb2dVertex
 10
8.403327
 20
3.864697
 30
0.0
 42
0.060783
  0
VERTEX
  5
310
100
AcDbEntity
  8
0
370
     0
390
0
100
AcDbVertex
100
AcDb2dVertex
 10
8.424773
 20
3.859812
 30
0.0
  0
SEQEND
  5
311
100
AcDbEntity
  8
0
370
     0
390
0
  0
SPLINE
  5
312
100
AcDbEntity
  8
0
370
    35
390
0
 62
     7
 48
0.03937
100
AcDbSpline
210
0.0
220
0.0
230
1.0
 70
     8
 71
     5
 72
    15
 73
     9
 74
     0
 42
0.0
 43
0.0
 40
0.0
 40
0.0
 40
0.0
 40
0.0
 40
0.0
 40
0.0
 40
7.2570058299368894
 40
7.2570058299368894
 40
7.2570058299368894
 40
12.2012830756425
 40
12.2012830756425
 40
12.2012830756425
 40
12.2012830756425
 40
12.2012830756425
 40
12.2012830756425
 10
8.3513267578370645
 20
3.900391853710194
 30
0.0
 10
8.3313411289172148
 20
3.9247279298617537
 30
0.0
 10
8.3139331451546514
 20
3.9527741107513013
 30
0.0
 10
8.2994685868877465
 20
3.9832065365516627
 30
0.0
 10
8.2803581012159544
 20
4.0369349332258109
 30
0.0
 10
8.2707283484842993
 20
4.0928810548620778
 30
0.0
 10
8.2684650909027493
 20
4.115683067630127
 30
0.0
 10
8.2679574787284515
 20
4.1383260941049169
 30
0.0
 10
8.2693296895686377
 20
4.1604620519423303
 30
0.0
  0
POLYLINE
  5
313
100
AcDbEntity
  8
0
370
    35
390
0
 62
     7
 48
0.03937
100
AcDb2dPolyline
 66
     1
 10
0.0
 20
0.0
 30
0.0
 71
     2
  0
VERTEX
  5
314
100
AcDbEntity
  8
0
370
     0
390
0
100
AcDbVertex
100
AcDb2dVertex
 10
8.267902
 20
4.149176
 30
0.0
 42
0.028228
  0
VERTEX
  5
315
100
AcDbEntity
  8
0
370
     0
390
0
100
AcDbVertex
100
AcDb2dVertex
 10
8.266452
 20
4.117351
 30
0.0
  0
SEQEND
  5
316
100
AcDbEntity
  8
0
370
     0
390
0
  0
ELLIPSE
  5
317
100
AcDbEntity
  8
0
370
    35
390
0
 62
     7
 48
0.03937
100
AcDbEllipse
 10
8.419602
 20
4.061106
 30
0.0
 11
0.0686274402862955
 21
-0.2178384309475108
 31
0.0
210
0.0
220
0.0
230
1.0
 40
0.628605
 41
3.5130823944590435
 42
4.1090846402532488
  0
SPLINE
  5
318
100
AcDbEntity
  8
0
370
    35
390
0
 62
     7
 48
0.03937
100
AcDbSpline
210
0.0
220
0.0
230
1.0
 70
     8
 71
     5
 72
    18
 73
    12
 74
     0
 42
0.0
 43
0.0
 40
0.0
 40
0.0
 40
0.0
 40
0.0
 40
0.0
 40
0.0
 40
6.6254116293307606
 40
6.6254116293307606
 40
6.6254116293307606
 40
9.2600492712008169
 40
9.2600492712008169
 40
9.2600492712008169
 40
13.125014822775945
 40
13.125014822775945
 40
13.125014822775945
 40
13.125014822775945
 40
13.125014822775945
 40
13.125014822775945
 10
8.2664493099990928
 20
4.1173511795725002
 30
0.0
 10
8.2666663379179415
 20
4.0945283425434802
 30
0.0
 10
8.2690489694860396
 20
4.0712195859177331
 30
0.0
 10
8.2734888566454607
 20
4.04784372422621
 30
0.0
 10
8.2824445670205726
 20
4.0157958443592552
 30
0.0
 10
8.2947770213514023
 20
3.9857420220981101
 30
0.0
 10
8.2985641675727333
 20
3.9773399064874089
 30
0.0
 10
8.3085429388794623
 20
3.9571211842738339
 30
0.0
 10
8.3201048177209707
 20
3.9382054438763463
 30
0.0
 10
8.3274993515883811
 20
3.9275453215997418
 30
0.0
 10
8.3353359118748696
 20
3.9176299843572981
 30
0.0
 10
8.3435194588480055
 20
3.9085815071713994
 30
0.0
  0
ELLIPSE
  5
319
100
AcDbEntity
  8
0
370
    35
390
0
 62
     7
 48
0.03937
100
AcDbEllipse
 10
8.394975
 20
4.053526
 30
0.0
 11
0.060008239482604
 21
-0.1904577651871699
 31
0.0
210
0.0
220
0.0
230
1.0
 40
0.588236
 41
5.3746106409817038
 42
5.8495955487802451
  0
SPLINE
  5
31A
100
AcDbEntity
  8
0
370
    35
390
0
 62
     7
 48
0.03937
100
AcDbSpline
210
0.0
220
0.0
230
1.0
 70
     8
 71
     5
 72
    21
 73
    15
 74
     0
 42
0.0
 43
0.0
 40
0.0
 40
0.0
 40
0.0
 40
0.0
 40
0.0
 40
0.0
 40
7.5972268966790617
 40
7.5972268966790617
 40
7.5972268966790617
 40
13.21078706412094
 40
13.21078706412094
 40
13.21078706412094
 40
15.024795336534007
 40
15.024795336534007
 40
15.024795336534007
 40
18.449649300996494
 40
18.449649300996494
 40
18.449649300996494
 40
18.449649300996494
 40
18.449649300996494
 40
18.449649300996494
 10
8.2101047238811304
 20
4.0989334027028095
 30
0.0
 10
8.2103535854562004
 20
4.0727629123229416
 30
0.0
 10
8.2134501466251493
 20
4.0459525257028925
 30
0.0
 10
8.2192286796609455
 20
4.019271057842527
 30
0.0
 10
8.2335458447466081
 20
3.9742788294800864
 30
0.0
 10
8.2545920656660368
 20
3.9337113188110453
 30
0.0
 10
8.2647302352755414
 20
3.9173861975155533
 30
0.0
 10
8.2795436722232942
 20
3.8976726859397663
 30
0.0
 10
8.2956231291298081
 20
3.8811798092851579
 30
0.0
 10
8.2996208121704225
 20
3.8773515639785856
 30
0.0
 10
8.3113388713899354
 20
3.8669073175253899
 30
0.0
 10
8.3235571688916465
 20
3.8582616810874635
 30
0.0
 10
8.3317022418208211
 20
3.8534545962496014
 30
0.0
 10
8.3399321339266841
 20
3.8495691652606365
 30
0.0
 10
8.3481626787169603
 20
3.8466598248153447
 30
0.0
  0
SPLINE
  5
31B
100
AcDbEntity
  8
0
370
    35
390
0
 62
     7
 48
0.03937
100
AcDbSpline
210
0.0
220
0.0
230
1.0
 70
     8
 71
     5
 72
    18
 73
    12
 74
     0
 42
0.0
 43
0.0
 40
0.0
 40
0.0
 40
0.0
 40
0.0
 40
0.0
 40
0.0
 40
4.9240544650171971
 40
4.9240544650171971
 40
4.9240544650171971
 40
7.3106132845746323
 40
7.3106132845746323
 40
7.3106132845746323
 40
11.899740514327295
 40
11.899740514327295
 40
11.899740514327295
 40
11.899740514327295
 40
11.899740514327295
 40
11.899740514327295
 10
8.2101047238811304
 20
4.0989334027028095
 30
0.0
 10
8.209943427138704
 20
4.1158955023951336
 30
0.0
 10
8.2109784037363056
 20
4.1325887881630523
 30
0.0
 10
8.2132572247960898
 20
4.1489215579791825
 30
0.0
 10
8.218613740896668
 20
4.1721292331522646
 30
0.0
 10
8.2267684448237421
 20
4.1930249729567102
 30
0.0
 10
8.2297321281734597
 20
4.1995814828712668
 30
0.0
 10
8.2392032066235199
 20
4.2177916202709156
 30
0.0
 10
8.2511275015954801
 20
4.233255374645549
 30
0.0
 10
8.2600424463902975
 20
4.2421169084459356
 30
0.0
 10
8.2699456964016171
 20
4.249329758164202
 30
0.0
 10
8.2805312447674737
 20
4.2547561102033544
 30
0.0
  0
SPLINE
  5
31C
100
AcDbEntity
  8
0
370
    35
390
0
 62
     7
 48
0.03937
100
AcDbSpline
210
0.0
220
0.0
230
1.0
 70
     8
 71
     5
 72
    21
 73
    15
 74
     0
 42
0.0
 43
0.0
 40
0.0
 40
0.0
 40
0.0
 40
0.0
 40
0.0
 40
0.0
 40
7.0815666503227224
 40
7.0815666503227224
 40
7.0815666503227224
 40
8.8444579551467957
 40
8.8444579551467957
 40
8.8444579551467957
 40
14.044835731774253
 40
14.044835731774253
 40
14.044835731774253
 40
17.286803304389487
 40
17.286803304389487
 40
17.286803304389487
 40
17.286803304389487
 40
17.286803304389487
 40
17.286803304389487
 10
8.3204291710565546
 20
4.1349959810505315
 30
0.0
 10
8.3206611411986859
 20
4.1106018074398216
 30
0.0
 10
8.3233673562749537
 20
4.0856516551928639
 30
0.0
 10
8.328415539548276
 20
4.0607109306365343
 30
0.0
 10
8.3374633103014677
 20
4.0303168189073615
 30
0.0
 10
8.3495512843320672
 20
4.0018313433534765
 30
0.0
 10
8.3520809980834922
 20
3.9962306258423776
 30
0.0
 10
8.3625452075827038
 20
3.9744331284227439
 30
0.0
 10
8.3748561558863521
 20
3.9540237742972786
 30
0.0
 10
8.3849916843555157
 20
3.9398579846651156
 30
0.0
 10
8.4026465221477817
 20
3.919206975940785
 30
0.0
 10
8.4217289361853869
 20
3.9029930734570484
 30
0.0
 10
8.4292531512619213
 20
3.8974501035719942
 30
0.0
 10
8.4369173521078036
 20
3.892669931764031
 30
0.0
 10
8.4446548441727227
 20
3.8887089479099917
 30
0.0
  0
ELLIPSE
  5
31D
100
AcDbEntity
  8
0
370
    35
390
0
 62
     7
 48
0.03937
100
AcDbEllipse
 10
8.470593
 20
4.081357
 30
0.0
 11
0.0651914239523181
 21
-0.215184312574519
 31
0.0
210
0.0
220
0.0
230
1.0
 40
0.628714
 41
3.7684694585166723
 42
4.2767879436589959
  0
ELLIPSE
  5
31E
100
AcDbEntity
  8
0
370
    35
390
0
 62
     7
 48
0.03937
100
AcDbEllipse
 10
8.338472
 20
4.030207
 30
0.0
 11
0.0607007825186777
 21
-0.1853351913692955
 31
0.0
210
0.0
220
0.0
230
1.0
 40
0.592406
 41
6.2828435611518136
 42
6.7460961097576098
  0
ELLIPSE
  5
31F
100
AcDbEntity
  8
0
370
    35
390
0
 62
     7
 48
0.03937
100
AcDbEllipse
 10
8.338735
 20
4.02972
 30
0.0
 11
0.0603881046835054
 21
-0.1848645407799936
 31
0.0
210
0.0
220
0.0
230
1.0
 40
0.593231
 41
5.8552219074203835
 42
6.2832980024326757
  0
SPLINE
  5
320
100
AcDbEntity
  8
0
370
    35
390
0
 62
     7
 48
0.03937
100
AcDbSpline
210
0.0
220
0.0
230
1.0
 70
     8
 71
     5
 72
    15
 73
     9
 74
     0
 42
0.0
 43
0.0
 40
0.0
 40
0.0
 40
0.0
 40
0.0
 40
0.0
 40
0.0
 40
7.2570060730033807
 40
7.2570060730033807
 40
7.2570060730033807
 40
12.201284825866637
 40
12.201284825866637
 40
12.201284825866637
 40
12.201284825866637
 40
12.201284825866637
 40
12.201284825866637
 10
8.4064889770323994
 20
3.91842314968769
 30
0.0
 10
8.3865033555150639
 20
3.9427592177929442
 30
0.0
 10
8.3690953764395548
 20
3.9708053880174723
 30
0.0
 10
8.3546308196815176
 20
4.0012378034370686
 30
0.0
 10
8.3355203313543793
 20
4.0549661948502411
 30
0.0
 10
8.325890574531444
 20
4.110912320425701
 30
0.0
 10
8.3236273148673714
 20
4.1337143422129357
 30
0.0
 10
8.3231197018762053
 20
4.156357375651031
 30
0.0
 10
8.3244919131291031
 20
4.1784933404371536
 30
0.0
  0
POLYLINE
  5
321
100
AcDbEntity
  8
0
370
    35
390
0
 62
     7
 48
0.03937
100
AcDb2dPolyline
 66
     1
 10
0.0
 20
0.0
 30
0.0
 71
     2
  0
VERTEX
  5
322
100
AcDbEntity
  8
0
370
     0
390
0
100
AcDbVertex
100
AcDb2dVertex
 10
8.323064
 20
4.167208
 30
0.0
 42
0.028228
  0
VERTEX
  5
323
100
AcDbEntity
  8
0
370
     0
390
0
100
AcDbVertex
100
AcDb2dVertex
 10
8.321614
 20
4.135382
 30
0.0
  0
SEQEND
  5
324
100
AcDbEntity
  8
0
370
     0
390
0
  0
ELLIPSE
  5
325
100
AcDbEntity
  8
0
370
    35
390
0
 62
     7
 48
0.03937
100
AcDbEllipse
 10
8.47317
 20
4.080544
 30
0.0
 11
0.0667927898111688
 21
-0.216408785023526
 31
0.0
210
0.0
220
0.0
230
1.0
 40
0.628728
 41
3.7691664793010484
 42
4.1166867977357002
  0
SPLINE
  5
326
100
AcDbEntity
  8
0
370
    35
390
0
 62
     7
 48
0.03937
100
AcDbSpline
210
0.0
220
0.0
230
1.0
 70
     8
 71
     5
 72
    18
 73
    12
 74
     0
 42
0.0
 43
0.0
 40
0.0
 40
0.0
 40
0.0
 40
0.0
 40
0.0
 40
0.0
 40
6.6254130244106406
 40
6.6254130244106406
 40
6.6254130244106406
 40
9.2600528621900047
 40
9.2600528621900047
 40
9.2600528621900047
 40
13.125020682159134
 40
13.125020682159134
 40
13.125020682159134
 40
13.125020682159134
 40
13.125020682159134
 40
13.125020682159134
 10
8.3216115335867453
 20
4.1353824687463421
 30
0.0
 10
8.3218285615510101
 20
4.1125596269171671
 30
0.0
 10
8.3242111940683401
 20
4.0892508654110173
 30
0.0
 10
8.3286510825133284
 20
4.0658750138976734
 30
0.0
 10
8.3376067858156144
 20
4.0338271512469799
 30
0.0
 10
8.3499392430124377
 20
4.0037733206957196
 30
0.0
 10
8.3537263905074255
 20
3.9953712027067931
 30
0.0
 10
8.3637051660678754
 20
3.9751524731317609
 30
0.0
 10
8.3752670458076093
 20
3.956236732552501
 30
0.0
 10
8.3826615781326073
 20
3.9455766124979794
 30
0.0
 10
8.3904981366048261
 20
3.9356612765314636
 30
0.0
 10
8.3986816830624722
 20
3.926612799008022
 30
0.0
  0
ELLIPSE
  5
327
100
AcDbEntity
  8
0
370
    35
390
0
 62
     7
 48
0.03937
100
AcDbEllipse
 10
8.450319
 20
4.072595
 30
0.0
 11
0.0597639892287536
 21
-0.1915528274917269
 31
0.0
210
0.0
220
0.0
230
1.0
 40
0.587998
 41
5.378395329840008
 42
5.7530357462423138
  0
SPLINE
  5
328
100
AcDbEntity
  8
0
370
    35
390
0
 62
     7
 48
0.03937
100
AcDbSpline
210
0.0
220
0.0
230
1.0
 70
     8
 71
     5
 72
    18
 73
    12
 74
     0
 42
0.0
 43
0.0
 40
0.0
 40
0.0
 40
0.0
 40
0.0
 40
0.0
 40
0.0
 40
6.6751027016921451
 40
6.6751027016921451
 40
6.6751027016921451
 40
9.3296310260518442
 40
9.3296310260518442
 40
9.3296310260518442
 40
13.221828208283405
 40
13.221828208283405
 40
13.221828208283405
 40
13.221828208283405
 40
13.221828208283405
 40
13.221828208283405
 10
8.3755913946442337
 20
4.1530272702243822
 30
0.0
 10
8.3758100502887913
 20
4.1300332602472043
 30
0.0
 10
8.3782270714285243
 20
4.1065452636047581
 30
0.0
 10
8.3827323489525565
 20
4.0830047134909533
 30
0.0
 10
8.3918067440368738
 20
4.0507519957325666
 30
0.0
 10
8.4043073591863955
 20
4.0205203955646018
 30
0.0
 10
8.4081474681085737
 20
4.0120685868441708
 30
0.0
 10
8.4182622316582236
 20
3.9917474386420966
 30
0.0
 10
8.429978726635575
 20
3.9727655595101505
 30
0.0
 10
8.4374670957180751
 20
3.9620872231547999
 30
0.0
 10
8.4453968334082212
 20
3.9521746206697674
 30
0.0
 10
8.4536722181825894
 20
3.9431490418284092
 30
0.0
  0
POLYLINE
  5
329
100
AcDbEntity
  8
0
370
    35
390
0
 62
     7
 48
0.03937
100
AcDb2dPolyline
 66
     1
 10
0.0
 20
0.0
 30
0.0
 71
     2
  0
VERTEX
  5
32A
100
AcDbEntity
  8
0
370
     0
390
0
100
AcDbVertex
100
AcDb2dVertex
 10
8.377847
 20
4.191705
 30
0.0
 42
0.034905
  0
VERTEX
  5
32B
100
AcDbEntity
  8
0
370
     0
390
0
100
AcDbVertex
100
AcDb2dVertex
 10
8.375596
 20
4.153027
 30
0.0
  0
SEQEND
  5
32C
100
AcDbEntity
  8
0
370
     0
390
0
  0
SPLINE
  5
32D
100
AcDbEntity
  8
0
370
    35
390
0
 62
     7
 48
0.03937
100
AcDbSpline
210
0.0
220
0.0
230
1.0
 70
     8
 71
     5
 72
    15
 73
     9
 74
     0
 42
0.0
 43
0.0
 40
0.0
 40
0.0
 40
0.0
 40
0.0
 40
0.0
 40
0.0
 40
7.8914825050063691
 40
7.8914825050063691
 40
7.8914825050063691
 40
11.313911311535577
 40
11.313911311535577
 40
11.313911311535577
 40
11.313911311535577
 40
11.313911311535577
 40
11.313911311535577
 10
8.4537958777144073
 20
3.9464567144677991
 30
0.0
 10
8.4329794879048503
 20
3.9741596487815709
 30
0.0
 10
8.4153188700487558
 20
4.0058710239936124
 30
0.0
 10
8.4012125109910958
 20
4.0400109226090972
 30
0.0
 10
8.3863739459298845
 20
4.0910198913158862
 30
0.0
 10
8.3800372922695949
 20
4.142955285812385
 30
0.0
 10
8.3789298636080982
 20
4.1586694060844707
 30
0.0
 10
8.3786713485929756
 20
4.1742841606614354
 30
0.0
 10
8.3793025008659896
 20
4.1896875183861955
 30
0.0
  0
POLYLINE
  5
32E
100
AcDbEntity
  8
0
370
    35
390
0
 62
     7
 48
0.03937
100
AcDb2dPolyline
 66
     1
 10
0.0
 20
0.0
 30
0.0
 71
     2
  0
VERTEX
  5
32F
100
AcDbEntity
  8
0
370
     0
390
0
100
AcDbVertex
100
AcDb2dVertex
 10
8.378227
 20
4.185239
 30
0.0
 42
0.028228
  0
VERTEX
  5
330
100
AcDbEntity
  8
0
370
     0
390
0
100
AcDbVertex
100
AcDb2dVertex
 10
8.376776
 20
4.153414
 30
0.0
  0
SEQEND
  5
331
100
AcDbEntity
  8
0
370
     0
390
0
  0
LINE
  5
332
100
AcDbEntity
  8
0
370
    35
390
0
 62
     7
 48
0.000129
100
AcDbLine
 10
8.378229
 20
4.185239
 30
0.0
 11
8.378813
 21
4.19037
 31
0.0
210
0.0
220
0.0
230
1.0
  0
SPLINE
  5
333
100
AcDbEntity
  8
0
370
    35
390
0
 62
     7
 48
0.03937
100
AcDbSpline
210
0.0
220
0.0
230
1.0
 70
     8
 71
     5
 72
    18
 73
    12
 74
     0
 42
0.0
 43
0.0
 40
0.0
 40
0.0
 40
0.0
 40
0.0
 40
0.0
 40
0.0
 40
6.6254129424066805
 40
6.6254129424066805
 40
6.6254129424066805
 40
9.260052913322971
 40
9.260052913322971
 40
9.260052913322971
 40
13.125020878491538
 40
13.125020878491538
 40
13.125020878491538
 40
13.125020878491538
 40
13.125020878491538
 40
13.125020878491538
 10
8.3767737571745027
 20
4.1534137579202186
 30
0.0
 10
8.3769907851386289
 20
4.1305909163775967
 30
0.0
 10
8.3793734176408243
 20
4.1072821552352696
 30
0.0
 10
8.3838133057699906
 20
4.0839063052654767
 30
0.0
 10
8.3927690075912444
 20
4.0518584444846057
 30
0.0
 10
8.4051014642099524
 20
4.0218046131527165
 30
0.0
 10
8.408888611593051
 20
4.0134024949234188
 30
0.0
 10
8.4188673871630328
 20
3.993183764370928
 30
0.0
 10
8.4304292669366525
 20
3.9742680233357146
 30
0.0
 10
8.4378237993095926
 20
3.9636079030867188
 30
0.0
 10
8.4456603580301266
 20
3.9536925667951808
 30
0.0
 10
8.4538439049856535
 20
3.9446440888392367
 30
0.0
  0
SPLINE
  5
334
100
AcDbEntity
  8
0
370
    35
390
0
 62
     7
 48
0.03937
100
AcDbSpline
210
0.0
220
0.0
230
1.0
 70
     8
 71
     5
 72
    15
 73
     9
 74
     0
 42
0.0
 43
0.0
 40
0.0
 40
0.0
 40
0.0
 40
0.0
 40
0.0
 40
0.0
 40
7.6628178304223598
 40
7.6628178304223598
 40
7.6628178304223598
 40
11.035762677024636
 40
11.035762677024636
 40
11.035762677024636
 40
11.035762677024636
 40
11.035762677024636
 40
11.035762677024636
 10
8.2099935638219108
 20
5.7708835758946053
 30
0.0
 10
8.1888904125022943
 20
5.7965806185498767
 30
0.0
 10
8.1706612564201624
 20
5.826414276678558
 30
0.0
 10
8.1557327795684387
 20
5.8588310994075634
 30
0.0
 10
8.1392392167346532
 20
5.9078188964111167
 30
0.0
 10
8.1306081542250812
 20
5.9583130170637828
 30
0.0
 10
8.1287325500847327
 20
5.9738076388347885
 30
0.0
 10
8.1276530651111791
 20
5.9892795116806727
 30
0.0
 10
8.1274081062454506
 20
6.0046275732121659
 30
0.0
  0
ELLIPSE
  5
335
100
AcDbEntity
  8
0
370
    35
390
0
 62
     7
 48
0.03937
100
AcDbEllipse
 10
8.253611
 20
5.923878
 30
0.0
 11
0.0600478591645265
 21
-0.1903100800142284
 31
0.0
210
0.0
220
0.0
230
1.0
 40
0.588235
 41
5.3743371376578528
 42
5.857743054787532
  0
SPLINE
  5
336
100
AcDbEntity
  8
0
370
    35
390
0
 62
     7
 48
0.03937
100
AcDbSpline
210
0.0
220
0.0
230
1.0
 70
     8
 71
     5
 72
    21
 73
    15
 74
     0
 42
0.0
 43
0.0
 40
0.0
 40
0.0
 40
0.0
 40
0.0
 40
0.0
 40
0.0
 40
3.8729809661478813
 40
3.8729809661478813
 40
3.8729809661478813
 40
9.2166137189814901
 40
9.2166137189814901
 40
9.2166137189814901
 40
11.892584280689652
 40
11.892584280689652
 40
11.892584280689652
 40
13.237039015462431
 40
13.237039015462431
 40
13.237039015462431
 40
13.237039015462431
 40
13.237039015462431
 40
13.237039015462431
 10
8.2022157683063064
 20
5.7790406474470819
 30
0.0
 10
8.1940259322577571
 20
5.7880925055660137
 30
0.0
 10
8.1862446987279327
 20
5.7979447949213725
 30
0.0
 10
8.178891528763101
 20
5.8085276758061779
 30
0.0
 10
8.1625764925580633
 20
5.8351356138434252
 30
0.0
 10
8.1491617194718859
 20
5.8649101927198002
 30
0.0
 10
8.1425679983951422
 20
5.8828441213818294
 30
0.0
 10
8.1345107382031649
 20
5.910279421892823
 30
0.0
 10
8.1293055930800584
 20
5.9382112768773698
 30
0.0
 10
8.1278958201004858
 20
5.9475452911019637
 30
0.0
 10
8.1262751670227935
 20
5.9615996815219887
 30
0.0
 10
8.125427369414199
 20
5.9755804368993539
 30
0.0
 10
8.1252312573886893
 20
5.9802450752535012
 30
0.0
 10
8.1251236805463094
 20
5.9848914049905453
 30
0.0
 10
8.1251054822879265
 20
5.9895167761703778
 30
0.0
  0
ELLIPSE
  5
337
100
AcDbEntity
  8
0
370
    35
390
0
 62
     7
 48
0.03937
100
AcDbEllipse
 10
8.253653
 20
5.919042
 30
0.0
 11
0.0604607740002241
 21
-0.185284686867181
 31
0.0
210
0.0
220
0.0
230
1.0
 40
0.59259
 41
5.8473013932370268
 42
6.2776540694877747
  0
POLYLINE
  5
338
100
AcDbEntity
  8
0
370
    35
390
0
 62
     7
 48
0.03937
100
AcDb2dPolyline
 66
     1
 10
0.0
 20
0.0
 30
0.0
 71
     2
  0
VERTEX
  5
339
100
AcDbEntity
  8
0
370
     0
390
0
100
AcDbVertex
100
AcDb2dVertex
 10
8.07293
 20
6.014421
 30
0.0
 42
0.020626
  0
VERTEX
  5
33A
100
AcDbEntity
  8
0
370
     0
390
0
100
AcDbVertex
100
AcDb2dVertex
 10
8.072247
 20
5.986596
 30
0.0
  0
SEQEND
  5
33B
100
AcDbEntity
  8
0
370
     0
390
0
  0
POLYLINE
  5
33C
100
AcDbEntity
  8
0
370
    35
390
0
 62
     7
 48
0.03937
100
AcDb2dPolyline
 66
     1
 10
0.0
 20
0.0
 30
0.0
 71
     2
  0
VERTEX
  5
33D
100
AcDbEntity
  8
0
370
     0
390
0
100
AcDbVertex
100
AcDb2dVertex
 10
8.316083
 20
5.753602
 30
0.0
 42
0.044407
  0
VERTEX
  5
33E
100
AcDbEntity
  8
0
370
     0
390
0
100
AcDbVertex
100
AcDb2dVertex
 10
8.332308
 20
5.749195
 30
0.0
  0
SEQEND
  5
33F
100
AcDbEntity
  8
0
370
     0
390
0
  0
SPLINE
  5
340
100
AcDbEntity
  8
0
370
    35
390
0
 62
     7
 48
0.03937
100
AcDbSpline
210
0.0
220
0.0
230
1.0
 70
     8
 71
     5
 72
    24
 73
    18
 74
     0
 42
0.0
 43
0.0
 40
0.0
 40
0.0
 40
0.0
 40
0.0
 40
0.0
 40
0.0
 40
5.2082189685511038
 40
5.2082189685511038
 40
5.2082189685511038
 40
8.8201189185245426
 40
8.8201189185245426
 40
8.8201189185245426
 40
14.434490003027227
 40
14.434490003027227
 40
14.434490003027227
 40
16.311988141169003
 40
16.311988141169003
 40
16.311988141169003
 40
18.234794955164123
 40
18.234794955164123
 40
18.234794955164123
 40
18.234794955164123
 40
18.234794955164123
 40
18.234794955164123
 10
8.3160821482295777
 20
5.7535990648666129
 30
0.0
 10
8.303566480485344
 20
5.7581777226971811
 30
0.0
 10
8.2910675693090674
 20
5.7650036685349182
 30
0.0
 10
8.2787982127388435
 20
5.7739167217193339
 30
0.0
 10
8.2588924480208732
 20
5.7921277457131231
 30
0.0
 10
8.2411229179892533
 20
5.8144713615638972
 30
0.0
 10
8.2342094518652473
 20
5.8242723001012831
 30
0.0
 10
8.217677062672271
 20
5.8506093642122714
 30
0.0
 10
8.2039914037358841
 20
5.8802337407375891
 30
0.0
 10
8.1969594236777059
 20
5.8990362860348267
 30
0.0
 10
8.1893735196667485
 20
5.9246569337175128
 30
0.0
 10
8.1842764795553702
 20
5.9507105742782622
 30
0.0
 10
8.183156762761481
 20
5.9572658648599397
 30
0.0
 10
8.1812205584750135
 20
5.9705404469457628
 30
0.0
 10
8.1799605278292287
 20
5.983804924946063
 30
0.0
 10
8.1794989773599376
 20
5.9905068750444839
 30
0.0
 10
8.1792171017856603
 20
5.9971776076924481
 30
0.0
 10
8.1791172197101876
 20
6.0038092865503181
 30
0.0
  0
POLYLINE
  5
341
100
AcDbEntity
  8
0
370
    35
390
0
 62
     7
 48
0.03937
100
AcDb2dPolyline
 66
     1
 10
0.0
 20
0.0
 30
0.0
 71
     2
  0
VERTEX
  5
342
100
AcDbEntity
  8
0
370
     0
390
0
100
AcDbVertex
100
AcDb2dVertex
 10
8.127996
 20
6.030954
 30
0.0
 42
0.019459
  0
VERTEX
  5
343
100
AcDbEntity
  8
0
370
     0
390
0
100
AcDbVertex
100
AcDb2dVertex
 10
8.127409
 20
6.004628
 30
0.0
  0
SEQEND
  5
344
100
AcDbEntity
  8
0
370
     0
390
0
  0
SPLINE
  5
345
100
AcDbEntity
  8
0
370
    35
390
0
 62
     7
 48
0.03937
100
AcDbSpline
210
0.0
220
0.0
230
1.0
 70
     8
 71
     5
 72
    18
 73
    12
 74
     0
 42
0.0
 43
0.0
 40
0.0
 40
0.0
 40
0.0
 40
0.0
 40
0.0
 40
0.0
 40
5.2179608058518339
 40
5.2179608058518339
 40
5.2179608058518339
 40
7.9032281717968944
 40
7.9032281717968944
 40
7.9032281717968944
 40
8.8368653598225766
 40
8.8368653598225766
 40
8.8368653598225766
 40
8.8368653598225766
 40
8.8368653598225766
 40
8.8368653598225766
 10
8.1822162721797582
 20
6.1353752796263148
 30
0.0
 10
8.1712378673817465
 20
6.127247995466651
 30
0.0
 10
8.161347524065274
 20
6.1170228235768267
 30
0.0
 10
8.1526743343660755
 20
6.1048589789620351
 30
0.0
 10
8.14169036869324
 20
6.0839194078088799
 30
0.0
 10
8.1340897389200144
 20
6.0603876211169512
 30
0.0
 10
8.1318922049810922
 20
6.0521302063041622
 30
0.0
 10
8.1294425333514848
 20
6.0406992510678492
 30
0.0
 10
8.1276722063511322
 20
6.028912543785645
 30
0.0
 10
8.1272604402960198
 20
6.0258489277842262
 30
0.0
 10
8.1268936358074804
 20
6.0227656447257676
 30
0.0
 10
8.1265714639964397
 20
6.0196635338523183
 30
0.0
  0
POLYLINE
  5
346
100
AcDbEntity
  8
0
370
    35
390
0
 62
     7
 48
0.03937
100
AcDb2dPolyline
 66
     1
 10
0.0
 20
0.0
 30
0.0
 71
     2
  0
VERTEX
  5
347
100
AcDbEntity
  8
0
370
     0
390
0
100
AcDbVertex
100
AcDb2dVertex
 10
8.126569
 20
6.019664
 30
0.0
 42
0.026834
  0
VERTEX
  5
348
100
AcDbEntity
  8
0
370
     0
390
0
100
AcDbVertex
100
AcDb2dVertex
 10
8.125107
 20
5.989517
 30
0.0
  0
SEQEND
  5
349
100
AcDbEntity
  8
0
370
     0
390
0
  0
SPLINE
  5
34A
100
AcDbEntity
  8
0
370
    35
390
0
 62
     7
 48
0.03937
100
AcDbSpline
210
0.0
220
0.0
230
1.0
 70
     8
 71
     5
 72
    15
 73
     9
 74
     0
 42
0.0
 43
0.0
 40
0.0
 40
0.0
 40
0.0
 40
0.0
 40
0.0
 40
0.0
 40
7.7958084645162957
 40
7.7958084645162957
 40
7.7958084645162957
 40
11.235853812369815
 40
11.235853812369815
 40
11.235853812369815
 40
11.235853812369815
 40
11.235853812369815
 40
11.235853812369815
 10
8.15761248620732
 20
5.7495182128074278
 30
0.0
 10
8.1358390416377961
 20
5.7752138316421693
 30
0.0
 10
8.1169999407954894
 20
5.805324279280498
 30
0.0
 10
8.1015685450420225
 20
5.8381767942237399
 30
0.0
 10
8.0844978548924882
 20
5.88795970897639
 30
0.0
 10
8.0755588139079428
 20
5.9393569218078985
 30
0.0
 10
8.0736136063676245
 20
5.9551607135377527
 30
0.0
 10
8.0724957146824181
 20
5.9709428920988179
 30
0.0
 10
8.072245882657791
 20
5.9865962840383231
 30
0.0
  0
SPLINE
  5
34B
100
AcDbEntity
  8
0
370
    35
390
0
 62
     7
 48
0.03937
100
AcDbSpline
210
0.0
220
0.0
230
1.0
 70
     8
 71
     5
 72
    18
 73
    12
 74
     0
 42
0.0
 43
0.0
 40
0.0
 40
0.0
 40
0.0
 40
0.0
 40
0.0
 40
0.0
 40
5.3048996548117433
 40
5.3048996548117433
 40
5.3048996548117433
 40
7.4830803229769343
 40
7.4830803229769343
 40
7.4830803229769343
 40
10.859426655963714
 40
10.859426655963714
 40
10.859426655963714
 40
10.859426655963714
 40
10.859426655963714
 40
10.859426655963714
 10
8.1815614727428994
 20
6.1353766673722943
 30
0.0
 10
8.1703571054051505
 20
6.127195625956352
 30
0.0
 10
8.1602765925932736
 20
6.116843388801235
 30
0.0
 10
8.1514535445923961
 20
6.104489365066879
 30
0.0
 10
8.1410775444801455
 20
6.0846345650865112
 30
0.0
 10
8.1337339419890409
 20
6.0624720840969557
 30
0.0
 10
8.1318429335501712
 20
6.0558173844040128
 30
0.0
 10
8.1276830595878042
 20
6.0385300510890509
 30
0.0
 10
8.1251307405611026
 20
6.0203155047621761
 30
0.0
 10
8.1241653714842652
 20
6.0089473243702516
 30
0.0
 10
8.1237796085223177
 20
5.9974228721684311
 30
0.0
 10
8.1239549961225261
 20
5.9857779973764744
 30
0.0
  0
SPLINE
  5
34C
100
AcDbEntity
  8
0
370
    35
390
0
 62
     7
 48
0.03937
100
AcDbSpline
210
0.0
220
0.0
230
1.0
 70
     8
 71
     5
 72
    18
 73
    12
 74
     0
 42
0.0
 43
0.0
 40
0.0
 40
0.0
 40
0.0
 40
0.0
 40
0.0
 40
0.0
 40
4.1408032115932683
 40
4.1408032115932683
 40
4.1408032115932683
 40
6.6904206270794058
 40
6.6904206270794058
 40
6.6904206270794058
 40
8.4429781186278205
 40
8.4429781186278205
 40
8.4429781186278205
 40
8.4429781186278205
 40
8.4429781186278205
 40
8.4429781186278205
 10
8.2136905347513718
 20
6.1304785397143249
 30
0.0
 10
8.2066562389426014
 20
6.1211700932362243
 30
0.0
 10
8.2004370539415596
 20
6.1107166336435128
 30
0.0
 10
8.195154756690691
 20
6.0993202577838259
 30
0.0
 10
8.1881364093552502
 20
6.0797978468455494
 30
0.0
 10
8.183491417776553
 20
6.0587609079550537
 30
0.0
 10
8.182054460414415
 20
6.0505186887870375
 30
0.0
 10
8.1802050519591631
 20
6.0363674037008659
 30
0.0
 10
8.1792999787021401
 20
6.0218401078397088
 30
0.0
 10
8.1790863354864136
 20
6.0158658332635069
 30
0.0
 10
8.179026181402282
 20
6.0098537827426295
 30
0.0
 10
8.1791172197101876
 20
6.0038092865503181
 30
0.0
  0
SPLINE
  5
34D
100
AcDbEntity
  8
0
370
    35
390
0
 62
     7
 48
0.03937
100
AcDbSpline
210
0.0
220
0.0
230
1.0
 70
     8
 71
     5
 72
    15
 73
     9
 74
     0
 42
0.0
 43
0.0
 40
0.0
 40
0.0
 40
0.0
 40
0.0
 40
0.0
 40
0.0
 40
7.6628183946706727
 40
7.6628183946706727
 40
7.6628183946706727
 40
11.035763543857851
 40
11.035763543857851
 40
11.035763543857851
 40
11.035763543857851
 40
11.035763543857851
 40
11.035763543857851
 10
8.2651557941600853
 20
5.7889148577317631
 30
0.0
 10
8.2440526415910629
 20
5.8146119006650023
 30
0.0
 10
8.2258234847056499
 20
5.844445559450631
 30
0.0
 10
8.2108950071304321
 20
5.876862382740911
 30
0.0
 10
8.1944014425965896
 20
5.9258501805800323
 30
0.0
 10
8.1857703785590221
 20
5.9763443029739003
 30
0.0
 10
8.183894773992062
 20
5.9918389255902715
 30
0.0
 10
8.1828152887345116
 20
6.0073107994754853
 30
0.0
 10
8.1825703298331103
 20
6.0226588623860122
 30
0.0
  0
ELLIPSE
  5
34E
100
AcDbEntity
  8
0
370
    35
390
0
 62
     7
 48
0.03937
100
AcDbEllipse
 10
8.308773
 20
5.941909
 30
0.0
 11
0.0600478919625783
 21
-0.1903099343094467
 31
0.0
210
0.0
220
0.0
230
1.0
 40
0.588235
 41
5.3743366498864971
 42
5.8577427199083054
  0
SPLINE
  5
34F
100
AcDbEntity
  8
0
370
    35
390
0
 62
     7
 48
0.03937
100
AcDbSpline
210
0.0
220
0.0
230
1.0
 70
     8
 71
     5
 72
    21
 73
    15
 74
     0
 42
0.0
 43
0.0
 40
0.0
 40
0.0
 40
0.0
 40
0.0
 40
0.0
 40
0.0
 40
3.8729810274050296
 40
3.8729810274050296
 40
3.8729810274050296
 40
9.2166147727037675
 40
9.2166147727037675
 40
9.2166147727037675
 40
11.892587085252192
 40
11.892587085252192
 40
11.892587085252192
 40
13.237043282115872
 40
13.237043282115872
 40
13.237043282115872
 40
13.237043282115872
 40
13.237043282115872
 40
13.237043282115872
 10
8.2573779954579223
 20
5.7970719318170083
 30
0.0
 10
8.2491881756758669
 20
5.8061237712652671
 30
0.0
 10
8.241406945668551
 20
5.8159760510377181
 30
0.0
 10
8.2340537529839377
 20
5.8265589627786873
 30
0.0
 10
8.2177387209008916
 20
5.8531668948485791
 30
0.0
 10
8.2043239631317419
 20
5.8829414368511017
 30
0.0
 10
8.1977302421923781
 20
5.900875351107592
 30
0.0
 10
8.1896729756503728
 20
5.9283106555267544
 30
0.0
 10
8.1844678242796771
 20
5.9562425204453495
 30
0.0
 10
8.1830580488626641
 20
5.9655765427574954
 30
0.0
 10
8.1814373929450976
 20
5.9796309443051889
 30
0.0
 10
8.1805895936977713
 20
5.9936117108872562
 30
0.0
 10
8.1803934812346508
 20
5.9982763543333686
 30
0.0
 10
8.1802859041568219
 20
6.0029226891348735
 30
0.0
 10
8.1802677058755879
 20
6.0075480653442233
 30
0.0
  0
POLYLINE
  5
350
100
AcDbEntity
  8
0
370
    35
390
0
 62
     7
 48
0.03937
100
AcDb2dPolyline
 66
     1
 10
0.0
 20
0.0
 30
0.0
 71
     2
  0
VERTEX
  5
351
100
AcDbEntity
  8
0
370
     0
390
0
100
AcDbVertex
100
AcDb2dVertex
 10
8.317265
 20
5.753988
 30
0.0
 42
0.041854
  0
VERTEX
  5
352
100
AcDbEntity
  8
0
370
     0
390
0
100
AcDbVertex
100
AcDb2dVertex
 10
8.332622
 20
5.749739
 30
0.0
  0
SEQEND
  5
353
100
AcDbEntity
  8
0
370
     0
390
0
  0
ELLIPSE
  5
354
100
AcDbEntity
  8
0
370
    35
390
0
 62
     7
 48
0.03937
100
AcDbEllipse
 10
8.252529
 20
5.91841
 30
0.0
 11
0.0604139368673677
 21
-0.1850357334889035
 31
0.0
210
0.0
220
0.0
230
1.0
 40
0.592978
 41
5.8469160694990316
 42
6.2833857450706354
  0
POLYLINE
  5
355
100
AcDbEntity
  8
0
370
    35
390
0
 62
     7
 48
0.03937
100
AcDb2dPolyline
 66
     1
 10
0.0
 20
0.0
 30
0.0
 71
     2
  0
VERTEX
  5
356
100
AcDbEntity
  8
0
370
     0
390
0
100
AcDbVertex
100
AcDb2dVertex
 10
8.312965
 20
5.733381
 30
0.0
 42
0.050687
  0
VERTEX
  5
357
100
AcDbEntity
  8
0
370
     0
390
0
100
AcDbVertex
100
AcDb2dVertex
 10
8.325764
 20
5.739063
 30
0.0
  0
SEQEND
  5
358
100
AcDbEntity
  8
0
370
     0
390
0
  0
SPLINE
  5
359
100
AcDbEntity
  8
0
370
    35
390
0
 62
     7
 48
0.03937
100
AcDbSpline
210
0.0
220
0.0
230
1.0
 70
     8
 71
     5
 72
    24
 73
    18
 74
     0
 42
0.0
 43
0.0
 40
0.0
 40
0.0
 40
0.0
 40
0.0
 40
0.0
 40
0.0
 40
5.2082134403883114
 40
5.2082134403883114
 40
5.2082134403883114
 40
8.8201054991571795
 40
8.8201054991571795
 40
8.8201054991571795
 40
14.434477765717109
 40
14.434477765717109
 40
14.434477765717109
 40
16.311973289405458
 40
16.311973289405458
 40
16.311973289405458
 40
18.234777272798109
 40
18.234777272798109
 40
18.234777272798109
 40
18.234777272798109
 40
18.234777272798109
 40
18.234777272798109
 10
8.2609199246418576
 20
5.7355677756927488
 30
0.0
 10
8.2484042701783462
 20
5.7401464286637394
 30
0.0
 10
8.23590537218276
 20
5.7469723648790678
 30
0.0
 10
8.2236360167804623
 20
5.755885409233775
 30
0.0
 10
8.2037302558069438
 20
5.7740964260807335
 30
0.0
 10
8.1859607447475558
 20
5.7964400087774184
 30
0.0
 10
8.1790472680001933
 20
5.8062409572635145
 30
0.0
 10
8.1625148743485756
 20
5.8325780096317912
 30
0.0
 10
8.1488291671429227
 20
5.862202471564486
 30
0.0
 10
8.1417971771540003
 20
5.8810050723665457
 30
0.0
 10
8.1342112782508007
 20
5.90662572571566
 30
0.0
 10
8.1291142445578224
 20
5.9326793606104697
 30
0.0
 10
8.1279945302579879
 20
5.9392346427672091
 30
0.0
 10
8.1260583304519614
 20
5.9525092061583695
 30
0.0
 10
8.1247983025613646
 20
5.9657736652317679
 30
0.0
 10
8.1243367530700183
 20
5.9724756054598078
 30
0.0
 10
8.1240548780490141
 20
5.9791463282809989
 30
0.0
 10
8.1239549961225261
 20
5.9857779973764744
 30
0.0
  0
SPLINE
  5
35A
100
AcDbEntity
  8
0
370
    35
390
0
 62
     7
 48
0.03937
100
AcDbSpline
210
0.0
220
0.0
230
1.0
 70
     8
 71
     5
 72
    24
 73
    18
 74
     0
 42
0.0
 43
0.0
 40
0.0
 40
0.0
 40
0.0
 40
0.0
 40
0.0
 40
0.0
 40
4.6728346486478243
 40
4.6728346486478243
 40
4.6728346486478243
 40
7.903659938995693
 40
7.903659938995693
 40
7.903659938995693
 40
11.204328820115727
 40
11.204328820115727
 40
11.204328820115727
 40
12.861936550216118
 40
12.861936550216118
 40
12.861936550216118
 40
16.200783004501677
 40
16.200783004501677
 40
16.200783004501677
 40
16.200783004501677
 40
16.200783004501677
 40
16.200783004501677
 10
8.3470092899398267
 20
5.783863049597934
 30
0.0
 10
8.3359631767647677
 20
5.7909813734545734
 30
0.0
 10
8.3251426459281959
 20
5.7997381619665092
 30
0.0
 10
8.3147903264960856
 20
5.8099329210305948
 30
0.0
 10
8.2983432263135057
 20
5.8290767888715402
 30
0.0
 10
8.283807306942732
 20
5.8510474738204374
 30
0.0
 10
8.2782162819102663
 20
5.8604199041648188
 30
0.0
 10
8.2675397620968436
 20
5.8803264580487165
 30
0.0
 10
8.2584341896513127
 20
5.9015929288135629
 30
0.0
 10
8.254264525732216
 20
5.9126273948075037
 30
0.0
 10
8.2487160124335652
 20
5.9294198507685145
 30
0.0
 10
8.244242594928707
 20
5.9464704567664137
 30
0.0
 10
8.242868172176081
 20
5.9521939317160184
 30
0.0
 10
8.2390914509285533
 20
5.969512110886126
 30
0.0
 10
8.2364348610508031
 20
5.9869829642856818
 30
0.0
 10
8.2351750767302558
 20
5.9986917406045981
 30
0.0
 10
8.2344528829307571
 20
6.0103250364203689
 30
0.0
 10
8.2342794432978472
 20
6.0218405757241635
 30
0.0
  0
POLYLINE
  5
35B
100
AcDbEntity
  8
0
370
    35
390
0
 62
     7
 48
0.03937
100
AcDb2dPolyline
 66
     1
 10
0.0
 20
0.0
 30
0.0
 71
     2
  0
VERTEX
  5
35C
100
AcDbEntity
  8
0
370
     0
390
0
100
AcDbVertex
100
AcDb2dVertex
 10
8.183158
 20
6.048985
 30
0.0
 42
0.019459
  0
VERTEX
  5
35D
100
AcDbEntity
  8
0
370
     0
390
0
100
AcDbVertex
100
AcDb2dVertex
 10
8.182571
 20
6.022659
 30
0.0
  0
SEQEND
  5
35E
100
AcDbEntity
  8
0
370
     0
390
0
  0
ELLIPSE
  5
35F
100
AcDbEntity
  8
0
370
    35
390
0
 62
     7
 48
0.03937
100
AcDbEllipse
 10
8.333086
 20
5.949977
 30
0.0
 11
0.0682137903923702
 21
-0.2174971426184233
 31
0.0
210
0.0
220
0.0
230
1.0
 40
0.628759
 41
3.5680110236812936
 42
4.110873977975837
  0
POLYLINE
  5
360
100
AcDbEntity
  8
0
370
    35
390
0
 62
     7
 48
0.03937
100
AcDb2dPolyline
 66
     1
 10
0.0
 20
0.0
 30
0.0
 71
     2
  0
VERTEX
  5
361
100
AcDbEntity
  8
0
370
     0
390
0
100
AcDbVertex
100
AcDb2dVertex
 10
8.181732
 20
6.037695
 30
0.0
 42
0.026834
  0
VERTEX
  5
362
100
AcDbEntity
  8
0
370
     0
390
0
100
AcDbVertex
100
AcDb2dVertex
 10
8.18027
 20
6.007548
 30
0.0
  0
SEQEND
  5
363
100
AcDbEntity
  8
0
370
     0
390
0
  0
ELLIPSE
  5
364
100
AcDbEntity
  8
0
370
    35
390
0
 62
     7
 48
0.03937
100
AcDbEllipse
 10
8.383753
 20
5.97035
 30
0.0
 11
0.0644766066194088
 21
-0.2146572767289373
 31
0.0
210
0.0
220
0.0
230
1.0
 40
0.628395
 41
3.8282338484179683
 42
4.2878830952881275
  0
SPLINE
  5
365
100
AcDbEntity
  8
0
370
    35
390
0
 62
     7
 48
0.03937
100
AcDbSpline
210
0.0
220
0.0
230
1.0
 70
     8
 71
     5
 72
    15
 73
     9
 74
     0
 42
0.0
 43
0.0
 40
0.0
 40
0.0
 40
0.0
 40
0.0
 40
0.0
 40
0.0
 40
7.6628177224249443
 40
7.6628177224249443
 40
7.6628177224249443
 40
11.03576249136791
 40
11.03576249136791
 40
11.03576249136791
 40
11.03576249136791
 40
11.03576249136791
 40
11.03576249136791
 10
8.3203180166446042
 20
5.8069461483540508
 30
0.0
 10
8.2992148644239325
 20
5.8326431910578842
 30
0.0
 10
8.2809857072713253
 20
5.8624768499775231
 30
0.0
 10
8.2660572293950345
 20
5.8948936740708913
 30
0.0
 10
8.249563665215975
 20
5.9438814732872158
 30
0.0
 10
8.2409326017666533
 20
5.9943755954753897
 30
0.0
 10
8.2390569974024288
 20
6.0098702174897607
 30
0.0
 10
8.2379775122809136
 20
6.0253420903799118
 30
0.0
 10
8.2377325534207717
 20
6.0406901515598541
 30
0.0
  0
POLYLINE
  5
366
100
AcDbEntity
  8
0
370
    35
390
0
 62
     7
 48
0.03937
100
AcDb2dPolyline
 66
     1
 10
0.0
 20
0.0
 30
0.0
 71
     2
  0
VERTEX
  5
367
100
AcDbEntity
  8
0
370
     0
390
0
100
AcDbVertex
100
AcDb2dVertex
 10
8.312557
 20
5.815119
 30
0.0
 42
0.063638
  0
VERTEX
  5
368
100
AcDbEntity
  8
0
370
     0
390
0
100
AcDbVertex
100
AcDb2dVertex
 10
8.347283
 20
5.784812
 30
0.0
  0
SEQEND
  5
369
100
AcDbEntity
  8
0
370
     0
390
0
  0
SPLINE
  5
36A
100
AcDbEntity
  8
0
370
    35
390
0
 62
     7
 48
0.03937
100
AcDbSpline
210
0.0
220
0.0
230
1.0
 70
     8
 71
     5
 72
    21
 73
    15
 74
     0
 42
0.0
 43
0.0
 40
0.0
 40
0.0
 40
0.0
 40
0.0
 40
0.0
 40
0.0
 40
3.872981600089056
 40
3.872981600089056
 40
3.872981600089056
 40
9.2166142639642352
 40
9.2166142639642352
 40
9.2166142639642352
 40
11.892585078098278
 40
11.892585078098278
 40
11.892585078098278
 40
13.237039939828721
 40
13.237039939828721
 40
13.237039939828721
 40
13.237039939828721
 40
13.237039939828721
 40
13.237039939828721
 10
8.312540218696439
 20
5.8151032218420617
 30
0.0
 10
8.3043503808915702
 20
5.8241550813683967
 30
0.0
 10
8.2965691457333168
 20
5.834007372483268
 30
0.0
 10
8.2892159767638418
 20
5.8445902517890111
 30
0.0
 10
8.2729009402653233
 20
5.8711981904798662
 30
0.0
 10
8.2594861699836919
 20
5.9009727637223568
 30
0.0
 10
8.2528924492013367
 20
5.9189066893140039
 30
0.0
 10
8.244835187944668
 20
5.946341991225677
 30
0.0
 10
8.239630041683478
 20
5.9742738484429196
 30
0.0
 10
8.2382202682287158
 20
5.9836078643680048
 30
0.0
 10
8.2365996146197489
 20
5.997662256727903
 30
0.0
 10
8.2357518167028516
 20
6.0116430137924528
 30
0.0
 10
8.235555704603021
 20
6.0163076526774431
 30
0.0
 10
8.2354481277205576
 20
6.020953982901383
 30
0.0
 10
8.2354299294632476
 20
6.025579354518066
 30
0.0
  0
SPLINE
  5
36B
100
AcDbEntity
  8
0
370
    35
390
0
 62
     7
 48
0.03937
100
AcDbSpline
210
0.0
220
0.0
230
1.0
 70
     8
 71
     5
 72
    21
 73
    15
 74
     0
 42
0.0
 43
0.0
 40
0.0
 40
0.0
 40
0.0
 40
0.0
 40
0.0
 40
0.0
 40
2.3113862374802037
 40
2.3113862374802037
 40
2.3113862374802037
 40
7.0531990130649618
 40
7.0531990130649618
 40
7.0531990130649618
 40
9.4344814815091933
 40
9.4344814815091933
 40
9.4344814815091933
 40
11.813896229313338
 40
11.813896229313338
 40
11.813896229313338
 40
11.813896229313338
 40
11.813896229313338
 40
11.813896229313338
 10
8.3539469181241053
 20
5.847889097117501
 30
0.0
 10
8.3493875900184573
 20
5.8538563107808974
 30
0.0
 10
8.3449901046984039
 20
5.860071013136297
 30
0.0
 10
8.3407736724345103
 20
5.8664927922184686
 30
0.0
 10
8.3283579508180825
 20
5.8868701343446403
 30
0.0
 10
8.3175928488227644
 20
5.9091925508761998
 30
0.0
 10
8.3112313224462628
 20
5.9248447982561414
 30
0.0
 10
8.3030996984808816
 20
5.9489593590332621
 30
0.0
 10
8.2971956593092937
 20
5.9735603690484007
 30
0.0
 10
8.2954680280716762
 20
5.9818492253746092
 30
0.0
 10
8.2925325827471106
 20
5.9984512574966136
 30
0.0
 10
8.2906442737951807
 20
6.0150879544988927
 30
0.0
 10
8.2899675614163701
 20
6.0233990601048149
 30
0.0
 10
8.2895652679080722
 20
6.0316653647135547
 30
0.0
 10
8.2894416668855069
 20
6.0398718648980054
 30
0.0
  0
POLYLINE
  5
36C
100
AcDbEntity
  8
0
370
    35
390
0
 62
     7
 48
0.03937
100
AcDb2dPolyline
 66
     1
 10
0.0
 20
0.0
 30
0.0
 71
     2
  0
VERTEX
  5
36D
100
AcDbEntity
  8
0
370
     0
390
0
100
AcDbVertex
100
AcDb2dVertex
 10
8.238321
 20
6.067016
 30
0.0
 42
0.019459
  0
VERTEX
  5
36E
100
AcDbEntity
  8
0
370
     0
390
0
100
AcDbVertex
100
AcDb2dVertex
 10
8.237733
 20
6.04069
 30
0.0
  0
SEQEND
  5
36F
100
AcDbEntity
  8
0
370
     0
390
0
  0
POLYLINE
  5
370
100
AcDbEntity
  8
0
370
    35
390
0
 62
     7
 48
0.03937
100
AcDb2dPolyline
 66
     1
 10
0.0
 20
0.0
 30
0.0
 71
     2
  0
VERTEX
  5
371
100
AcDbEntity
  8
0
370
     0
390
0
100
AcDbVertex
100
AcDb2dVertex
 10
8.249121
 20
6.109967
 30
0.0
 42
0.06289
  0
VERTEX
  5
372
100
AcDbEntity
  8
0
370
     0
390
0
100
AcDbVertex
100
AcDb2dVertex
 10
8.236919
 20
6.055724
 30
0.0
  0
SEQEND
  5
373
100
AcDbEntity
  8
0
370
     0
390
0
  0
POLYLINE
  5
374
100
AcDbEntity
  8
0
370
    35
390
0
 62
     7
 48
0.03937
100
AcDb2dPolyline
 66
     1
 10
0.0
 20
0.0
 30
0.0
 71
     2
  0
VERTEX
  5
375
100
AcDbEntity
  8
0
370
     0
390
0
100
AcDbVertex
100
AcDb2dVertex
 10
8.236894
 20
6.055726
 30
0.0
 42
0.026834
  0
VERTEX
  5
376
100
AcDbEntity
  8
0
370
     0
390
0
100
AcDbVertex
100
AcDb2dVertex
 10
8.235432
 20
6.025579
 30
0.0
  0
SEQEND
  5
377
100
AcDbEntity
  8
0
370
     0
390
0
  0
POLYLINE
  5
378
100
AcDbEntity
  8
0
370
    35
390
0
 62
     7
 48
0.03937
100
AcDb2dPolyline
 66
     1
 10
0.0
 20
0.0
 30
0.0
 71
     2
  0
VERTEX
  5
379
100
AcDbEntity
  8
0
370
     0
390
0
100
AcDbVertex
100
AcDb2dVertex
 10
8.289738
 20
6.058311
 30
0.0
 42
0.015757
  0
VERTEX
  5
37A
100
AcDbEntity
  8
0
370
     0
390
0
100
AcDbVertex
100
AcDb2dVertex
 10
8.289442
 20
6.039872
 30
0.0
  0
SEQEND
  5
37B
100
AcDbEntity
  8
0
370
     0
390
0
  0
SPLINE
  5
37C
100
AcDbEntity
  8
0
370
    35
390
0
 62
     7
 48
0.03937
100
AcDbSpline
210
0.0
220
0.0
230
1.0
 70
     8
 71
     5
 72
    15
 73
     9
 74
     0
 42
0.0
 43
0.0
 40
0.0
 40
0.0
 40
0.0
 40
0.0
 40
0.0
 40
0.0
 40
8.1886409654910857
 40
8.1886409654910857
 40
8.1886409654910857
 40
9.1045200508185395
 40
9.1045200508185395
 40
9.1045200508185395
 40
9.1045200508185395
 40
9.1045200508185395
 40
9.1045200508185395
 10
8.3537400234343693
 20
5.8550253780814394
 30
0.0
 10
8.3340157668085357
 20
5.885899877314154
 30
0.0
 10
8.3178678495836778
 20
5.9203945345820532
 30
0.0
 10
8.3056458822191672
 20
5.9569652953144532
 30
0.0
 10
8.2967270923899186
 20
5.9988266423199201
 30
0.0
 10
8.2936110806049701
 20
6.0405099845516812
 30
0.0
 10
8.2933569614784552
 20
6.0447010742365315
 30
0.0
 10
8.2931630979667119
 20
6.0488851398047316
 30
0.0
 10
8.2930301450808308
 20
6.0530617176457708
 30
0.0
  0
SPLINE
  5
37D
100
AcDbEntity
  8
0
370
    35
390
0
 62
     7
 48
0.03937
100
AcDbSpline
210
0.0
220
0.0
230
1.0
 70
     8
 71
     5
 72
    21
 73
    15
 74
     0
 42
0.0
 43
0.0
 40
0.0
 40
0.0
 40
0.0
 40
0.0
 40
0.0
 40
0.0
 40
2.3275390234991122
 40
2.3275390234991122
 40
2.3275390234991122
 40
7.0998165493096845
 40
7.0998165493096845
 40
7.0998165493096845
 40
10.690066457059103
 40
10.690066457059103
 40
10.690066457059103
 40
11.886713526778676
 40
11.886713526778676
 40
11.886713526778676
 40
11.886713526778676
 40
11.886713526778676
 40
11.886713526778676
 10
8.3539032662164718
 20
5.8498931246516257
 30
0.0
 10
8.3493477463210439
 20
5.8559554030323104
 30
0.0
 10
8.3449566712746002
 20
5.8622665553839175
 30
0.0
 10
8.3407517115280267
 20
5.8687819561381778
 30
0.0
 10
8.3283769766481726
 20
5.8894562779880735
 30
0.0
 10
8.3176939432077734
 20
5.9120644813714645
 30
0.0
 10
8.3114137896571592
 20
5.9278849921408998
 30
0.0
 10
8.3021025767522652
 20
5.9562678688137902
 30
0.0
 10
8.2958698774704978
 20
5.9852819206221763
 30
0.0
 10
8.293765622426692
 20
5.9978283562363108
 30
0.0
 10
8.2917591351496061
 20
6.0145810417121606
 30
0.0
 10
8.2908525649851743
 20
6.0312121037971593
 30
0.0
 10
8.2906953547077684
 20
6.0353603129703686
 30
0.0
 10
8.2906083506162602
 20
6.0394937800108979
 30
0.0
 10
8.2905921530509055
 20
6.0436106436919115
 30
0.0
  0
POLYLINE
  5
37E
100
AcDbEntity
  8
0
370
    35
390
0
 62
     7
 48
0.03937
100
AcDb2dPolyline
 66
     1
 10
0.0
 20
0.0
 30
0.0
 71
     2
  0
VERTEX
  5
37F
100
AcDbEntity
  8
0
370
     0
390
0
100
AcDbVertex
100
AcDb2dVertex
 10
8.290827
 20
6.056595
 30
0.0
 42
0.011118
  0
VERTEX
  5
380
100
AcDbEntity
  8
0
370
     0
390
0
100
AcDbVertex
100
AcDb2dVertex
 10
8.290592
 20
6.043611
 30
0.0
  0
SEQEND
  5
381
100
AcDbEntity
  8
0
370
     0
390
0
  0
ELLIPSE
  5
382
100
AcDbEntity
  8
0
370
    35
390
0
 62
     7
 48
0.03937
100
AcDbEllipse
 10
6.962679
 20
6.344468
 30
0.0
 11
0.0604931769046969
 21
-0.1855576955463906
 31
0.0
210
0.0
220
0.0
230
1.0
 40
0.592203
 41
5.8391982065840029
 42
6.1848891919014095
  0
SPLINE
  5
383
100
AcDbEntity
  8
0
370
    35
390
0
 62
     7
 48
0.03937
100
AcDbSpline
210
0.0
220
0.0
230
1.0
 70
     8
 71
     5
 72
    15
 73
     9
 74
     0
 42
0.0
 43
0.0
 40
0.0
 40
0.0
 40
0.0
 40
0.0
 40
0.0
 40
0.0
 40
7.2857372183300431
 40
7.2857372183300431
 40
7.2857372183300431
 40
12.252840414891555
 40
12.252840414891555
 40
12.252840414891555
 40
12.252840414891555
 40
12.252840414891555
 40
12.252840414891555
 10
6.8646216124739796
 20
6.1771459641502107
 30
0.0
 10
6.84448328874696
 20
6.2014718774363597
 30
0.0
 10
6.8269341864534345
 20
6.2295670746018939
 30
0.0
 10
6.8123494567964631
 20
6.2600840746574544
 30
0.0
 10
6.7930687878806406
 20
6.3140048313081678
 30
0.0
 10
6.7833419178623959
 20
6.3701833781713084
 30
0.0
 10
6.7810519094433834
 20
6.3930921438453954
 30
0.0
 10
6.7805332082898948
 20
6.415842060330978
 30
0.0
 10
6.7819117256238517
 20
6.4380802196796223
 30
0.0
  0
ELLIPSE
  5
384
100
AcDbEntity
  8
0
370
    35
390
0
 62
     7
 48
0.03937
100
AcDbEllipse
 10
6.934863
 20
6.335101
 30
0.0
 11
0.0719398674802406
 21
-0.2212946365888505
 31
0.0
210
0.0
220
0.0
230
1.0
 40
0.624986
 41
3.1469106898471395
 42
3.7691539670862739
  0
LINE
  5
385
100
AcDbEntity
  8
0
370
    35
390
0
 62
     7
 48
0.000062
100
AcDbLine
 10
7.028584
 20
6.177573
 30
0.0
 11
7.026231
 21
6.178372
 31
0.0
210
0.0
220
0.0
230
1.0
  0
SPLINE
  5
386
100
AcDbEntity
  8
0
370
    35
390
0
 62
     7
 48
0.03937
100
AcDbSpline
210
0.0
220
0.0
230
1.0
 70
     8
 71
     5
 72
    15
 73
     9
 74
     0
 42
0.0
 43
0.0
 40
0.0
 40
0.0
 40
0.0
 40
0.0
 40
0.0
 40
0.0
 40
7.2569940852482606
 40
7.2569940852482606
 40
7.2569940852482606
 40
12.201264756026575
 40
12.201264756026575
 40
12.201264756026575
 40
12.201264756026575
 40
12.201264756026575
 40
12.201264756026575
 10
6.9190710335173584
 20
6.1960417411788775
 30
0.0
 10
6.899085441788908
 20
6.2203777748574645
 30
0.0
 10
6.8816774854904494
 20
6.2484238994388077
 30
0.0
 10
6.867212942964029
 20
6.2788562629685831
 30
0.0
 10
6.8481024620507416
 20
6.3325845601785522
 30
0.0
 10
6.838472680093628
 20
6.3885305903762664
 30
0.0
 10
6.8362094043732942
 20
6.4113325733576962
 30
0.0
 10
6.8357017686729886
 20
6.4339755729729022
 30
0.0
 10
6.8370739491449957
 20
6.4561115086914755
 30
0.0
  0
ELLIPSE
  5
387
100
AcDbEntity
  8
0
370
    35
390
0
 62
     7
 48
0.03937
100
AcDbEllipse
 10
6.989226
 20
6.354369
 30
0.0
 11
0.0709476038027566
 21
-0.2201169676366758
 31
0.0
210
0.0
220
0.0
230
1.0
 40
0.62645
 41
3.3499202967784054
 42
3.7726982335561909
  0
SPLINE
  5
388
100
AcDbEntity
  8
0
370
    35
390
0
 62
     7
 48
0.03937
100
AcDbSpline
210
0.0
220
0.0
230
1.0
 70
     8
 71
     5
 72
    18
 73
    12
 74
     0
 42
0.0
 43
0.0
 40
0.0
 40
0.0
 40
0.0
 40
0.0
 40
0.0
 40
0.0
 40
6.6254187284068493
 40
6.6254187284068493
 40
6.6254187284068493
 40
9.2600611513707705
 40
9.2600611513707705
 40
9.2600611513707705
 40
13.125028876526148
 40
13.125028876526148
 40
13.125028876526148
 40
13.125028876526148
 40
13.125028876526148
 40
13.125028876526148
 10
6.8341935955109658
 20
6.4130010535282231
 30
0.0
 10
6.834410623662948
 20
6.3901781920497509
 30
0.0
 10
6.8367932601075214
 20
6.3668694100380092
 30
0.0
 10
6.8412331555714916
 20
6.3434935408328528
 30
0.0
 10
6.8501888713538266
 20
6.3114456552029914
 30
0.0
 10
6.8625213491314394
 20
6.2813918008825853
 30
0.0
 10
6.8663085037768008
 20
6.2729896753686303
 30
0.0
 10
6.8762872858271979
 20
6.2527709544976284
 30
0.0
 10
6.887849150461312
 20
6.2338552567426593
 30
0.0
 10
6.8952436635223764
 20
6.2231951702572221
 30
0.0
 10
6.9030802026291536
 20
6.2132798586086722
 30
0.0
 10
6.9112637379250943
 20
6.2042313927766974
 30
0.0
  0
ELLIPSE
  5
389
100
AcDbEntity
  8
0
370
    35
390
0
 62
     7
 48
0.03937
100
AcDbEllipse
 10
6.96272
 20
6.349176
 30
0.0
 11
0.0600082118375567
 21
-0.1904580382895938
 31
0.0
210
0.0
220
0.0
230
1.0
 40
0.588236
 41
5.3746115297205801
 42
5.8495962128351335
  0
SPLINE
  5
38A
100
AcDbEntity
  8
0
370
    35
390
0
 62
     7
 48
0.03937
100
AcDbSpline
210
0.0
220
0.0
230
1.0
 70
     8
 71
     5
 72
    21
 73
    15
 74
     0
 42
0.0
 43
0.0
 40
0.0
 40
0.0
 40
0.0
 40
0.0
 40
0.0
 40
0.0
 40
7.5972268233281159
 40
7.5972268233281159
 40
7.5972268233281159
 40
13.21078716868427
 40
13.21078716868427
 40
13.21078716868427
 40
15.024795567150333
 40
15.024795567150333
 40
15.024795567150333
 40
18.449649904256511
 40
18.449649904256511
 40
18.449649904256511
 40
18.449649904256511
 40
18.449649904256511
 40
18.449649904256511
 10
6.8330112329806028
 20
6.4126145658323566
 30
0.0
 10
6.8332600945537285
 20
6.3864440757026495
 30
0.0
 10
6.8363566556887836
 20
6.3596336893997352
 30
0.0
 10
6.8421351887153135
 20
6.3329522218303644
 30
0.0
 10
6.8564523542993934
 20
6.2879599930740238
 30
0.0
 10
6.8774985751375128
 20
6.24739248263276
 30
0.0
 10
6.8876367435347303
 20
6.2310673638213956
 30
0.0
 10
6.90245017714002
 20
6.2113538549306515
 30
0.0
 10
6.9185296332118016
 20
6.1948609776268206
 30
0.0
 10
6.9225273163755991
 20
6.1910327318464429
 30
0.0
 10
6.934245376499347
 20
6.1805884836954839
 30
0.0
 10
6.9464636751488076
 20
6.1719428458644208
 30
0.0
 10
6.9546087490323716
 20
6.1671357602373886
 30
0.0
 10
6.9628386421335353
 20
6.1632503287074769
 30
0.0
 10
6.9710691878164672
 20
6.1603409879449016
 30
0.0
  0
ELLIPSE
  5
38B
100
AcDbEntity
  8
0
370
    35
390
0
 62
     7
 48
0.03937
100
AcDbEllipse
 10
6.988657
 20
6.353067
 30
0.0
 11
0.0717182161685762
 21
-0.2209837006911683
 31
0.0
210
0.0
220
0.0
230
1.0
 40
0.625379
 41
3.3438593623488879
 42
3.7699620834550966
  0
SPLINE
  5
38C
100
AcDbEntity
  8
0
370
    35
390
0
 62
     7
 48
0.03937
100
AcDbSpline
210
0.0
220
0.0
230
1.0
 70
     8
 71
     5
 72
    21
 73
    15
 74
     0
 42
0.0
 43
0.0
 40
0.0
 40
0.0
 40
0.0
 40
0.0
 40
0.0
 40
0.0
 40
7.59723760196146
 40
7.59723760196146
 40
7.59723760196146
 40
13.210790761010998
 40
13.210790761010998
 40
13.210790761010998
 40
15.024796435329884
 40
15.024796435329884
 40
15.024796435329884
 40
18.449644783694097
 40
18.449644783694097
 40
18.449644783694097
 40
18.449644783694097
 40
18.449644783694097
 40
18.449644783694097
 10
6.8881734565682722
 20
6.4306458550062038
 30
0.0
 10
6.8884223184940039
 20
6.4044753277493554
 30
0.0
 10
6.8915188880795641
 20
6.377664902401758
 30
0.0
 10
6.8972974379645811
 20
6.3509833939568754
 30
0.0
 10
6.9116146234959661
 20
6.305991163130372
 30
0.0
 10
6.9326608721709526
 20
6.2654236488280315
 30
0.0
 10
6.942799043726966
 20
6.2490985376269306
 30
0.0
 10
6.9576124878046643
 20
6.2293850400755391
 30
0.0
 10
6.9736919358732088
 20
6.2128921894849807
 30
0.0
 10
6.9776896149592167
 20
6.2090639518127766
 30
0.0
 10
6.989407659526707
 20
6.1986197282451361
 30
0.0
 10
7.0016259402590002
 20
6.1899741104449273
 30
0.0
 10
7.0097710008927594
 20
6.1851670359683704
 30
0.0
 10
7.0180008801108578
 20
6.1812816127929668
 30
0.0
 10
7.0262314114041269
 20
6.1783722771187453
 30
0.0
  0
POLYLINE
  5
38D
100
AcDbEntity
  8
0
370
    35
390
0
 62
     7
 48
0.03937
100
AcDb2dPolyline
 66
     1
 10
0.0
 20
0.0
 30
0.0
 71
     2
  0
VERTEX
  5
38E
100
AcDbEntity
  8
0
370
     0
390
0
100
AcDbVertex
100
AcDb2dVertex
 10
6.918648
 20
6.549877
 30
0.0
 42
0.049023
  0
VERTEX
  5
38F
100
AcDbEntity
  8
0
370
     0
390
0
100
AcDbVertex
100
AcDb2dVertex
 10
6.90457
 20
6.523504
 30
0.0
  0
SEQEND
  5
390
100
AcDbEntity
  8
0
370
     0
390
0
  0
LINE
  5
391
100
AcDbEntity
  8
0
370
    35
390
0
 62
     7
 48
0.000098
100
AcDbLine
 10
7.028971
 20
6.178222
 30
0.0
 11
7.025268
 21
6.179544
 31
0.0
210
0.0
220
0.0
230
1.0
  0
SPLINE
  5
392
100
AcDbEntity
  8
0
370
    35
390
0
 62
     7
 48
0.03937
100
AcDbSpline
210
0.0
220
0.0
230
1.0
 70
     8
 71
     5
 72
    15
 73
     9
 74
     0
 42
0.0
 43
0.0
 40
0.0
 40
0.0
 40
0.0
 40
0.0
 40
0.0
 40
0.0
 40
7.9539579375972833
 40
7.9539579375972833
 40
7.9539579375972833
 40
8.7989505789082152
 40
8.7989505789082152
 40
8.7989505789082152
 40
8.7989505789082152
 40
8.7989505789082152
 40
8.7989505789082152
 10
6.7628979001433942
 20
6.2343929823456055
 30
0.0
 10
6.7476715300117043
 20
6.2675653563984559
 30
0.0
 10
6.7360824496898077
 20
6.3030463597189117
 30
0.0
 10
6.7283906941714875
 20
6.3397249678378174
 30
0.0
 10
6.7246179100018777
 20
6.3805903948381726
 30
0.0
 10
6.7267180077777686
 20
6.4200802359552158
 30
0.0
 10
6.7269745778047012
 20
6.4238596432138166
 30
0.0
 10
6.7272864635155658
 20
6.4276212983433059
 30
0.0
 10
6.7276543839751746
 20
6.4313647815378525
 30
0.0
  0
ELLIPSE
  5
393
100
AcDbEntity
  8
0
370
    35
390
0
 62
     7
 48
0.03937
100
AcDbEllipse
 10
6.961577
 20
6.343804
 30
0.0
 11
0.060421989123706
 21
-0.1852779065054115
 31
0.0
210
0.0
220
0.0
230
1.0
 40
0.592676
 41
5.8559627370686878
 42
6.192939645949699
  0
SPLINE
  5
394
100
AcDbEntity
  8
0
370
    35
390
0
 62
     7
 48
0.03937
100
AcDbSpline
210
0.0
220
0.0
230
1.0
 70
     8
 71
     5
 72
    15
 73
     9
 74
     0
 42
0.0
 43
0.0
 40
0.0
 40
0.0
 40
0.0
 40
0.0
 40
0.0
 40
0.0
 40
7.2569933226800973
 40
7.2569933226800973
 40
7.2569933226800973
 40
12.201263882900646
 40
12.201263882900646
 40
12.201263882900646
 40
12.201263882900646
 40
12.201263882900646
 40
12.201263882900646
 10
6.9742332383062671
 20
6.2140730519353271
 30
0.0
 10
6.954247653755834
 20
6.2384090826629448
 30
0.0
 10
6.9368397030503166
 20
6.2664552026339715
 30
0.0
 10
6.9223751638070707
 20
6.29688756127495
 30
0.0
 10
6.9032646855145465
 20
6.3506158524225924
 30
0.0
 10
6.8936349039473797
 20
6.4065618779407849
 30
0.0
 10
6.8913716282544302
 20
6.4293638605902235
 30
0.0
 10
6.8908639921479713
 20
6.4520068591738573
 30
0.0
 10
6.8922361726555357
 20
6.4741427949909172
 30
0.0
  0
POLYLINE
  5
395
100
AcDbEntity
  8
0
370
    35
390
0
 62
     7
 48
0.03937
100
AcDb2dPolyline
 66
     1
 10
0.0
 20
0.0
 30
0.0
 71
     2
  0
VERTEX
  5
396
100
AcDbEntity
  8
0
370
     0
390
0
100
AcDbVertex
100
AcDb2dVertex
 10
6.919294
 20
6.549459
 30
0.0
 42
0.047237
  0
VERTEX
  5
397
100
AcDbEntity
  8
0
370
     0
390
0
100
AcDbVertex
100
AcDb2dVertex
 10
6.905751
 20
6.523891
 30
0.0
  0
SEQEND
  5
398
100
AcDbEntity
  8
0
370
     0
390
0
  0
SPLINE
  5
399
100
AcDbEntity
  8
0
370
    35
390
0
 62
     7
 48
0.03937
100
AcDbSpline
210
0.0
220
0.0
230
1.0
 70
     8
 71
     5
 72
    18
 73
    12
 74
     0
 42
0.0
 43
0.0
 40
0.0
 40
0.0
 40
0.0
 40
0.0
 40
0.0
 40
0.0
 40
6.6254177245755486
 40
6.6254177245755486
 40
6.6254177245755486
 40
9.2600595114282047
 40
9.2600595114282047
 40
9.2600595114282047
 40
13.125026709909012
 40
13.125026709909012
 40
13.125026709909012
 40
13.125026709909012
 40
13.125026709909012
 40
13.125026709909012
 10
6.889355819098669
 20
6.4310323427020819
 30
0.0
 10
6.8895728472191218
 20
6.4082094846817261
 30
0.0
 10
6.8919554830080223
 20
6.3849007062911758
 30
0.0
 10
6.8963953778343274
 20
6.3615248392286823
 30
0.0
 10
6.905351093381638
 20
6.3294769570632088
 30
0.0
 10
6.9176835681541702
 20
6.2994231091165016
 30
0.0
 10
6.9214707216414313
 20
6.2910209855240034
 30
0.0
 10
6.9314495011904302
 20
6.2708022672100947
 30
0.0
 10
6.9430113644651872
 20
6.2518865677247879
 30
0.0
 10
6.9504058773317219
 20
6.2412264790914653
 30
0.0
 10
6.9582424157815561
 20
6.2313111659342626
 30
0.0
 10
6.9664259492258473
 20
6.2222626994957668
 30
0.0
  0
ELLIPSE
  5
39A
100
AcDbEntity
  8
0
370
    35
390
0
 62
     7
 48
0.03937
100
AcDbEllipse
 10
7.017882
 20
6.367208
 30
0.0
 11
0.0600080867504817
 21
-0.190458597245958
 31
0.0
210
0.0
220
0.0
230
1.0
 40
0.588236
 41
5.3746134132195476
 42
5.8495975213589384
  0
ELLIPSE
  5
39B
100
AcDbEntity
  8
0
370
    35
390
0
 62
     7
 48
0.03937
100
AcDbEllipse
 10
6.933824
 20
6.334525
 30
0.0
 11
0.0721261461088051
 21
-0.2214705628670725
 31
0.0
210
0.0
220
0.0
230
1.0
 40
0.624772
 41
3.1422652634440196
 42
3.7685117273060076
  0
POLYLINE
  5
39C
100
AcDbEntity
  8
0
370
    35
390
0
 62
     7
 48
0.03937
100
AcDb2dPolyline
 66
     1
 10
0.0
 20
0.0
 30
0.0
 71
     2
  0
VERTEX
  5
39D
100
AcDbEntity
  8
0
370
     0
390
0
100
AcDbVertex
100
AcDb2dVertex
 10
6.900665
 20
6.560038
 30
0.0
 42
0.104056
  0
VERTEX
  5
39E
100
AcDbEntity
  8
0
370
     0
390
0
100
AcDbVertex
100
AcDb2dVertex
 10
6.861601
 20
6.555976
 30
0.0
  0
SEQEND
  5
39F
100
AcDbEntity
  8
0
370
     0
390
0
  0
SPLINE
  5
3A0
100
AcDbEntity
  8
0
370
    35
390
0
 62
     7
 48
0.03937
100
AcDbSpline
210
0.0
220
0.0
230
1.0
 70
     8
 71
     5
 72
    21
 73
    15
 74
     0
 42
0.0
 43
0.0
 40
0.0
 40
0.0
 40
0.0
 40
0.0
 40
0.0
 40
0.0
 40
6.2352598824726222
 40
6.2352598824726222
 40
6.2352598824726222
 40
9.3433258455387662
 40
9.3433258455387662
 40
9.3433258455387662
 40
13.91742520715804
 40
13.91742520715804
 40
13.91742520715804
 40
15.342914690023687
 40
15.342914690023687
 40
15.342914690023687
 40
15.342914690023687
 40
15.342914690023687
 40
15.342914690023687
 10
6.943335680156034
 20
6.4486771441800812
 30
0.0
 10
6.943539927916377
 20
6.4271982794567242
 30
0.0
 10
6.9456623722348372
 20
6.4052883837958117
 30
0.0
 10
6.9496136801919279
 20
6.3832812806640815
 30
0.0
 10
6.9581751959450555
 20
6.3508058056752921
 30
0.0
 10
6.970234795786217
 20
6.320215625796191
 30
0.0
 10
6.9746189903352871
 20
6.3102775548054009
 30
0.0
 10
6.9863775943580153
 20
6.2863367586729213
 30
0.0
 10
7.0003399032999223
 20
6.2642459301131899
 30
0.0
 10
7.0093558003888443
 20
6.2519819707186199
 30
0.0
 10
7.0219130909072014
 20
6.2373808512869129
 30
0.0
 10
7.0352027185372394
 20
6.2250047182852954
 30
0.0
 10
7.0384010593382227
 20
6.2221915207553939
 30
0.0
 10
7.0416365530035669
 20
6.2195109332703966
 30
0.0
 10
7.0449060634894458
 20
6.2169674624651927
 30
0.0
  0
SPLINE
  5
3A1
100
AcDbEntity
  8
0
370
    35
390
0
 62
     7
 48
0.03937
100
AcDbSpline
210
0.0
220
0.0
230
1.0
 70
     8
 71
     5
 72
    15
 73
     9
 74
     0
 42
0.0
 43
0.0
 40
0.0
 40
0.0
 40
0.0
 40
0.0
 40
0.0
 40
0.0
 40
7.2569937331810586
 40
7.2569937331810586
 40
7.2569937331810586
 40
12.201264734807577
 40
12.201264734807577
 40
12.201264734807577
 40
12.201264734807577
 40
12.201264734807577
 40
12.201264734807577
 10
7.0293954717082041
 20
6.2321043313522413
 30
0.0
 10
7.009409885715014
 20
6.2564403613396458
 30
0.0
 10
6.9920019333719434
 20
6.284486480750366
 30
0.0
 10
6.9775373924676911
 20
6.3149188390154247
 30
0.0
 10
6.9584269114464909
 20
6.3686471316283724
 30
0.0
 10
6.9487971282001375
 20
6.4245931602975963
 30
0.0
 10
6.9465338519764996
 20
6.4473951450822735
 30
0.0
 10
6.9460262156446717
 20
6.4700381458143301
 30
0.0
 10
6.9473983961775083
 20
6.4921740835948087
 30
0.0
  0
SPLINE
  5
3A2
100
AcDbEntity
  8
0
370
    35
390
0
 62
     7
 48
0.03937
100
AcDbSpline
210
0.0
220
0.0
230
1.0
 70
     8
 71
     5
 72
    18
 73
    12
 74
     0
 42
0.0
 43
0.0
 40
0.0
 40
0.0
 40
0.0
 40
0.0
 40
0.0
 40
0.0
 40
6.6254191957130324
 40
6.6254191957130324
 40
6.6254191957130324
 40
9.2600620626170809
 40
9.2600620626170809
 40
9.2600620626170809
 40
13.125030075076683
 40
13.125030075076683
 40
13.125030075076683
 40
13.125030075076683
 40
13.125030075076683
 40
13.125030075076683
 10
6.9445180426862851
 20
6.4490636318759114
 30
0.0
 10
6.9447350708536515
 20
6.4262407687900636
 30
0.0
 10
6.9471177076254085
 20
6.4029319851578359
 30
0.0
 10
6.9515576039975402
 20
6.3795561172541593
 30
0.0
 10
6.9605133198360321
 20
6.3475082348125396
 30
0.0
 10
6.9728457991845172
 20
6.3174543796878719
 30
0.0
 10
6.9766329543344074
 20
6.3090522539360512
 30
0.0
 10
6.9866117369739662
 20
6.2888335335823093
 30
0.0
 10
6.9981735999692871
 20
6.269917838827249
 30
0.0
 10
7.0055681108931918
 20
6.2592577548589663
 30
0.0
 10
7.0134046474405185
 20
6.2493424450676276
 30
0.0
 10
7.0215881805020413
 20
6.2402939800883619
 30
0.0
  0
POLYLINE
  5
3A3
100
AcDbEntity
  8
0
370
    35
390
0
 62
     7
 48
0.03937
100
AcDb2dPolyline
 66
     1
 10
0.0
 20
0.0
 30
0.0
 71
     2
  0
VERTEX
  5
3A4
100
AcDbEntity
  8
0
370
     0
390
0
100
AcDbVertex
100
AcDb2dVertex
 10
7.021593
 20
6.240299
 30
0.0
 42
0.041834
  0
VERTEX
  5
3A5
100
AcDbEntity
  8
0
370
     0
390
0
100
AcDbVertex
100
AcDb2dVertex
 10
7.045192
 20
6.218047
 30
0.0
  0
SEQEND
  5
3A6
100
AcDbEntity
  8
0
370
     0
390
0
  0
SPLINE
  5
3A7
100
AcDbEntity
  8
0
370
    35
390
0
 62
     7
 48
0.03937
100
AcDbSpline
210
0.0
220
0.0
230
1.0
 70
     8
 71
     5
 72
    15
 73
     9
 74
     0
 42
0.0
 43
0.0
 40
0.0
 40
0.0
 40
0.0
 40
0.0
 40
0.0
 40
0.0
 40
6.7796010270381606
 40
6.7796010270381606
 40
6.7796010270381606
 40
9.6463434497130045
 40
9.6463434497130045
 40
9.6463434497130045
 40
9.6463434497130045
 40
9.6463434497130045
 40
9.6463434497130045
 10
6.9988064974356368
 20
6.4555855208311597
 30
0.0
 10
6.99988364378786
 20
6.4320515204970707
 30
0.0
 10
7.0032003839613424
 20
6.4080859672894039
 30
0.0
 10
7.008655438615083
 20
6.3843160711020772
 30
0.0
 10
7.0191700554555378
 20
6.3515186615100907
 30
0.0
 10
7.0332761318903012
 20
6.3210613505181303
 30
0.0
 10
7.037794263449225
 20
6.3122038143034862
 30
0.0
 10
7.0426186213706616
 20
6.3036107469462745
 30
0.0
 10
7.0477309192613191
 20
6.2953274858844148
 30
0.0
  0
POLYLINE
  5
3A8
100
AcDbEntity
  8
0
370
    35
390
0
 62
     7
 48
0.03937
100
AcDb2dPolyline
 66
     1
 10
0.0
 20
0.0
 30
0.0
 71
     2
  0
VERTEX
  5
3A9
100
AcDbEntity
  8
0
370
     0
390
0
100
AcDbVertex
100
AcDb2dVertex
 10
7.004763
 20
6.444196
 30
0.0
 42
0.087193
  0
VERTEX
  5
3AA
100
AcDbEntity
  8
0
370
     0
390
0
100
AcDbVertex
100
AcDb2dVertex
 10
7.046186
 20
6.309123
 30
0.0
  0
SEQEND
  5
3AB
100
AcDbEntity
  8
0
370
     0
390
0
  0
SPLINE
  5
3AC
100
AcDbEntity
  8
0
370
    35
390
0
 62
     7
 48
0.03937
100
AcDbSpline
210
0.0
220
0.0
230
1.0
 70
     8
 71
     5
 72
    15
 73
     9
 74
     0
 42
0.0
 43
0.0
 40
0.0
 40
0.0
 40
0.0
 40
0.0
 40
0.0
 40
0.0
 40
6.5468777704321308
 40
6.5468777704321308
 40
6.5468777704321308
 40
9.3155275050484008
 40
9.3155275050484008
 40
9.3155275050484008
 40
9.3155275050484008
 40
9.3155275050484008
 40
9.3155275050484008
 10
7.0001320583675151
 20
6.4531256758725419
 30
0.0
 10
7.0013809984228876
 20
6.4303584046783415
 30
0.0
 10
7.0047130161880542
 20
6.4072057633551225
 30
0.0
 10
7.0100395611107107
 20
6.3842568066986267
 30
0.0
 10
7.020183404964067
 20
6.3525827124572718
 30
0.0
 10
7.033677849406252
 20
6.3230845916127647
 30
0.0
 10
7.0379915706043432
 20
6.3144983758065516
 30
0.0
 10
7.0425927459185829
 20
6.3061516157684698
 30
0.0
 10
7.0474661143694135
 20
6.2980846362654326
 30
0.0
  0
LINE
  5
3AD
100
AcDbEntity
  8
0
370
    35
390
0
 62
     7
 48
0.03937
100
AcDbLine
 10
8.03122
 20
7.397463
 30
0.0
 11
6.969347
 21
7.05036
 31
0.0
210
0.0
220
0.0
230
1.0
  0
LINE
  5
3AE
100
AcDbEntity
  8
0
370
    35
390
0
 62
     7
 48
0.03937
100
AcDbLine
 10
9.25143
 20
3.664278
 30
0.0
 11
8.189558
 21
3.317176
 31
0.0
210
0.0
220
0.0
230
1.0
  0
LINE
  5
3AF
100
AcDbEntity
  8
0
370
    35
390
0
 62
     7
 48
0.00399
100
AcDbLine
 10
7.829495
 20
4.418771
 30
0.0
 11
7.677799
 21
4.369185
 31
0.0
210
0.0
220
0.0
230
1.0
  0
LINE
  5
3B0
100
AcDbEntity
  8
0
370
    35
390
0
 62
     7
 48
0.00399
100
AcDbLine
 10
7.329409
 20
5.948765
 30
0.0
 11
7.177713
 21
5.899179
 31
0.0
210
0.0
220
0.0
230
1.0
  0
INSERT
  5
574
100
AcDbEntity
  8
0
370
     0
390
0
100
AcDbBlockReference
  2
BLOCK1
 10
0.0
 20
0.0
 30
0.0
210
0.0
220
0.0
230
1.0
  0
INSERT
  5
575
100
AcDbEntity
  8
0
370
     0
390
0
100
AcDbBlockReference
  2
BLOCK2
 10
0.0
 20
0.0
 30
0.0
210
0.0
220
0.0
230
1.0
  0
INSERT
  5
576
100
AcDbEntity
  8
0
370
     0
390
0
100
AcDbBlockReference
  2
BLOCK3
 10
0.0
 20
0.0
 30
0.0
210
0.0
220
0.0
230
1.0
  0
INSERT
  5
577
100
AcDbEntity
  8
0
370
     0
390
0
100
AcDbBlockReference
  2
BLOCK4
 10
0.0
 20
0.0
 30
0.0
210
0.0
220
0.0
230
1.0
  0
INSERT
  5
578
100
AcDbEntity
  8
0
370
     0
390
0
100
AcDbBlockReference
  2
BLOCK5
 10
0.0
 20
0.0
 30
0.0
210
0.0
220
0.0
230
1.0
  0
INSERT
  5
579
100
AcDbEntity
  8
0
370
     0
390
0
100
AcDbBlockReference
  2
BLOCK6
 10
3.283566
 20
5.713163
 30
0.0
 41
0.804824
 42
0.804824
 43
0.804824
210
0.0
220
0.0
230
1.0
  0
INSERT
  5
57A
100
AcDbEntity
  8
0
370
     0
390
0
100
AcDbBlockReference
  2
BLOCK7
 10
3.283566
 20
5.713163
 30
0.0
 41
0.804824
 42
0.804824
 43
0.804824
210
0.0
220
0.0
230
1.0
  0
INSERT
  5
57B
100
AcDbEntity
  8
0
370
     0
390
0
100
AcDbBlockReference
  2
BLOCK8
 10
3.283566
 20
5.713163
 30
0.0
 41
0.804824
 42
0.804824
 43
0.804824
210
0.0
220
0.0
230
1.0
  0
INSERT
  5
57C
100
AcDbEntity
  8
0
370
     0
390
0
100
AcDbBlockReference
  2
BLOCK9
 10
3.283566
 20
5.713163
 30
0.0
 41
0.804824
 42
0.804824
 43
0.804824
210
0.0
220
0.0
230
1.0
  0
INSERT
  5
57D
100
AcDbEntity
  8
0
370
     0
390
0
100
AcDbBlockReference
  2
BLOCK10
 10
3.283566
 20
5.713163
 30
0.0
 41
0.804824
 42
0.804824
 43
0.804824
210
0.0
220
0.0
230
1.0
  0
INSERT
  5
57E
100
AcDbEntity
  8
0
370
     0
390
0
100
AcDbBlockReference
  2
BLOCK11
 10
3.283566
 20
5.713163
 30
0.0
 41
0.804824
 42
0.804824
 43
0.804824
210
0.0
220
0.0
230
1.0
  0
INSERT
  5
57F
100
AcDbEntity
  8
0
370
     0
390
0
100
AcDbBlockReference
  2
BLOCK12
 10
3.283566
 20
5.713163
 30
0.0
 41
0.804824
 42
0.804824
 43
0.804824
210
0.0
220
0.0
230
1.0
  0
INSERT
  5
580
100
AcDbEntity
  8
0
370
     0
390
0
100
AcDbBlockReference
  2
BLOCK13
 10
3.283566
 20
5.713163
 30
0.0
 41
0.804824
 42
0.804824
 43
0.804824
210
0.0
220
0.0
230
1.0
  0
INSERT
  5
581
100
AcDbEntity
  8
0
370
     0
390
0
100
AcDbBlockReference
  2
BLOCK14
 10
3.283566
 20
2.593375
 30
0.0
 41
0.804824
 42
0.804824
 43
0.804824
210
0.0
220
0.0
230
1.0
  0
INSERT
  5
582
100
AcDbEntity
  8
0
370
     0
390
0
100
AcDbBlockReference
  2
BLOCK15
 10
3.283566
 20
2.593375
 30
0.0
 41
0.804824
 42
0.804824
 43
0.804824
210
0.0
220
0.0
230
1.0
  0
INSERT
  5
583
100
AcDbEntity
  8
0
370
     0
390
0
100
AcDbBlockReference
  2
BLOCK16
 10
3.283566
 20
2.593375
 30
0.0
 41
0.804824
 42
0.804824
 43
0.804824
210
0.0
220
0.0
230
1.0
  0
INSERT
  5
584
100
AcDbEntity
  8
0
370
     0
390
0
100
AcDbBlockReference
  2
BLOCK17
 10
3.283566
 20
2.593375
 30
0.0
 41
0.804824
 42
0.804824
 43
0.804824
210
0.0
220
0.0
230
1.0
  0
INSERT
  5
585
100
AcDbEntity
  8
0
370
     0
390
0
100
AcDbBlockReference
  2
BLOCK18
 10
3.283566
 20
2.593375
 30
0.0
 41
0.804824
 42
0.804824
 43
0.804824
210
0.0
220
0.0
230
1.0
  0
INSERT
  5
586
100
AcDbEntity
  8
0
370
     0
390
0
100
AcDbBlockReference
  2
BLOCK19
 10
3.283566
 20
2.593375
 30
0.0
 41
0.804824
 42
0.804824
 43
0.804824
210
0.0
220
0.0
230
1.0
  0
ENDSEC
  0
SECTION
  2
OBJECTS
  0
DICTIONARY
  5
19
100
AcDbDictionary
280
     0
281
     1
  3
ACAD_GROUP
350
1A
  3
ACAD_MLINESTYLE
350
1B
  3
ACAD_LAYOUT
350
1E
  3
ACAD_PLOTSETTINGS
350
22
  3
ACAD_PLOTSTYLENAME
350
1F
  3
ACAD_WIPEOUT_VARS
350
23
  0
DICTIONARY
  5
1A
102
{ACAD_REACTORS
330
19
102
}
100
AcDbDictionary
280
     0
281
     1
  0
DICTIONARY
  5
1B
102
{ACAD_REACTORS
330
19
102
}
100
AcDbDictionary
280
     0
281
     1
  3
Standard
350
1C
  0
MLINESTYLE
  5
1C
102
{ACAD_REACTORS
330
1B
102
}
100
AcDbMlineStyle
  2
Standard
 70
     0
  3

 62
     0
 51
90.0
 52
90.0
 71
     2
 49
0.5
 62
   256
  6
ByLayer
 49
-0.5
 62
   256
  6
ByLayer
  0
ACDBDICTIONARYWDFLT
  5
1F
102
{ACAD_REACTORS
330
19
102
}
100
AcDbDictionary
281
     1
  3
Normal
350
1D
100
AcDbDictionaryWithDefault
340
1D
  0
ACDBPLACEHOLDER
  5
1D
102
{ACAD_REACTORS
330
1F
102
}
  0
LAYOUT
  5
20
102
{ACAD_REACTORS
330
1E
102
}
100
AcDbPlotSettings
  1

  2

  4

  6

 40
0.0
 41
0.0
 42
0.0
 43
0.0
 44
0.0
 45
0.0
 46
0.0
 47
0.0
 48
0.0
 49
0.0
140
0.0
141
0.0
142
1.0
143
1.0
 70
  1024
 72
     0
 73
     0
 74
     0
  7

 75
     0
147
1.0
148
0.0
149
0.0
100
AcDbLayout
  1
Model
 70
     0
 71
     0
 10
0.0
 20
0.0
 11
0.0
 21
0.0
 12
0.0
 22
0.0
 32
0.0
 14
0.0
 24
0.0
 34
0.0
 15
0.0
 25
0.0
 35
0.0
146
0.0
 13
0.0
 23
0.0
 33
0.0
 16
0.0
 26
0.0
 36
0.0
 17
0.0
 27
0.0
 37
0.0
 76
     0
330
A
331
0
345
0
346
0
  0
LAYOUT
  5
21
102
{ACAD_REACTORS
330
1E
102
}
100
AcDbPlotSettings
  1

  2

  4

  6

 40
0.0
 41
0.0
 42
0.0
 43
0.0
 44
0.0
 45
0.0
 46
0.0
 47
0.0
 48
0.0
 49
0.0
140
0.0
141
0.0
142
1.0
143
1.0
 70
     0
 72
     0
 73
     0
 74
     0
  7

 75
     0
147
1.0
148
0.0
149
0.0
100
AcDbLayout
  1
Layout1
 70
     0
 71
     0
 10
0.0
 20
0.0
 11
0.0
 21
0.0
 12
0.0
 22
0.0
 32
0.0
 14
0.0
 24
0.0
 34
0.0
 15
0.0
 25
0.0
 35
0.0
146
0.0
 13
0.0
 23
0.0
 33
0.0
 16
0.0
 26
0.0
 36
0.0
 17
0.0
 27
0.0
 37
0.0
 76
     0
330
B
331
0
345
0
346
0
  0
DICTIONARY
  5
1E
102
{ACAD_REACTORS
330
19
102
}
100
AcDbDictionary
280
     0
281
     1
  3
Layout1
350
21
  3
Model
350
20
  0
DICTIONARY
  5
22
102
{ACAD_REACTORS
330
19
102
}
100
AcDbDictionary
280
     0
281
     1
  0
WIPEOUTVARIABLES
  5
23
100
AcDbWipeoutVariables
 70
     1
  0
ENDSEC
  0
EOF
