  0
SECTION
  2
HEADER
  9
$ACADVER
  1
AC1015
  9
$ACADMAINTVER
 70
     6
  9
$DWGCODEPAGE
  3
ANSI_1252
  9
$INSBASE
 10
0.0
 20
0.0
 30
0.0
  9
$EXTMIN
 10
0.0
 20
0.0
 30
0.0
  9
$EXTMAX
 10
10.770188
 20
43.053459
 30
2.0
  9
$LIMMIN
 10
0.0
 20
0.0
  9
$LIMMAX
 10
17.0
 20
11.0
  9
$ORTHOMODE
 70
     0
  9
$REGENMODE
 70
     1
  9
$FILLMODE
 70
     1
  9
$QTEXTMODE
 70
     0
  9
$MIRRTEXT
 70
     1
  9
$LTSCALE
 40
1.0
  9
$ATTMODE
 70
     1
  9
$TEXTSIZE
 40
0.2
  9
$TRACEWID
 40
0.05
  9
$TEXTSTYLE
  7
STANDARD
  9
$CLAYER
  8
0
  9
$CELTYPE
  6
ByLayer
  9
$CECOLOR
 62
   256
  9
$CELTSCALE
 40
1.0
  9
$DISPSILH
 70
     0
  9
$DIMSCALE
 40
1.0
  9
$DIMASZ
 40
0.18
  9
$DIMEXO
 40
0.0625
  9
$DIMDLI
 40
0.38
  9
$DIMRND
 40
0.0
  9
$DIMDLE
 40
0.0
  9
$DIMEXE
 40
0.18
  9
$DIMTP
 40
0.0
  9
$DIMTM
 40
0.0
  9
$DIMTXT
 40
0.18
  9
$DIMCEN
 40
0.09
  9
$DIMTSZ
 40
0.0
  9
$DIMTOL
 70
     0
  9
$DIMLIM
 70
     0
  9
$DIMTIH
 70
     1
  9
$DIMTOH
 70
     1
  9
$DIMSE1
 70
     0
  9
$DIMSE2
 70
     0
  9
$DIMTAD
 70
     0
  9
$DIMZIN
 70
     0
  9
$DIMBLK
  1

  9
$DIMASO
 70
     1
  9
$DIMSHO
 70
     1
  9
$DIMPOST
  1

  9
$DIMAPOST
  1

  9
$DIMALT
 70
     0
  9
$DIMALTD
 70
     2
  9
$DIMALTF
 40
25.4
  9
$DIMLFAC
 40
1.0
  9
$DIMTOFL
 70
     0
  9
$DIMTVP
 40
0.0
  9
$DIMTIX
 70
     0
  9
$DIMSOXD
 70
     0
  9
$DIMSAH
 70
     0
  9
$DIMBLK1
  1

  9
$DIMBLK2
  1

  9
$DIMSTYLE
  2
STANDARD
  9
$DIMCLRD
 70
     0
  9
$DIMCLRE
 70
     0
  9
$DIMCLRT
 70
     0
  9
$DIMTFAC
 40
1.0
  9
$DIMGAP
 40
0.09
  9
$DIMJUST
 70
     0
  9
$DIMSD1
 70
     0
  9
$DIMSD2
 70
     0
  9
$DIMTOLJ
 70
     1
  9
$DIMTZIN
 70
     0
  9
$DIMALTZ
 70
     0
  9
$DIMALTTZ
 70
     0
  9
$DIMUPT
 70
     0
  9
$DIMDEC
 70
     4
  9
$DIMTDEC
 70
     4
  9
$DIMALTU
 70
     2
  9
$DIMALTTD
 70
     2
  9
$DIMTXSTY
  7
STANDARD
  9
$DIMAUNIT
 70
     0
  9
$DIMADEC
 70
     0
  9
$DIMALTRND
 40
0.0
  9
$DIMAZIN
 70
     0
  9
$DIMDSEP
 70
    46
  9
$DIMATFIT
 70
     0
  9
$DIMFRAC
 70
     0
  9
$DIMLDRBLK
  1

  9
$DIMLUNIT
 70
     2
  9
$DIMLWD
 70
    -2
  9
$DIMLWE
 70
    -2
  9
$DIMTMOVE
 70
     0
  9
$LUNITS
 70
     2
  9
$LUPREC
 70
     4
  9
$SKETCHINC
 40
0.1
  9
$FILLETRAD
 40
0.125
  9
$AUNITS
 70
     0
  9
$AUPREC
 70
     0
  9
$MENU
  1
.
  9
$ELEVATION
 40
0.0
  9
$PELEVATION
 40
0.0
  9
$THICKNESS
 40
0.0
  9
$LIMCHECK
 70
     0
  9
$CHAMFERA
 40
0.125
  9
$CHAMFERB
 40
0.125
  9
$CHAMFERC
 40
0.0
  9
$CHAMFERD
 40
0.0
  9
$SKPOLY
 70
     0
  9
$TDCREATE
 40
0.000000000
  9
$TDUCREATE
 40
0.000000000
  9
$TDUPDATE
 40
0.000000000
  9
$TDUUPDATE
 40
0.000000000
  9
$TDINDWG
 40
0.0000000000
  9
$TDUSRTIMER
 40
0.0000000000
  9
$USRTIMER
 70
     1
  9
$ANGBASE
 50
0.0
  9
$ANGDIR
 70
     0
  9
$PDMODE
 70
     0
  9
$PDSIZE
 40
0.0
  9
$PLINEWID
 40
0.0
  9
$SPLFRAME
 70
     0
  9
$SPLINETYPE
 70
     6
  9
$SPLINESEGS
 70
     8
  9
$HANDSEED
  5
5F4
  9
$SURFTAB1
 70
     6
  9
$SURFTAB2
 70
     6
  9
$SURFTYPE
 70
     6
  9
$SURFU
 70
     6
  9
$SURFV
 70
     6
  9
$UCSBASE
  2

  9
$UCSNAME
  2

  9
$UCSORG
 10
0.0
 20
0.0
 30
0.0
  9
$UCSXDIR
 10
1.0
 20
0.0
 30
0.0
  9
$UCSYDIR
 10
0.0
 20
1.0
 30
0.0
  9
$UCSORTHOREF
  2

  9
$UCSORTHOVIEW
 70
     1
  9
$UCSORGTOP
 10
0.0
 20
0.0
 30
0.0
  9
$UCSORGBOTTOM
 10
0.0
 20
0.0
 30
0.0
  9
$UCSORGLEFT
 10
0.0
 20
0.0
 30
0.0
  9
$UCSORGRIGHT
 10
0.0
 20
0.0
 30
0.0
  9
$UCSORGFRONT
 10
0.0
 20
0.0
 30
0.0
  9
$UCSORGBACK
 10
0.0
 20
0.0
 30
0.0
  9
$PUCSBASE
  2

  9
$PUCSNAME
  2

  9
$PUCSORG
 10
0.0
 20
0.0
 30
0.0
  9
$PUCSXDIR
 10
1.0
 20
0.0
 30
0.0
  9
$PUCSYDIR
 10
0.0
 20
1.0
 30
0.0
  9
$PUCSORTHOREF
  2

  9
$PUCSORTHOVIEW
 70
     0
  9
$PUCSORGTOP
 10
0.0
 20
0.0
 30
0.0
  9
$PUCSORGBOTTOM
 10
0.0
 20
0.0
 30
0.0
  9
$PUCSORGLEFT
 10
0.0
 20
0.0
 30
0.0
  9
$PUCSORGRIGHT
 10
0.0
 20
0.0
 30
0.0
  9
$PUCSORGFRONT
 10
0.0
 20
0.0
 30
0.0
  9
$PUCSORGBACK
 10
0.0
 20
0.0
 30
0.0
  9
$USERI1
 70
     0
  9
$USERI2
 70
     0
  9
$USERI3
 70
     0
  9
$USERI4
 70
     0
  9
$USERI5
 70
     0
  9
$USERR1
 40
0.0
  9
$USERR2
 40
0.0
  9
$USERR3
 40
0.0
  9
$USERR4
 40
0.0
  9
$USERR5
 40
0.0
  9
$WORLDVIEW
 70
     1
  9
$SHADEDGE
 70
     3
  9
$SHADEDIF
 70
    70
  9
$TILEMODE
 70
     1
  9
$MAXACTVP
 70
    48
  9
$PINSBASE
 10
0.0
 20
0.0
 30
0.0
  9
$PLIMCHECK
 70
     0
  9
$PEXTMIN
 10
0.0
 20
0.0
 30
0.0
  9
$PEXTMAX
 10
10.770188
 20
43.053459
 30
2.0
  9
$PLIMMIN
 10
0.0
 20
0.0
  9
$PLIMMAX
 10
12.0
 20
9.0
  9
$UNITMODE
 70
     0
  9
$VISRETAIN
 70
     0
  9
$PLINEGEN
 70
     0
  9
$PSLTSCALE
 70
     1
  9
$TREEDEPTH
 70
  3020
  9
$CMLSTYLE
  2
Standard
  9
$CMLJUST
 70
     0
  9
$CMLSCALE
 40
1.0
  9
$PROXYGRAPHICS
 70
     1
  9
$MEASUREMENT
 70
     0
  9
$CELWEIGHT
370
    -1
  9
$ENDCAPS
280
     0
  9
$JOINSTYLE
280
     0
  9
$LWDISPLAY
290
     0
  9
$INSUNITS
 70
     0
  9
$HYPERLINKBASE
  1

  9
$STYLESHEET
  1

  9
$XEDIT
290
     1
  9
$CEPSNTYPE
380
     0
  9
$PSTYLEMODE
290
     0
  9
$FINGERPRINTGUID
  2

  9
$VERSIONGUID
  2

  9
$EXTNAMES
290
     0
  9
$PSVPSCALE
 40
0.0
  0
ENDSEC
  0
SECTION
  2
CLASSES
  0
CLASS
  1
LWPOLYLINE
  2
AcDbPolyline
  3
AutoCAD 2000
 90
        0
280
     0
281
     1
  0
CLASS
  1
IMAGE
  2
AcDbRasterImage
  3
ISM
 90
      127
280
     0
281
     1
  0
CLASS
  1
OLE2FRAME
  2
AcDbOle2Frame
  3
AutoCAD 2000
 90
        0
280
     0
281
     1
  0
CLASS
  1
HATCH
  2
AcDbHatch
  3
AutoCAD 2000
 90
        0
280
     0
281
     1
  0
CLASS
  1
DICTIONARYVAR
  2
AcDbDictionaryVar
  3
AutoCAD 2000
 90
        0
280
     0
281
     0
  0
CLASS
  1
RASTERVARIABLES
  2
AcDbRasterVariables
  3
ISM
 90
        0
280
     0
281
     0
  0
CLASS
  1
IMAGEDEF
  2
AcDbRasterImageDef
  3
ISM
 90
        0
280
     0
281
     0
  0
CLASS
  1
IMAGEDEF_REACTOR
  2
AcDbRasterImageDefReactor
  3
ISM
 90
        1
280
     0
281
     0
  0
CLASS
  1
IDBUFFER
  2
AcDbIdBuffer
  3
AutoCAD 2000
 90
        0
280
     0
281
     0
  0
CLASS
  1
SPATIAL_FILTER
  2
AcDbSpatialFilter
  3
AutoCAD 2000
 90
        0
280
     0
281
     0
  0
CLASS
  1
XRECORD
  2
AcDbXrecord
  3
AutoCAD 2000
 90
        0
280
     0
281
     0
  0
CLASS
  1
SORTENTSTABLE
  2
AcDbSortentsTable
  3
AutoCAD 2000
 90
        0
280
     0
281
     0
  0
CLASS
  1
LAYER_INDEX
  2
AcDbLayerIndex
  3
AutoCAD 2000
 90
        0
280
     0
281
     0
  0
CLASS
  1
SPATIAL_INDEX
  2
AcDbSpatialIndex
  3
AutoCAD 2000
 90
        0
280
     0
281
     0
  0
CLASS
  1
OBJECT_PTR
  2
CAseDLPNTableRecord
  3
"ASE-LPNTableRecord"
 90
        1
280
     0
281
     0
  0
CLASS
  1
LAYOUT
  2
AcDbLayout
  3
AutoCAD 2000
 90
        0
280
     0
281
     0
  0
CLASS
  1
PLOTSETTINGS
  2
AcDbPlotSettings
  3
AutoCAD 2000
 90
        0
280
     0
281
     0
  0
CLASS
  1
ACDBDICTIONARYWDFLT
  2
AcDbDictionaryWithDefault
  3
AutoCAD 2000
 90
        0
280
     0
281
     0
  0
CLASS
  1
ACDBPLACEHOLDER
  2
AcDbPlaceHolder
  3
AutoCAD 2000
 90
        0
280
     0
281
     0
  0
CLASS
  1
VBA_PROJECT
  2
AcDbVbaProject
  3
acadvba
 90
        0
280
     0
281
     0
  0
CLASS
  1
WIPEOUT
  2
AcDbWipeout
  3
WipeOut|AutoCAD Express Tool|expresstools@autodesk.com
 90
      127
280
     0
281
     1
  0
CLASS
  1
WIPEOUTVARIABLES
  2
AcDbWipeoutVariables
  3
WipeOut|AutoCAD Express Tool|expresstools@autodesk.com
 90
        0
280
     0
281
     0
  0
CLASS
  1
RTEXT
  2
RText
  3
RText|AutoCAD Express Tool|expresstools@autodesk.com
 90
        0
280
     0
281
     1
  0
CLASS
  1
ARCALIGNEDTEXT
  2
AcDbArcAlignedText
  3
ATEXT|AutoCAD Express Tool|expresstools@autodesk.com
 90
        0
280
     0
281
     1
  0
ENDSEC
  0
SECTION
  2
TABLES
  0
TABLE
  2
VPORT
  5
7
100
AcDbSymbolTable
 70
     1
  0
VPORT
  5
15
100
AcDbSymbolTableRecord
100
AcDbViewportTableRecord
  2
*ACTIVE
 70
     0
 10
0.0
 20
0.0
 11
1.0
 21
1.0
 12
6.591288
 22
4.579184
 13
0.0
 23
0.0
 14
1.0
 24
1.0
 15
0.0
 25
0.0
 16
0.0
 26
0.0
 36
1.0
 17
0.0
 27
0.0
 37
0.0
 40
9.158369
 41
0.688564
 42
50.0
 43
0.0
 44
0.0
 50
0.0
 51
0.0
 71
     0
 72
   100
 73
     1
 74
     1
 75
     0
 76
     0
 77
     0
 78
     0
281
     0
 65
     0
110
0.0
120
0.0
130
0.0
111
1.0
121
0.0
131
0.0
112
0.0
122
1.0
132
0.0
345
0
346
0
 79
     0
146
0.0
  0
ENDTAB
  0
TABLE
  2
LTYPE
  5
4
100
AcDbSymbolTable
 70
     4
  0
LTYPE
  5
11
100
AcDbSymbolTableRecord
100
AcDbLinetypeTableRecord
  2
ByBlock
 70
    64
  3

 72
    65
 73
     0
 40
0.0
  0
LTYPE
  5
12
100
AcDbSymbolTableRecord
100
AcDbLinetypeTableRecord
  2
ByLayer
 70
    64
  3

 72
    65
 73
     0
 40
0.0
  0
LTYPE
  5
13
100
AcDbSymbolTableRecord
100
AcDbLinetypeTableRecord
  2
Continuous
 70
    64
  3
Solid line
 72
    65
 73
     0
 40
0.0
  0
LTYPE
  5
24
100
AcDbSymbolTableRecord
100
AcDbLinetypeTableRecord
  2
DASHDOT
 70
     0
  3
 __ . __ . __ . __ . __ . __ . __ . 
 72
    65
 73
     4
 40
18.5
 49
12.0
 74
     0
 49
-3.0
 74
     0
 49
0.5
 74
     0
 49
-3.0
 74
     0
  0
ENDTAB
  0
TABLE
  2
LAYER
  5
2
100
AcDbSymbolTable
 70
     2
  0
LAYER
  5
14
100
AcDbSymbolTableRecord
100
AcDbLayerTableRecord
  2
0
 70
     0
 62
     7
  6
Continuous
290
     1
370
    13
390
1D
  0
LAYER
  5
25
100
AcDbSymbolTableRecord
100
AcDbLayerTableRecord
  2
1
 70
     0
 62
     7
  6
Continuous
290
     1
370
    13
390
1D
  0
ENDTAB
  0
TABLE
  2
STYLE
  5
3
100
AcDbSymbolTable
 70
     2
  0
STYLE
  5
17
100
AcDbSymbolTableRecord
100
AcDbTextStyleTableRecord
  2
STANDARD
 70
     0
 40
0.0
 41
1.0
 50
0.0
 71
     0
 42
0.0
  3
isocp.shx
  4

  0
STYLE
  5
26
100
AcDbSymbolTableRecord
100
AcDbTextStyleTableRecord
  2
GDT
 70
     0
 40
0.0
 41
1.0
 50
0.0
 71
     0
 42
0.0
  3
gdt.shx
  4

  0
ENDTAB
  0
TABLE
  2
VIEW
  5
5
100
AcDbSymbolTable
 70
     0
  0
ENDTAB
  0
TABLE
  2
UCS
  5
6
100
AcDbSymbolTable
 70
     0
  0
ENDTAB
  0
TABLE
  2
APPID
  5
8
100
AcDbSymbolTable
 70
     1
  0
APPID
  5
16
100
AcDbSymbolTableRecord
100
AcDbRegAppTableRecord
  2
ACAD
 70
     0
  0
ENDTAB
  0
TABLE
  2
DIMSTYLE
  5
9
100
AcDbSymbolTable
 70
     1
100
AcDbDimStyleTable
 71
     0
  0
DIMSTYLE
105
18
100
AcDbSymbolTableRecord
100
AcDbDimStyleTableRecord
  2
STANDARD
 70
     0
  3

  4

 40
1.0
 41
0.18
 42
0.0625
 43
0.38
 44
0.18
 45
0.0
 46
0.0
 47
0.0
 48
0.0
 71
     0
 72
     0
 73
     1
 74
     1
 75
     0
 76
     0
 77
     0
 78
     0
 79
     0
140
0.18
141
0.09
142
0.0
143
25.4
144
1.0
145
0.0
146
1.0
147
0.09
148
0.0
170
     0
171
     2
172
     0
173
     0
174
     0
175
     0
176
     0
177
     0
178
     0
179
     0
271
     4
272
     4
273
     2
274
     2
275
     0
276
     0
277
     2
278
    46
279
     0
280
     0
281
     0
282
     0
283
     1
284
     0
285
     0
286
     0
288
     0
289
     0
340
0
341
0
342
0
343
0
344
0
371
    -2
372
    -2
  0
ENDTAB
  0
TABLE
  2
BLOCK_RECORD
  5
1
100
AcDbSymbolTable
 70
    24
  0
BLOCK_RECORD
  5
A
100
AcDbSymbolTableRecord
100
AcDbBlockTableRecord
  2
*MODEL_SPACE
340
20
  0
BLOCK_RECORD
  5
B
100
AcDbSymbolTableRecord
100
AcDbBlockTableRecord
  2
*PAPER_SPACE
340
21
  0
BLOCK_RECORD
  5
371
100
AcDbSymbolTableRecord
100
AcDbBlockTableRecord
  2
BLOCK1
340
0
102
{BLKREFS
331
5DC
102
}
  0
BLOCK_RECORD
  5
372
100
AcDbSymbolTableRecord
100
AcDbBlockTableRecord
  2
BLOCK2
340
0
102
{BLKREFS
331
5DD
102
}
  0
BLOCK_RECORD
  5
373
100
AcDbSymbolTableRecord
100
AcDbBlockTableRecord
  2
BLOCK3
340
0
102
{BLKREFS
331
5DE
102
}
  0
BLOCK_RECORD
  5
374
100
AcDbSymbolTableRecord
100
AcDbBlockTableRecord
  2
BLOCK4
340
0
102
{BLKREFS
331
5DF
102
}
  0
BLOCK_RECORD
  5
375
100
AcDbSymbolTableRecord
100
AcDbBlockTableRecord
  2
BLOCK5
340
0
102
{BLKREFS
331
5E0
102
}
  0
BLOCK_RECORD
  5
376
100
AcDbSymbolTableRecord
100
AcDbBlockTableRecord
  2
BLOCK6
340
0
102
{BLKREFS
331
5E1
102
}
  0
BLOCK_RECORD
  5
377
100
AcDbSymbolTableRecord
100
AcDbBlockTableRecord
  2
BLOCK7
340
0
102
{BLKREFS
331
5E2
102
}
  0
BLOCK_RECORD
  5
378
100
AcDbSymbolTableRecord
100
AcDbBlockTableRecord
  2
BLOCK8
340
0
102
{BLKREFS
331
5E3
102
}
  0
BLOCK_RECORD
  5
379
100
AcDbSymbolTableRecord
100
AcDbBlockTableRecord
  2
BLOCK9
340
0
102
{BLKREFS
331
5E4
102
}
  0
BLOCK_RECORD
  5
37A
100
AcDbSymbolTableRecord
100
AcDbBlockTableRecord
  2
BLOCK10
340
0
102
{BLKREFS
331
5E5
102
}
  0
BLOCK_RECORD
  5
37B
100
AcDbSymbolTableRecord
100
AcDbBlockTableRecord
  2
BLOCK11
340
0
102
{BLKREFS
331
5E6
102
}
  0
BLOCK_RECORD
  5
37C
100
AcDbSymbolTableRecord
100
AcDbBlockTableRecord
  2
BLOCK12
340
0
102
{BLKREFS
331
5E7
102
}
  0
BLOCK_RECORD
  5
37D
100
AcDbSymbolTableRecord
100
AcDbBlockTableRecord
  2
BLOCK13
340
0
102
{BLKREFS
331
5E8
102
}
  0
BLOCK_RECORD
  5
37E
100
AcDbSymbolTableRecord
100
AcDbBlockTableRecord
  2
BLOCK14
340
0
102
{BLKREFS
331
5E9
102
}
  0
BLOCK_RECORD
  5
37F
100
AcDbSymbolTableRecord
100
AcDbBlockTableRecord
  2
BLOCK15
340
0
102
{BLKREFS
331
5EA
102
}
  0
BLOCK_RECORD
  5
380
100
AcDbSymbolTableRecord
100
AcDbBlockTableRecord
  2
BLOCK16
340
0
102
{BLKREFS
331
5EB
102
}
  0
BLOCK_RECORD
  5
381
100
AcDbSymbolTableRecord
100
AcDbBlockTableRecord
  2
BLOCK17
340
0
102
{BLKREFS
331
5EC
102
}
  0
BLOCK_RECORD
  5
382
100
AcDbSymbolTableRecord
100
AcDbBlockTableRecord
  2
BLOCK18
340
0
102
{BLKREFS
331
5ED
102
}
  0
BLOCK_RECORD
  5
383
100
AcDbSymbolTableRecord
100
AcDbBlockTableRecord
  2
BLOCK19
340
0
102
{BLKREFS
331
5EE
102
}
  0
BLOCK_RECORD
  5
384
100
AcDbSymbolTableRecord
100
AcDbBlockTableRecord
  2
BLOCK20
340
0
102
{BLKREFS
331
5EF
102
}
  0
BLOCK_RECORD
  5
385
100
AcDbSymbolTableRecord
100
AcDbBlockTableRecord
  2
BLOCK21
340
0
102
{BLKREFS
331
5F0
102
}
  0
BLOCK_RECORD
  5
386
100
AcDbSymbolTableRecord
100
AcDbBlockTableRecord
  2
BLOCK22
340
0
102
{BLKREFS
331
5F1
102
}
  0
BLOCK_RECORD
  5
387
100
AcDbSymbolTableRecord
100
AcDbBlockTableRecord
  2
BLOCK23
340
0
102
{BLKREFS
331
5F2
102
}
  0
BLOCK_RECORD
  5
388
100
AcDbSymbolTableRecord
100
AcDbBlockTableRecord
  2
BLOCK24
340
0
102
{BLKREFS
331
5F3
102
}
  0
ENDTAB
  0
ENDSEC
  0
SECTION
  2
BLOCKS
  0
BLOCK
  5
D
100
AcDbEntity
  8
0
390
0
100
AcDbBlockBegin
  2
*MODEL_SPACE
 70
     0
 10
0.0
 20
0.0
 30
0.0
  3
*MODEL_SPACE
  1

  0
ENDBLK
  5
E
100
AcDbEntity
  8
0
390
0
100
AcDbBlockEnd
  0
BLOCK
  5
F
100
AcDbEntity
 67
     1
  8
0
390
0
100
AcDbBlockBegin
  2
*PAPER_SPACE
 70
     0
 10
0.0
 20
0.0
 30
0.0
  3
*PAPER_SPACE
  1

  0
ENDBLK
  5
10
100
AcDbEntity
 67
     1
  8
0
390
0
100
AcDbBlockEnd
  0
BLOCK
  5
389
100
AcDbEntity
  8
0
370
     0
390
0
100
AcDbBlockBegin
  2
BLOCK1
 70
     0
 10
0.0
 20
0.0
 30
0.0
  3
BLOCK1
  1

  0
TEXT
  5
38A
100
AcDbEntity
  8
0
370
    13
390
0
 62
     7
 48
0.03937
100
AcDbText
 10
8.184392
 20
0.858248
 30
0.0
 40
0.1
  1
300-BLIND-RTJ
 72
     5
 11
9.50268
 21
0.858248
 31
0.0
100
AcDbText
  0
TEXT
  5
38B
100
AcDbEntity
  8
0
370
    13
390
0
 62
     7
 48
0.03937
100
AcDbText
 10
9.504203
 20
0.858248
 30
0.0
 40
0.1
  1
-
 72
     5
 11
9.604204
 21
0.858248
 31
0.0
100
AcDbText
  0
TEXT
  5
38C
100
AcDbEntity
  8
0
370
    13
390
0
 62
     7
 48
0.03937
100
AcDbText
 10
9.605728
 20
0.858248
 30
0.0
 40
0.1
  1
FLANGE
 72
     5
 11
10.213348
 21
0.858248
 31
0.0
100
AcDbText
  0
ENDBLK
  5
38D
100
AcDbEntity
  8
0
390
0
100
AcDbBlockEnd
  0
BLOCK
  5
38E
100
AcDbEntity
  8
0
370
     0
390
0
100
AcDbBlockBegin
  2
BLOCK2
 70
     0
 10
0.0
 20
0.0
 30
0.0
  3
BLOCK2
  1

  0
TEXT
  5
38F
100
AcDbEntity
  8
0
370
    13
390
0
 62
     7
 48
0.03937
100
AcDbText
 10
8.593215
 20
1.055967
 30
0.0
 40
0.1
  1
1
 72
     5
 11
8.693215
 21
1.055967
 31
0.0
100
AcDbText
  0
TEXT
  5
390
100
AcDbEntity
  8
0
370
    13
390
0
 62
     7
 48
0.03937
100
AcDbText
 10
8.694739
 20
1.055967
 30
0.0
 40
0.1
  1
" NOM. PIPE
 72
     5
 11
9.809979
 21
1.055967
 31
0.0
100
AcDbText
  0
ENDBLK
  5
391
100
AcDbEntity
  8
0
390
0
100
AcDbBlockEnd
  0
BLOCK
  5
392
100
AcDbEntity
  8
0
370
     0
390
0
100
AcDbBlockBegin
  2
BLOCK3
 70
     0
 10
0.0
 20
0.0
 30
0.0
  3
BLOCK3
  1

  0
TEXT
  5
393
100
AcDbEntity
  8
0
370
    13
390
0
 62
     7
 48
0.03937
100
AcDbText
 10
10.093103
 20
0.689966
 30
0.0
 40
0.06
  1
PO Box 2889
 72
     5
 11
10.730818
 21
0.689966
 31
0.0
100
AcDbText
  0
TEXT
  5
394
100
AcDbEntity
  8
0
370
    13
390
0
 62
     7
 48
0.03937
100
AcDbText
 10
9.686702
 20
0.589966
 30
0.0
 40
0.06
  1
Pearland, TX 77588
 72
     5
 11
10.730818
 21
0.589966
 31
0.0
100
AcDbText
  0
TEXT
  5
395
100
AcDbEntity
  8
0
370
    13
390
0
 62
     7
 48
0.03937
100
AcDbText
 10
9.802816
 20
0.489966
 30
0.0
 40
0.06
  1
PH: 800-826-3801
 72
     5
 11
10.730818
 21
0.489966
 31
0.0
100
AcDbText
  0
TEXT
  5
396
100
AcDbEntity
  8
0
370
    13
390
0
 62
     7
 48
0.03937
100
AcDbText
 10
9.744759
 20
0.389966
 30
0.0
 40
0.06
  1
FAX: 281-484-8730
 72
     5
 11
10.730818
 21
0.389966
 31
0.0
100
AcDbText
  0
TEXT
  5
397
100
AcDbEntity
  8
0
370
    13
390
0
 62
     7
 48
0.03937
100
AcDbText
 10
9.628644
 20
0.289966
 30
0.0
 40
0.06
  1
www.texasflange.com
 72
     5
 11
10.730818
 21
0.289966
 31
0.0
100
AcDbText
  0
ENDBLK
  5
398
100
AcDbEntity
  8
0
390
0
100
AcDbBlockEnd
  0
BLOCK
  5
399
100
AcDbEntity
  8
0
370
     0
390
0
100
AcDbBlockBegin
  2
BLOCK4
 70
     0
 10
0.0
 20
0.0
 30
0.0
  3
BLOCK4
  1

  0
TEXT
  5
39A
100
AcDbEntity
  8
0
370
    13
390
0
 62
     7
 48
0.03937
100
AcDbText
 10
8.289209
 20
0.587871
 30
0.0
 40
0.2
  1
Texas
 72
     5
 11
9.383692
 21
0.587871
 31
0.0
100
AcDbText
  0
TEXT
  5
39B
100
AcDbEntity
  8
0
370
    13
390
0
 62
     7
 48
0.03937
100
AcDbText
 10
8.289209
 20
0.327871
 30
0.0
 40
0.2
  1
Flange
 72
     5
 11
9.608945
 21
0.327871
 31
0.0
100
AcDbText
  0
ENDBLK
  5
39C
100
AcDbEntity
  8
0
390
0
100
AcDbBlockEnd
  0
BLOCK
  5
39D
100
AcDbEntity
  8
0
370
     0
390
0
100
AcDbBlockBegin
  2
BLOCK5
 70
     0
 10
0.0
 20
0.0
 30
0.0
  3
BLOCK5
  1

  0
LINE
  5
39E
100
AcDbEntity
  8
0
370
     5
390
0
 62
     7
 48
0.00324
100
AcDbLine
 10
8.029831
 20
0.605292
 30
0.0
 11
7.900255
 21
0.604209
 31
0.0
210
0.0
220
0.0
230
1.0
  0
LINE
  5
39F
100
AcDbEntity
  8
0
370
     5
390
0
 62
     7
 48
0.000103
100
AcDbLine
 10
7.900255
 20
0.604209
 30
0.0
 11
7.902151
 21
0.600546
 31
0.0
210
0.0
220
0.0
230
1.0
  0
LINE
  5
3A0
100
AcDbEntity
  8
0
370
     5
390
0
 62
     7
 48
0.0001
100
AcDbLine
 10
7.902151
 20
0.600546
 30
0.0
 11
7.903945
 21
0.596951
 31
0.0
210
0.0
220
0.0
230
1.0
  0
LINE
  5
3A1
100
AcDbEntity
  8
0
370
     5
390
0
 62
     7
 48
0.000098
100
AcDbLine
 10
7.903945
 20
0.596951
 30
0.0
 11
7.905638
 21
0.593424
 31
0.0
210
0.0
220
0.0
230
1.0
  0
LINE
  5
3A2
100
AcDbEntity
  8
0
370
     5
390
0
 62
     7
 48
0.000095
100
AcDbLine
 10
7.905638
 20
0.593424
 30
0.0
 11
7.907229
 21
0.589967
 31
0.0
210
0.0
220
0.0
230
1.0
  0
LINE
  5
3A3
100
AcDbEntity
  8
0
370
     5
390
0
 62
     7
 48
0.000093
100
AcDbLine
 10
7.907229
 20
0.589967
 30
0.0
 11
7.908719
 21
0.58658
 31
0.0
210
0.0
220
0.0
230
1.0
  0
LINE
  5
3A4
100
AcDbEntity
  8
0
370
     5
390
0
 62
     7
 48
0.00009
100
AcDbLine
 10
7.908719
 20
0.58658
 30
0.0
 11
7.910106
 21
0.583262
 31
0.0
210
0.0
220
0.0
230
1.0
  0
LINE
  5
3A5
100
AcDbEntity
  8
0
370
     5
390
0
 62
     7
 48
0.000087
100
AcDbLine
 10
7.910106
 20
0.583262
 30
0.0
 11
7.911392
 21
0.580013
 31
0.0
210
0.0
220
0.0
230
1.0
  0
LINE
  5
3A6
100
AcDbEntity
  8
0
370
     5
390
0
 62
     7
 48
0.000085
100
AcDbLine
 10
7.911392
 20
0.580013
 30
0.0
 11
7.912577
 21
0.576833
 31
0.0
210
0.0
220
0.0
230
1.0
  0
LINE
  5
3A7
100
AcDbEntity
  8
0
370
     5
390
0
 62
     7
 48
0.000082
100
AcDbLine
 10
7.912577
 20
0.576833
 30
0.0
 11
7.913659
 21
0.573722
 31
0.0
210
0.0
220
0.0
230
1.0
  0
LINE
  5
3A8
100
AcDbEntity
  8
0
370
     5
390
0
 62
     7
 48
0.000095
100
AcDbLine
 10
7.913659
 20
0.573722
 30
0.0
 11
7.915938
 21
0.570681
 31
0.0
210
0.0
220
0.0
230
1.0
  0
LINE
  5
3A9
100
AcDbEntity
  8
0
370
     5
390
0
 62
     7
 48
0.000066
100
AcDbLine
 10
7.915938
 20
0.570681
 30
0.0
 11
7.916123
 21
0.573306
 31
0.0
210
0.0
220
0.0
230
1.0
  0
LINE
  5
3AA
100
AcDbEntity
  8
0
370
     5
390
0
 62
     7
 48
0.000062
100
AcDbLine
 10
7.916123
 20
0.573306
 30
0.0
 11
7.916418
 21
0.575775
 31
0.0
210
0.0
220
0.0
230
1.0
  0
LINE
  5
3AB
100
AcDbEntity
  8
0
370
     5
390
0
 62
     7
 48
0.000059
100
AcDbLine
 10
7.916418
 20
0.575775
 30
0.0
 11
7.916824
 21
0.578087
 31
0.0
210
0.0
220
0.0
230
1.0
  0
LINE
  5
3AC
100
AcDbEntity
  8
0
370
     5
390
0
 62
     7
 48
0.000055
100
AcDbLine
 10
7.916824
 20
0.578087
 30
0.0
 11
7.917339
 21
0.580242
 31
0.0
210
0.0
220
0.0
230
1.0
  0
LINE
  5
3AD
100
AcDbEntity
  8
0
370
     5
390
0
 62
     7
 48
0.000052
100
AcDbLine
 10
7.917339
 20
0.580242
 30
0.0
 11
7.917966
 21
0.58224
 31
0.0
210
0.0
220
0.0
230
1.0
  0
LINE
  5
3AE
100
AcDbEntity
  8
0
370
     5
390
0
 62
     7
 48
0.00005
100
AcDbLine
 10
7.917966
 20
0.58224
 30
0.0
 11
7.918703
 21
0.584081
 31
0.0
210
0.0
220
0.0
230
1.0
  0
LINE
  5
3AF
100
AcDbEntity
  8
0
370
     5
390
0
 62
     7
 48
0.000047
100
AcDbLine
 10
7.918703
 20
0.584081
 30
0.0
 11
7.919549
 21
0.585767
 31
0.0
210
0.0
220
0.0
230
1.0
  0
LINE
  5
3B0
100
AcDbEntity
  8
0
370
     5
390
0
 62
     7
 48
0.000045
100
AcDbLine
 10
7.919549
 20
0.585767
 30
0.0
 11
7.920506
 21
0.587294
 31
0.0
210
0.0
220
0.0
230
1.0
  0
LINE
  5
3B1
100
AcDbEntity
  8
0
370
     5
390
0
 62
     7
 48
0.000043
100
AcDbLine
 10
7.920506
 20
0.587294
 30
0.0
 11
7.921574
 21
0.588665
 31
0.0
210
0.0
220
0.0
230
1.0
  0
LINE
  5
3B2
100
AcDbEntity
  8
0
370
     5
390
0
 62
     7
 48
0.000042
100
AcDbLine
 10
7.921574
 20
0.588665
 30
0.0
 11
7.922751
 21
0.58988
 31
0.0
210
0.0
220
0.0
230
1.0
  0
LINE
  5
3B3
100
AcDbEntity
  8
0
370
     5
390
0
 62
     7
 48
0.000042
100
AcDbLine
 10
7.922751
 20
0.58988
 30
0.0
 11
7.924063
 21
0.590958
 31
0.0
210
0.0
220
0.0
230
1.0
  0
LINE
  5
3B4
100
AcDbEntity
  8
0
370
     5
390
0
 62
     7
 48
0.000044
100
AcDbLine
 10
7.924063
 20
0.590958
 30
0.0
 11
7.92553
 21
0.591923
 31
0.0
210
0.0
220
0.0
230
1.0
  0
LINE
  5
3B5
100
AcDbEntity
  8
0
370
     5
390
0
 62
     7
 48
0.000046
100
AcDbLine
 10
7.92553
 20
0.591923
 30
0.0
 11
7.927152
 21
0.592775
 31
0.0
210
0.0
220
0.0
230
1.0
  0
LINE
  5
3B6
100
AcDbEntity
  8
0
370
     5
390
0
 62
     7
 48
0.000048
100
AcDbLine
 10
7.927152
 20
0.592775
 30
0.0
 11
7.92893
 21
0.593513
 31
0.0
210
0.0
220
0.0
230
1.0
  0
LINE
  5
3B7
100
AcDbEntity
  8
0
370
     5
390
0
 62
     7
 48
0.000051
100
AcDbLine
 10
7.92893
 20
0.593513
 30
0.0
 11
7.930864
 21
0.594138
 31
0.0
210
0.0
220
0.0
230
1.0
  0
LINE
  5
3B8
100
AcDbEntity
  8
0
370
     5
390
0
 62
     7
 48
0.000054
100
AcDbLine
 10
7.930864
 20
0.594138
 30
0.0
 11
7.932953
 21
0.594648
 31
0.0
210
0.0
220
0.0
230
1.0
  0
LINE
  5
3B9
100
AcDbEntity
  8
0
370
     5
390
0
 62
     7
 48
0.000057
100
AcDbLine
 10
7.932953
 20
0.594648
 30
0.0
 11
7.9352
 21
0.595046
 31
0.0
210
0.0
220
0.0
230
1.0
  0
LINE
  5
3BA
100
AcDbEntity
  8
0
370
     5
390
0
 62
     7
 48
0.00006
100
AcDbLine
 10
7.9352
 20
0.595046
 30
0.0
 11
7.9376
 21
0.595331
 31
0.0
210
0.0
220
0.0
230
1.0
  0
LINE
  5
3BB
100
AcDbEntity
  8
0
370
     5
390
0
 62
     7
 48
0.000064
100
AcDbLine
 10
7.9376
 20
0.595331
 30
0.0
 11
7.940158
 21
0.5955
 31
0.0
210
0.0
220
0.0
230
1.0
  0
LINE
  5
3BC
100
AcDbEntity
  8
0
370
     5
390
0
 62
     7
 48
0.000068
100
AcDbLine
 10
7.940158
 20
0.5955
 30
0.0
 11
7.94287
 21
0.595557
 31
0.0
210
0.0
220
0.0
230
1.0
  0
LINE
  5
3BD
100
AcDbEntity
  8
0
370
     5
390
0
 62
     7
 48
0.00005
100
AcDbLine
 10
7.94287
 20
0.595557
 30
0.0
 11
7.944881
 21
0.595532
 31
0.0
210
0.0
220
0.0
230
1.0
  0
LINE
  5
3BE
100
AcDbEntity
  8
0
370
     5
390
0
 62
     7
 48
0.000051
100
AcDbLine
 10
7.944881
 20
0.595532
 30
0.0
 11
7.946936
 21
0.595454
 31
0.0
210
0.0
220
0.0
230
1.0
  0
LINE
  5
3BF
100
AcDbEntity
  8
0
370
     5
390
0
 62
     7
 48
0.000053
100
AcDbLine
 10
7.946936
 20
0.595454
 30
0.0
 11
7.949034
 21
0.595323
 31
0.0
210
0.0
220
0.0
230
1.0
  0
LINE
  5
3C0
100
AcDbEntity
  8
0
370
     5
390
0
 62
     7
 48
0.000054
100
AcDbLine
 10
7.949034
 20
0.595323
 30
0.0
 11
7.951177
 21
0.595142
 31
0.0
210
0.0
220
0.0
230
1.0
  0
LINE
  5
3C1
100
AcDbEntity
  8
0
370
     5
390
0
 62
     7
 48
0.000055
100
AcDbLine
 10
7.951177
 20
0.595142
 30
0.0
 11
7.953361
 21
0.594908
 31
0.0
210
0.0
220
0.0
230
1.0
  0
LINE
  5
3C2
100
AcDbEntity
  8
0
370
     5
390
0
 62
     7
 48
0.000136
100
AcDbLine
 10
7.953361
 20
0.594908
 30
0.0
 11
7.952171
 21
0.589608
 31
0.0
210
0.0
220
0.0
230
1.0
  0
LINE
  5
3C3
100
AcDbEntity
  8
0
370
     5
390
0
 62
     7
 48
0.000162
100
AcDbLine
 10
7.952171
 20
0.589608
 30
0.0
 11
7.945682
 21
0.589716
 31
0.0
210
0.0
220
0.0
230
1.0
  0
LINE
  5
3C4
100
AcDbEntity
  8
0
370
     5
390
0
 62
     7
 48
0.00006
100
AcDbLine
 10
7.945682
 20
0.589716
 30
0.0
 11
7.943286
 21
0.589667
 31
0.0
210
0.0
220
0.0
230
1.0
  0
LINE
  5
3C5
100
AcDbEntity
  8
0
370
     5
390
0
 62
     7
 48
0.000057
100
AcDbLine
 10
7.943286
 20
0.589667
 30
0.0
 11
7.941029
 21
0.589518
 31
0.0
210
0.0
220
0.0
230
1.0
  0
LINE
  5
3C6
100
AcDbEntity
  8
0
370
     5
390
0
 62
     7
 48
0.000053
100
AcDbLine
 10
7.941029
 20
0.589518
 30
0.0
 11
7.938912
 21
0.589269
 31
0.0
210
0.0
220
0.0
230
1.0
  0
LINE
  5
3C7
100
AcDbEntity
  8
0
370
     5
390
0
 62
     7
 48
0.00005
100
AcDbLine
 10
7.938912
 20
0.589269
 30
0.0
 11
7.936934
 21
0.588921
 31
0.0
210
0.0
220
0.0
230
1.0
  0
LINE
  5
3C8
100
AcDbEntity
  8
0
370
     5
390
0
 62
     7
 48
0.000047
100
AcDbLine
 10
7.936934
 20
0.588921
 30
0.0
 11
7.935095
 21
0.588473
 31
0.0
210
0.0
220
0.0
230
1.0
  0
LINE
  5
3C9
100
AcDbEntity
  8
0
370
     5
390
0
 62
     7
 48
0.000045
100
AcDbLine
 10
7.935095
 20
0.588473
 30
0.0
 11
7.933397
 21
0.587925
 31
0.0
210
0.0
220
0.0
230
1.0
  0
LINE
  5
3CA
100
AcDbEntity
  8
0
370
     5
390
0
 62
     7
 48
0.000042
100
AcDbLine
 10
7.933397
 20
0.587925
 30
0.0
 11
7.931839
 21
0.587279
 31
0.0
210
0.0
220
0.0
230
1.0
  0
LINE
  5
3CB
100
AcDbEntity
  8
0
370
     5
390
0
 62
     7
 48
0.00004
100
AcDbLine
 10
7.931839
 20
0.587279
 30
0.0
 11
7.930418
 21
0.586532
 31
0.0
210
0.0
220
0.0
230
1.0
  0
LINE
  5
3CC
100
AcDbEntity
  8
0
370
     5
390
0
 62
     7
 48
0.000038
100
AcDbLine
 10
7.930418
 20
0.586532
 30
0.0
 11
7.929138
 21
0.585687
 31
0.0
210
0.0
220
0.0
230
1.0
  0
LINE
  5
3CD
100
AcDbEntity
  8
0
370
     5
390
0
 62
     7
 48
0.000074
100
AcDbLine
 10
7.929138
 20
0.585687
 30
0.0
 11
7.926968
 21
0.58367
 31
0.0
210
0.0
220
0.0
230
1.0
  0
LINE
  5
3CE
100
AcDbEntity
  8
0
370
     5
390
0
 62
     7
 48
0.000039
100
AcDbLine
 10
7.926968
 20
0.58367
 30
0.0
 11
7.926023
 21
0.582444
 31
0.0
210
0.0
220
0.0
230
1.0
  0
LINE
  5
3CF
100
AcDbEntity
  8
0
370
     5
390
0
 62
     7
 48
0.000041
100
AcDbLine
 10
7.926023
 20
0.582444
 30
0.0
 11
7.92516
 21
0.581064
 31
0.0
210
0.0
220
0.0
230
1.0
  0
LINE
  5
3D0
100
AcDbEntity
  8
0
370
     5
390
0
 62
     7
 48
0.000043
100
AcDbLine
 10
7.92516
 20
0.581064
 30
0.0
 11
7.924381
 21
0.579533
 31
0.0
210
0.0
220
0.0
230
1.0
  0
LINE
  5
3D1
100
AcDbEntity
  8
0
370
     5
390
0
 62
     7
 48
0.000046
100
AcDbLine
 10
7.924381
 20
0.579533
 30
0.0
 11
7.923684
 21
0.577847
 31
0.0
210
0.0
220
0.0
230
1.0
  0
LINE
  5
3D2
100
AcDbEntity
  8
0
370
     5
390
0
 62
     7
 48
0.000048
100
AcDbLine
 10
7.923684
 20
0.577847
 30
0.0
 11
7.923073
 21
0.576006
 31
0.0
210
0.0
220
0.0
230
1.0
  0
LINE
  5
3D3
100
AcDbEntity
  8
0
370
     5
390
0
 62
     7
 48
0.000052
100
AcDbLine
 10
7.923073
 20
0.576006
 30
0.0
 11
7.922543
 21
0.574013
 31
0.0
210
0.0
220
0.0
230
1.0
  0
LINE
  5
3D4
100
AcDbEntity
  8
0
370
     5
390
0
 62
     7
 48
0.000055
100
AcDbLine
 10
7.922543
 20
0.574013
 30
0.0
 11
7.922096
 21
0.571866
 31
0.0
210
0.0
220
0.0
230
1.0
  0
LINE
  5
3D5
100
AcDbEntity
  8
0
370
     5
390
0
 62
     7
 48
0.000058
100
AcDbLine
 10
7.922096
 20
0.571866
 30
0.0
 11
7.921734
 21
0.569565
 31
0.0
210
0.0
220
0.0
230
1.0
  0
LINE
  5
3D6
100
AcDbEntity
  8
0
370
     5
390
0
 62
     7
 48
0.000062
100
AcDbLine
 10
7.921734
 20
0.569565
 30
0.0
 11
7.921454
 21
0.567111
 31
0.0
210
0.0
220
0.0
230
1.0
  0
LINE
  5
3D7
100
AcDbEntity
  8
0
370
     5
390
0
 62
     7
 48
0.00007
100
AcDbLine
 10
7.921454
 20
0.567111
 30
0.0
 11
7.924266
 21
0.567111
 31
0.0
210
0.0
220
0.0
230
1.0
  0
LINE
  5
3D8
100
AcDbEntity
  8
0
370
     5
390
0
 62
     7
 48
0.000054
100
AcDbLine
 10
7.924266
 20
0.567111
 30
0.0
 11
7.924478
 21
0.569252
 31
0.0
210
0.0
220
0.0
230
1.0
  0
LINE
  5
3D9
100
AcDbEntity
  8
0
370
     5
390
0
 62
     7
 48
0.000051
100
AcDbLine
 10
7.924478
 20
0.569252
 30
0.0
 11
7.924766
 21
0.571259
 31
0.0
210
0.0
220
0.0
230
1.0
  0
LINE
  5
3DA
100
AcDbEntity
  8
0
370
     5
390
0
 62
     7
 48
0.000048
100
AcDbLine
 10
7.924766
 20
0.571259
 30
0.0
 11
7.92513
 21
0.573132
 31
0.0
210
0.0
220
0.0
230
1.0
  0
LINE
  5
3DB
100
AcDbEntity
  8
0
370
     5
390
0
 62
     7
 48
0.000045
100
AcDbLine
 10
7.92513
 20
0.573132
 30
0.0
 11
7.925573
 21
0.574872
 31
0.0
210
0.0
220
0.0
230
1.0
  0
LINE
  5
3DC
100
AcDbEntity
  8
0
370
     5
390
0
 62
     7
 48
0.000042
100
AcDbLine
 10
7.925573
 20
0.574872
 30
0.0
 11
7.926092
 21
0.57648
 31
0.0
210
0.0
220
0.0
230
1.0
  0
LINE
  5
3DD
100
AcDbEntity
  8
0
370
     5
390
0
 62
     7
 48
0.000077
100
AcDbLine
 10
7.926092
 20
0.57648
 30
0.0
 11
7.92736
 21
0.579297
 31
0.0
210
0.0
220
0.0
230
1.0
  0
LINE
  5
3DE
100
AcDbEntity
  8
0
370
     5
390
0
 62
     7
 48
0.000069
100
AcDbLine
 10
7.92736
 20
0.579297
 30
0.0
 11
7.928935
 21
0.581582
 31
0.0
210
0.0
220
0.0
230
1.0
  0
LINE
  5
3DF
100
AcDbEntity
  8
0
370
     5
390
0
 62
     7
 48
0.000065
100
AcDbLine
 10
7.928935
 20
0.581582
 30
0.0
 11
7.930843
 21
0.583356
 31
0.0
210
0.0
220
0.0
230
1.0
  0
LINE
  5
3E0
100
AcDbEntity
  8
0
370
     5
390
0
 62
     7
 48
0.000069
100
AcDbLine
 10
7.930843
 20
0.583356
 30
0.0
 11
7.93324
 21
0.584759
 31
0.0
210
0.0
220
0.0
230
1.0
  0
LINE
  5
3E1
100
AcDbEntity
  8
0
370
     5
390
0
 62
     7
 48
0.000038
100
AcDbLine
 10
7.93324
 20
0.584759
 30
0.0
 11
7.93463
 21
0.585327
 31
0.0
210
0.0
220
0.0
230
1.0
  0
LINE
  5
3E2
100
AcDbEntity
  8
0
370
     5
390
0
 62
     7
 48
0.00004
100
AcDbLine
 10
7.93463
 20
0.585327
 30
0.0
 11
7.936151
 21
0.585809
 31
0.0
210
0.0
220
0.0
230
1.0
  0
LINE
  5
3E3
100
AcDbEntity
  8
0
370
     5
390
0
 62
     7
 48
0.000042
100
AcDbLine
 10
7.936151
 20
0.585809
 30
0.0
 11
7.937799
 21
0.586203
 31
0.0
210
0.0
220
0.0
230
1.0
  0
LINE
  5
3E4
100
AcDbEntity
  8
0
370
     5
390
0
 62
     7
 48
0.000045
100
AcDbLine
 10
7.937799
 20
0.586203
 30
0.0
 11
7.939577
 21
0.586511
 31
0.0
210
0.0
220
0.0
230
1.0
  0
LINE
  5
3E5
100
AcDbEntity
  8
0
370
     5
390
0
 62
     7
 48
0.000048
100
AcDbLine
 10
7.939577
 20
0.586511
 30
0.0
 11
7.941484
 21
0.58673
 31
0.0
210
0.0
220
0.0
230
1.0
  0
LINE
  5
3E6
100
AcDbEntity
  8
0
370
     5
390
0
 62
     7
 48
0.000051
100
AcDbLine
 10
7.941484
 20
0.58673
 30
0.0
 11
7.943519
 21
0.58686
 31
0.0
210
0.0
220
0.0
230
1.0
  0
LINE
  5
3E7
100
AcDbEntity
  8
0
370
     5
390
0
 62
     7
 48
0.000054
100
AcDbLine
 10
7.943519
 20
0.58686
 30
0.0
 11
7.945682
 21
0.586905
 31
0.0
210
0.0
220
0.0
230
1.0
  0
LINE
  5
3E8
100
AcDbEntity
  8
0
370
     5
390
0
 62
     7
 48
0.000192
100
AcDbLine
 10
7.945682
 20
0.586905
 30
0.0
 11
7.953361
 21
0.586796
 31
0.0
210
0.0
220
0.0
230
1.0
  0
LINE
  5
3E9
100
AcDbEntity
  8
0
370
     5
390
0
 62
     7
 48
0.00269
100
AcDbLine
 10
7.953361
 20
0.586796
 30
0.0
 11
7.953361
 21
0.479178
 31
0.0
210
0.0
220
0.0
230
1.0
  0
LINE
  5
3EA
100
AcDbEntity
  8
0
370
     5
390
0
 62
     7
 48
0.000493
100
AcDbLine
 10
7.953361
 20
0.479178
 30
0.0
 11
7.93822
 21
0.466523
 31
0.0
210
0.0
220
0.0
230
1.0
  0
LINE
  5
3EB
100
AcDbEntity
  8
0
370
     5
390
0
 62
     7
 48
0.001236
100
AcDbLine
 10
7.93822
 20
0.466523
 30
0.0
 11
7.987647
 21
0.466523
 31
0.0
210
0.0
220
0.0
230
1.0
  0
LINE
  5
3EC
100
AcDbEntity
  8
0
370
     5
390
0
 62
     7
 48
0.000434
100
AcDbLine
 10
7.987647
 20
0.466523
 30
0.0
 11
7.974885
 21
0.478313
 31
0.0
210
0.0
220
0.0
230
1.0
  0
LINE
  5
3ED
100
AcDbEntity
  8
0
370
     5
390
0
 62
     7
 48
0.002931
100
AcDbLine
 10
7.974885
 20
0.478313
 30
0.0
 11
7.976183
 21
0.595557
 31
0.0
210
0.0
220
0.0
230
1.0
  0
LINE
  5
3EE
100
AcDbEntity
  8
0
370
     5
390
0
 62
     7
 48
0.000049
100
AcDbLine
 10
7.976183
 20
0.595557
 30
0.0
 11
7.97813
 21
0.595713
 31
0.0
210
0.0
220
0.0
230
1.0
  0
LINE
  5
3EF
100
AcDbEntity
  8
0
370
     5
390
0
 62
     7
 48
0.000049
100
AcDbLine
 10
7.97813
 20
0.595713
 30
0.0
 11
7.980077
 21
0.595835
 31
0.0
210
0.0
220
0.0
230
1.0
  0
LINE
  5
3F0
100
AcDbEntity
  8
0
370
     5
390
0
 62
     7
 48
0.000049
100
AcDbLine
 10
7.980077
 20
0.595835
 30
0.0
 11
7.982024
 21
0.59592
 31
0.0
210
0.0
220
0.0
230
1.0
  0
LINE
  5
3F1
100
AcDbEntity
  8
0
370
     5
390
0
 62
     7
 48
0.000049
100
AcDbLine
 10
7.982024
 20
0.59592
 30
0.0
 11
7.983971
 21
0.595973
 31
0.0
210
0.0
220
0.0
230
1.0
  0
LINE
  5
3F2
100
AcDbEntity
  8
0
370
     5
390
0
 62
     7
 48
0.000049
100
AcDbLine
 10
7.983971
 20
0.595973
 30
0.0
 11
7.985918
 21
0.595991
 31
0.0
210
0.0
220
0.0
230
1.0
  0
LINE
  5
3F3
100
AcDbEntity
  8
0
370
     5
390
0
 62
     7
 48
0.000058
100
AcDbLine
 10
7.985918
 20
0.595991
 30
0.0
 11
7.988236
 21
0.595943
 31
0.0
210
0.0
220
0.0
230
1.0
  0
LINE
  5
3F4
100
AcDbEntity
  8
0
370
     5
390
0
 62
     7
 48
0.000055
100
AcDbLine
 10
7.988236
 20
0.595943
 30
0.0
 11
7.990431
 21
0.595799
 31
0.0
210
0.0
220
0.0
230
1.0
  0
LINE
  5
3F5
100
AcDbEntity
  8
0
370
     5
390
0
 62
     7
 48
0.000052
100
AcDbLine
 10
7.990431
 20
0.595799
 30
0.0
 11
7.992506
 21
0.595562
 31
0.0
210
0.0
220
0.0
230
1.0
  0
LINE
  5
3F6
100
AcDbEntity
  8
0
370
     5
390
0
 62
     7
 48
0.000049
100
AcDbLine
 10
7.992506
 20
0.595562
 30
0.0
 11
7.994457
 21
0.595229
 31
0.0
210
0.0
220
0.0
230
1.0
  0
LINE
  5
3F7
100
AcDbEntity
  8
0
370
     5
390
0
 62
     7
 48
0.000047
100
AcDbLine
 10
7.994457
 20
0.595229
 30
0.0
 11
7.996287
 21
0.5948
 31
0.0
210
0.0
220
0.0
230
1.0
  0
LINE
  5
3F8
100
AcDbEntity
  8
0
370
     5
390
0
 62
     7
 48
0.000045
100
AcDbLine
 10
7.996287
 20
0.5948
 30
0.0
 11
7.997995
 21
0.594276
 31
0.0
210
0.0
220
0.0
230
1.0
  0
LINE
  5
3F9
100
AcDbEntity
  8
0
370
     5
390
0
 62
     7
 48
0.000043
100
AcDbLine
 10
7.997995
 20
0.594276
 30
0.0
 11
7.99958
 21
0.593658
 31
0.0
210
0.0
220
0.0
230
1.0
  0
LINE
  5
3FA
100
AcDbEntity
  8
0
370
     5
390
0
 62
     7
 48
0.000041
100
AcDbLine
 10
7.99958
 20
0.593658
 30
0.0
 11
8.001043
 21
0.592944
 31
0.0
210
0.0
220
0.0
230
1.0
  0
LINE
  5
3FB
100
AcDbEntity
  8
0
370
     5
390
0
 62
     7
 48
0.000039
100
AcDbLine
 10
8.001043
 20
0.592944
 30
0.0
 11
8.002384
 21
0.592136
 31
0.0
210
0.0
220
0.0
230
1.0
  0
LINE
  5
3FC
100
AcDbEntity
  8
0
370
     5
390
0
 62
     7
 48
0.000038
100
AcDbLine
 10
8.002384
 20
0.592136
 30
0.0
 11
8.003601
 21
0.591231
 31
0.0
210
0.0
220
0.0
230
1.0
  0
LINE
  5
3FD
100
AcDbEntity
  8
0
370
     5
390
0
 62
     7
 48
0.000038
100
AcDbLine
 10
8.003601
 20
0.591231
 30
0.0
 11
8.004733
 21
0.590204
 31
0.0
210
0.0
220
0.0
230
1.0
  0
LINE
  5
3FE
100
AcDbEntity
  8
0
370
     5
390
0
 62
     7
 48
0.00004
100
AcDbLine
 10
8.004733
 20
0.590204
 30
0.0
 11
8.00581
 21
0.589025
 31
0.0
210
0.0
220
0.0
230
1.0
  0
LINE
  5
3FF
100
AcDbEntity
  8
0
370
     5
390
0
 62
     7
 48
0.000042
100
AcDbLine
 10
8.00581
 20
0.589025
 30
0.0
 11
8.006836
 21
0.587694
 31
0.0
210
0.0
220
0.0
230
1.0
  0
LINE
  5
400
100
AcDbEntity
  8
0
370
     5
390
0
 62
     7
 48
0.000044
100
AcDbLine
 10
8.006836
 20
0.587694
 30
0.0
 11
8.007806
 21
0.586212
 31
0.0
210
0.0
220
0.0
230
1.0
  0
LINE
  5
401
100
AcDbEntity
  8
0
370
     5
390
0
 62
     7
 48
0.000047
100
AcDbLine
 10
8.007806
 20
0.586212
 30
0.0
 11
8.008726
 21
0.584579
 31
0.0
210
0.0
220
0.0
230
1.0
  0
LINE
  5
402
100
AcDbEntity
  8
0
370
     5
390
0
 62
     7
 48
0.00005
100
AcDbLine
 10
8.008726
 20
0.584579
 30
0.0
 11
8.009591
 21
0.582795
 31
0.0
210
0.0
220
0.0
230
1.0
  0
LINE
  5
403
100
AcDbEntity
  8
0
370
     5
390
0
 62
     7
 48
0.000053
100
AcDbLine
 10
8.009591
 20
0.582795
 30
0.0
 11
8.010404
 21
0.580859
 31
0.0
210
0.0
220
0.0
230
1.0
  0
LINE
  5
404
100
AcDbEntity
  8
0
370
     5
390
0
 62
     7
 48
0.000056
100
AcDbLine
 10
8.010404
 20
0.580859
 30
0.0
 11
8.011163
 21
0.578771
 31
0.0
210
0.0
220
0.0
230
1.0
  0
LINE
  5
405
100
AcDbEntity
  8
0
370
     5
390
0
 62
     7
 48
0.000059
100
AcDbLine
 10
8.011163
 20
0.578771
 30
0.0
 11
8.011871
 21
0.576531
 31
0.0
210
0.0
220
0.0
230
1.0
  0
LINE
  5
406
100
AcDbEntity
  8
0
370
     5
390
0
 62
     7
 48
0.000062
100
AcDbLine
 10
8.011871
 20
0.576531
 30
0.0
 11
8.012525
 21
0.574142
 31
0.0
210
0.0
220
0.0
230
1.0
  0
LINE
  5
407
100
AcDbEntity
  8
0
370
     5
390
0
 62
     7
 48
0.000057
100
AcDbLine
 10
8.012525
 20
0.574142
 30
0.0
 11
8.014147
 21
0.572519
 31
0.0
210
0.0
220
0.0
230
1.0
  0
LINE
  5
408
100
AcDbEntity
  8
0
370
     5
390
0
 62
     7
 48
0.000054
100
AcDbLine
 10
8.014147
 20
0.572519
 30
0.0
 11
8.014802
 21
0.574562
 31
0.0
210
0.0
220
0.0
230
1.0
  0
LINE
  5
409
100
AcDbEntity
  8
0
370
     5
390
0
 62
     7
 48
0.000052
100
AcDbLine
 10
8.014802
 20
0.574562
 30
0.0
 11
8.015467
 21
0.576534
 31
0.0
210
0.0
220
0.0
230
1.0
  0
LINE
  5
40A
100
AcDbEntity
  8
0
370
     5
390
0
 62
     7
 48
0.000051
100
AcDbLine
 10
8.015467
 20
0.576534
 30
0.0
 11
8.016143
 21
0.578438
 31
0.0
210
0.0
220
0.0
230
1.0
  0
LINE
  5
40B
100
AcDbEntity
  8
0
370
     5
390
0
 62
     7
 48
0.000049
100
AcDbLine
 10
8.016143
 20
0.578438
 30
0.0
 11
8.01683
 21
0.580272
 31
0.0
210
0.0
220
0.0
230
1.0
  0
LINE
  5
40C
100
AcDbEntity
  8
0
370
     5
390
0
 62
     7
 48
0.000047
100
AcDbLine
 10
8.01683
 20
0.580272
 30
0.0
 11
8.017528
 21
0.582038
 31
0.0
210
0.0
220
0.0
230
1.0
  0
LINE
  5
40D
100
AcDbEntity
  8
0
370
     5
390
0
 62
     7
 48
0.000046
100
AcDbLine
 10
8.017528
 20
0.582038
 30
0.0
 11
8.018235
 21
0.583734
 31
0.0
210
0.0
220
0.0
230
1.0
  0
LINE
  5
40E
100
AcDbEntity
  8
0
370
     5
390
0
 62
     7
 48
0.000044
100
AcDbLine
 10
8.018235
 20
0.583734
 30
0.0
 11
8.018954
 21
0.58536
 31
0.0
210
0.0
220
0.0
230
1.0
  0
LINE
  5
40F
100
AcDbEntity
  8
0
370
     5
390
0
 62
     7
 48
0.000043
100
AcDbLine
 10
8.018954
 20
0.58536
 30
0.0
 11
8.019684
 21
0.586917
 31
0.0
210
0.0
220
0.0
230
1.0
  0
LINE
  5
410
100
AcDbEntity
  8
0
370
     5
390
0
 62
     7
 48
0.000042
100
AcDbLine
 10
8.019684
 20
0.586917
 30
0.0
 11
8.020426
 21
0.588405
 31
0.0
210
0.0
220
0.0
230
1.0
  0
LINE
  5
411
100
AcDbEntity
  8
0
370
     5
390
0
 62
     7
 48
0.00004
100
AcDbLine
 10
8.020426
 20
0.588405
 30
0.0
 11
8.021177
 21
0.589826
 31
0.0
210
0.0
220
0.0
230
1.0
  0
LINE
  5
412
100
AcDbEntity
  8
0
370
     5
390
0
 62
     7
 48
0.0004
100
AcDbLine
 10
8.021177
 20
0.589826
 30
0.0
 11
8.029019
 21
0.60375
 31
0.0
210
0.0
220
0.0
230
1.0
  0
LINE
  5
413
100
AcDbEntity
  8
0
370
     5
390
0
 62
     7
 48
0.000044
100
AcDbLine
 10
8.029019
 20
0.60375
 30
0.0
 11
8.029831
 21
0.605292
 31
0.0
210
0.0
220
0.0
230
1.0
  0
ENDBLK
  5
414
100
AcDbEntity
  8
0
390
0
100
AcDbBlockEnd
  0
BLOCK
  5
415
100
AcDbEntity
  8
0
370
     0
390
0
100
AcDbBlockBegin
  2
BLOCK6
 70
     0
 10
0.0
 20
0.0
 30
0.0
  3
BLOCK6
  1

  0
LINE
  5
416
100
AcDbEntity
  8
0
370
     5
390
0
 62
     7
 48
0.000505
100
AcDbLine
 10
8.03978
 20
0.605292
 30
0.0
 11
8.054382
 21
0.591339
 31
0.0
210
0.0
220
0.0
230
1.0
  0
LINE
  5
417
100
AcDbEntity
  8
0
370
     5
390
0
 62
     7
 48
0.001141
100
AcDbLine
 10
8.054382
 20
0.591339
 30
0.0
 11
8.054382
 21
0.545696
 31
0.0
210
0.0
220
0.0
230
1.0
  0
LINE
  5
418
100
AcDbEntity
  8
0
370
     5
390
0
 62
     7
 48
0.00008
100
AcDbLine
 10
8.054382
 20
0.545696
 30
0.0
 11
8.051189
 21
0.545309
 31
0.0
210
0.0
220
0.0
230
1.0
  0
LINE
  5
419
100
AcDbEntity
  8
0
370
     5
390
0
 62
     7
 48
0.000076
100
AcDbLine
 10
8.051189
 20
0.545309
 30
0.0
 11
8.048231
 21
0.544665
 31
0.0
210
0.0
220
0.0
230
1.0
  0
LINE
  5
41A
100
AcDbEntity
  8
0
370
     5
390
0
 62
     7
 48
0.000072
100
AcDbLine
 10
8.048231
 20
0.544665
 30
0.0
 11
8.045504
 21
0.543768
 31
0.0
210
0.0
220
0.0
230
1.0
  0
LINE
  5
41B
100
AcDbEntity
  8
0
370
     5
390
0
 62
     7
 48
0.000069
100
AcDbLine
 10
8.045504
 20
0.543768
 30
0.0
 11
8.043013
 21
0.542615
 31
0.0
210
0.0
220
0.0
230
1.0
  0
LINE
  5
41C
100
AcDbEntity
  8
0
370
     5
390
0
 62
     7
 48
0.000067
100
AcDbLine
 10
8.043013
 20
0.542615
 30
0.0
 11
8.040755
 21
0.541208
 31
0.0
210
0.0
220
0.0
230
1.0
  0
LINE
  5
41D
100
AcDbEntity
  8
0
370
     5
390
0
 62
     7
 48
0.000066
100
AcDbLine
 10
8.040755
 20
0.541208
 30
0.0
 11
8.03873
 21
0.539544
 31
0.0
210
0.0
220
0.0
230
1.0
  0
LINE
  5
41E
100
AcDbEntity
  8
0
370
     5
390
0
 62
     7
 48
0.000066
100
AcDbLine
 10
8.03873
 20
0.539544
 30
0.0
 11
8.036938
 21
0.537626
 31
0.0
210
0.0
220
0.0
230
1.0
  0
LINE
  5
41F
100
AcDbEntity
  8
0
370
     5
390
0
 62
     7
 48
0.000067
100
AcDbLine
 10
8.036938
 20
0.537626
 30
0.0
 11
8.03538
 21
0.535451
 31
0.0
210
0.0
220
0.0
230
1.0
  0
LINE
  5
420
100
AcDbEntity
  8
0
370
     5
390
0
 62
     7
 48
0.000069
100
AcDbLine
 10
8.03538
 20
0.535451
 30
0.0
 11
8.034058
 21
0.533022
 31
0.0
210
0.0
220
0.0
230
1.0
  0
LINE
  5
421
100
AcDbEntity
  8
0
370
     5
390
0
 62
     7
 48
0.000072
100
AcDbLine
 10
8.034058
 20
0.533022
 30
0.0
 11
8.032967
 21
0.530337
 31
0.0
210
0.0
220
0.0
230
1.0
  0
LINE
  5
422
100
AcDbEntity
  8
0
370
     5
390
0
 62
     7
 48
0.000047
100
AcDbLine
 10
8.032967
 20
0.530337
 30
0.0
 11
8.033725
 21
0.528606
 31
0.0
210
0.0
220
0.0
230
1.0
  0
LINE
  5
423
100
AcDbEntity
  8
0
370
     5
390
0
 62
     7
 48
0.000054
100
AcDbLine
 10
8.033725
 20
0.528606
 30
0.0
 11
8.035222
 21
0.530168
 31
0.0
210
0.0
220
0.0
230
1.0
  0
LINE
  5
424
100
AcDbEntity
  8
0
370
     5
390
0
 62
     7
 48
0.000052
100
AcDbLine
 10
8.035222
 20
0.530168
 30
0.0
 11
8.036774
 21
0.531566
 31
0.0
210
0.0
220
0.0
230
1.0
  0
LINE
  5
425
100
AcDbEntity
  8
0
370
     5
390
0
 62
     7
 48
0.000051
100
AcDbLine
 10
8.036774
 20
0.531566
 30
0.0
 11
8.038381
 21
0.532799
 31
0.0
210
0.0
220
0.0
230
1.0
  0
LINE
  5
426
100
AcDbEntity
  8
0
370
     5
390
0
 62
     7
 48
0.000049
100
AcDbLine
 10
8.038381
 20
0.532799
 30
0.0
 11
8.04004
 21
0.533868
 31
0.0
210
0.0
220
0.0
230
1.0
  0
LINE
  5
427
100
AcDbEntity
  8
0
370
     5
390
0
 62
     7
 48
0.000048
100
AcDbLine
 10
8.04004
 20
0.533868
 30
0.0
 11
8.041754
 21
0.534771
 31
0.0
210
0.0
220
0.0
230
1.0
  0
LINE
  5
428
100
AcDbEntity
  8
0
370
     5
390
0
 62
     7
 48
0.000048
100
AcDbLine
 10
8.041754
 20
0.534771
 30
0.0
 11
8.043522
 21
0.535512
 31
0.0
210
0.0
220
0.0
230
1.0
  0
LINE
  5
429
100
AcDbEntity
  8
0
370
     5
390
0
 62
     7
 48
0.000048
100
AcDbLine
 10
8.043522
 20
0.535512
 30
0.0
 11
8.045345
 21
0.536087
 31
0.0
210
0.0
220
0.0
230
1.0
  0
LINE
  5
42A
100
AcDbEntity
  8
0
370
     5
390
0
 62
     7
 48
0.000048
100
AcDbLine
 10
8.045345
 20
0.536087
 30
0.0
 11
8.047222
 21
0.536498
 31
0.0
210
0.0
220
0.0
230
1.0
  0
LINE
  5
42B
100
AcDbEntity
  8
0
370
     5
390
0
 62
     7
 48
0.000049
100
AcDbLine
 10
8.047222
 20
0.536498
 30
0.0
 11
8.049152
 21
0.536744
 31
0.0
210
0.0
220
0.0
230
1.0
  0
LINE
  5
42C
100
AcDbEntity
  8
0
370
     5
390
0
 62
     7
 48
0.00005
100
AcDbLine
 10
8.049152
 20
0.536744
 30
0.0
 11
8.051138
 21
0.536826
 31
0.0
210
0.0
220
0.0
230
1.0
  0
LINE
  5
42D
100
AcDbEntity
  8
0
370
     5
390
0
 62
     7
 48
0.000041
100
AcDbLine
 10
8.051138
 20
0.536826
 30
0.0
 11
8.052773
 21
0.536748
 31
0.0
210
0.0
220
0.0
230
1.0
  0
LINE
  5
42E
100
AcDbEntity
  8
0
370
     5
390
0
 62
     7
 48
0.00004
100
AcDbLine
 10
8.052773
 20
0.536748
 30
0.0
 11
8.054382
 21
0.53661
 31
0.0
210
0.0
220
0.0
230
1.0
  0
LINE
  5
42F
100
AcDbEntity
  8
0
370
     5
390
0
 62
     7
 48
0.000127
100
AcDbLine
 10
8.054382
 20
0.53661
 30
0.0
 11
8.054382
 21
0.531527
 31
0.0
210
0.0
220
0.0
230
1.0
  0
LINE
  5
430
100
AcDbEntity
  8
0
370
     5
390
0
 62
     7
 48
0.000051
100
AcDbLine
 10
8.054382
 20
0.531527
 30
0.0
 11
8.052347
 21
0.531458
 31
0.0
210
0.0
220
0.0
230
1.0
  0
LINE
  5
431
100
AcDbEntity
  8
0
370
     5
390
0
 62
     7
 48
0.000049
100
AcDbLine
 10
8.052347
 20
0.531458
 30
0.0
 11
8.050394
 21
0.531249
 31
0.0
210
0.0
220
0.0
230
1.0
  0
LINE
  5
432
100
AcDbEntity
  8
0
370
     5
390
0
 62
     7
 48
0.000048
100
AcDbLine
 10
8.050394
 20
0.531249
 30
0.0
 11
8.048522
 21
0.530904
 31
0.0
210
0.0
220
0.0
230
1.0
  0
LINE
  5
433
100
AcDbEntity
  8
0
370
     5
390
0
 62
     7
 48
0.000046
100
AcDbLine
 10
8.048522
 20
0.530904
 30
0.0
 11
8.046733
 21
0.53042
 31
0.0
210
0.0
220
0.0
230
1.0
  0
LINE
  5
434
100
AcDbEntity
  8
0
370
     5
390
0
 62
     7
 48
0.000045
100
AcDbLine
 10
8.046733
 20
0.53042
 30
0.0
 11
8.045027
 21
0.529796
 31
0.0
210
0.0
220
0.0
230
1.0
  0
LINE
  5
435
100
AcDbEntity
  8
0
370
     5
390
0
 62
     7
 48
0.000045
100
AcDbLine
 10
8.045027
 20
0.529796
 30
0.0
 11
8.043403
 21
0.529035
 31
0.0
210
0.0
220
0.0
230
1.0
  0
LINE
  5
436
100
AcDbEntity
  8
0
370
     5
390
0
 62
     7
 48
0.000045
100
AcDbLine
 10
8.043403
 20
0.529035
 30
0.0
 11
8.041859
 21
0.528135
 31
0.0
210
0.0
220
0.0
230
1.0
  0
LINE
  5
437
100
AcDbEntity
  8
0
370
     5
390
0
 62
     7
 48
0.000045
100
AcDbLine
 10
8.041859
 20
0.528135
 30
0.0
 11
8.0404
 21
0.527097
 31
0.0
210
0.0
220
0.0
230
1.0
  0
LINE
  5
438
100
AcDbEntity
  8
0
370
     5
390
0
 62
     7
 48
0.000045
100
AcDbLine
 10
8.0404
 20
0.527097
 30
0.0
 11
8.039021
 21
0.52592
 31
0.0
210
0.0
220
0.0
230
1.0
  0
LINE
  5
439
100
AcDbEntity
  8
0
370
     5
390
0
 62
     7
 48
0.000046
100
AcDbLine
 10
8.039021
 20
0.52592
 30
0.0
 11
8.037725
 21
0.524604
 31
0.0
210
0.0
220
0.0
230
1.0
  0
LINE
  5
43A
100
AcDbEntity
  8
0
370
     5
390
0
 62
     7
 48
0.000077
100
AcDbLine
 10
8.037725
 20
0.524604
 30
0.0
 11
8.03978
 21
0.522333
 31
0.0
210
0.0
220
0.0
230
1.0
  0
LINE
  5
43B
100
AcDbEntity
  8
0
370
     5
390
0
 62
     7
 48
0.000044
100
AcDbLine
 10
8.03978
 20
0.522333
 30
0.0
 11
8.041057
 21
0.523526
 31
0.0
210
0.0
220
0.0
230
1.0
  0
LINE
  5
43C
100
AcDbEntity
  8
0
370
     5
390
0
 62
     7
 48
0.000042
100
AcDbLine
 10
8.041057
 20
0.523526
 30
0.0
 11
8.042372
 21
0.524592
 31
0.0
210
0.0
220
0.0
230
1.0
  0
LINE
  5
43D
100
AcDbEntity
  8
0
370
     5
390
0
 62
     7
 48
0.000041
100
AcDbLine
 10
8.042372
 20
0.524592
 30
0.0
 11
8.04373
 21
0.525533
 31
0.0
210
0.0
220
0.0
230
1.0
  0
LINE
  5
43E
100
AcDbEntity
  8
0
370
     5
390
0
 62
     7
 48
0.000041
100
AcDbLine
 10
8.04373
 20
0.525533
 30
0.0
 11
8.045129
 21
0.526349
 31
0.0
210
0.0
220
0.0
230
1.0
  0
LINE
  5
43F
100
AcDbEntity
  8
0
370
     5
390
0
 62
     7
 48
0.00004
100
AcDbLine
 10
8.045129
 20
0.526349
 30
0.0
 11
8.046567
 21
0.527039
 31
0.0
210
0.0
220
0.0
230
1.0
  0
LINE
  5
440
100
AcDbEntity
  8
0
370
     5
390
0
 62
     7
 48
0.00004
100
AcDbLine
 10
8.046567
 20
0.527039
 30
0.0
 11
8.048048
 21
0.527603
 31
0.0
210
0.0
220
0.0
230
1.0
  0
LINE
  5
441
100
AcDbEntity
  8
0
370
     5
390
0
 62
     7
 48
0.00004
100
AcDbLine
 10
8.048048
 20
0.527603
 30
0.0
 11
8.049571
 21
0.528042
 31
0.0
210
0.0
220
0.0
230
1.0
  0
LINE
  5
442
100
AcDbEntity
  8
0
370
     5
390
0
 62
     7
 48
0.00004
100
AcDbLine
 10
8.049571
 20
0.528042
 30
0.0
 11
8.051134
 21
0.528356
 31
0.0
210
0.0
220
0.0
230
1.0
  0
LINE
  5
443
100
AcDbEntity
  8
0
370
     5
390
0
 62
     7
 48
0.00004
100
AcDbLine
 10
8.051134
 20
0.528356
 30
0.0
 11
8.052737
 21
0.528543
 31
0.0
210
0.0
220
0.0
230
1.0
  0
LINE
  5
444
100
AcDbEntity
  8
0
370
     5
390
0
 62
     7
 48
0.000041
100
AcDbLine
 10
8.052737
 20
0.528543
 30
0.0
 11
8.054382
 21
0.528606
 31
0.0
210
0.0
220
0.0
230
1.0
  0
LINE
  5
445
100
AcDbEntity
  8
0
370
     5
390
0
 62
     7
 48
0.001163
100
AcDbLine
 10
8.054382
 20
0.528606
 30
0.0
 11
8.054382
 21
0.482097
 31
0.0
210
0.0
220
0.0
230
1.0
  0
LINE
  5
446
100
AcDbEntity
  8
0
370
     5
390
0
 62
     7
 48
0.000564
100
AcDbLine
 10
8.054382
 20
0.482097
 30
0.0
 11
8.036753
 21
0.468038
 31
0.0
210
0.0
220
0.0
230
1.0
  0
LINE
  5
447
100
AcDbEntity
  8
0
370
     5
390
0
 62
     7
 48
0.001328
100
AcDbLine
 10
8.036753
 20
0.468038
 30
0.0
 11
8.089859
 21
0.468038
 31
0.0
210
0.0
220
0.0
230
1.0
  0
LINE
  5
448
100
AcDbEntity
  8
0
370
     5
390
0
 62
     7
 48
0.000493
100
AcDbLine
 10
8.089859
 20
0.468038
 30
0.0
 11
8.076014
 21
0.482097
 31
0.0
210
0.0
220
0.0
230
1.0
  0
LINE
  5
449
100
AcDbEntity
  8
0
370
     5
390
0
 62
     7
 48
0.001363
100
AcDbLine
 10
8.076014
 20
0.482097
 30
0.0
 11
8.076014
 21
0.53661
 31
0.0
210
0.0
220
0.0
230
1.0
  0
LINE
  5
44A
100
AcDbEntity
  8
0
370
     5
390
0
 62
     7
 48
0.000619
100
AcDbLine
 10
8.076014
 20
0.53661
 30
0.0
 11
8.100782
 21
0.53661
 31
0.0
210
0.0
220
0.0
230
1.0
  0
LINE
  5
44B
100
AcDbEntity
  8
0
370
     5
390
0
 62
     7
 48
0.000639
100
AcDbLine
 10
8.100782
 20
0.53661
 30
0.0
 11
8.118953
 21
0.518655
 31
0.0
210
0.0
220
0.0
230
1.0
  0
LINE
  5
44C
100
AcDbEntity
  8
0
370
     5
390
0
 62
     7
 48
0.001133
100
AcDbLine
 10
8.118953
 20
0.518655
 30
0.0
 11
8.118953
 21
0.563975
 31
0.0
210
0.0
220
0.0
230
1.0
  0
LINE
  5
44D
100
AcDbEntity
  8
0
370
     5
390
0
 62
     7
 48
0.000629
100
AcDbLine
 10
8.118953
 20
0.563975
 30
0.0
 11
8.101647
 21
0.545696
 31
0.0
210
0.0
220
0.0
230
1.0
  0
LINE
  5
44E
100
AcDbEntity
  8
0
370
     5
390
0
 62
     7
 48
0.000408
100
AcDbLine
 10
8.101647
 20
0.545696
 30
0.0
 11
8.085316
 21
0.545696
 31
0.0
210
0.0
220
0.0
230
1.0
  0
LINE
  5
44F
100
AcDbEntity
  8
0
370
     5
390
0
 62
     7
 48
0.001044
100
AcDbLine
 10
8.085316
 20
0.545696
 30
0.0
 11
8.085316
 21
0.587445
 31
0.0
210
0.0
220
0.0
230
1.0
  0
LINE
  5
450
100
AcDbEntity
  8
0
370
     5
390
0
 62
     7
 48
0.000067
100
AcDbLine
 10
8.085316
 20
0.587445
 30
0.0
 11
8.087994
 21
0.58764
 31
0.0
210
0.0
220
0.0
230
1.0
  0
LINE
  5
451
100
AcDbEntity
  8
0
370
     5
390
0
 62
     7
 48
0.000063
100
AcDbLine
 10
8.087994
 20
0.58764
 30
0.0
 11
8.090491
 21
0.587792
 31
0.0
210
0.0
220
0.0
230
1.0
  0
LINE
  5
452
100
AcDbEntity
  8
0
370
     5
390
0
 62
     7
 48
0.000058
100
AcDbLine
 10
8.090491
 20
0.587792
 30
0.0
 11
8.092805
 21
0.5879
 31
0.0
210
0.0
220
0.0
230
1.0
  0
LINE
  5
453
100
AcDbEntity
  8
0
370
     5
390
0
 62
     7
 48
0.000053
100
AcDbLine
 10
8.092805
 20
0.5879
 30
0.0
 11
8.094938
 21
0.587964
 31
0.0
210
0.0
220
0.0
230
1.0
  0
LINE
  5
454
100
AcDbEntity
  8
0
370
     5
390
0
 62
     7
 48
0.000049
100
AcDbLine
 10
8.094938
 20
0.587964
 30
0.0
 11
8.09689
 21
0.587987
 31
0.0
210
0.0
220
0.0
230
1.0
  0
LINE
  5
455
100
AcDbEntity
  8
0
370
     5
390
0
 62
     7
 48
0.000063
100
AcDbLine
 10
8.09689
 20
0.587987
 30
0.0
 11
8.099417
 21
0.587969
 31
0.0
210
0.0
220
0.0
230
1.0
  0
LINE
  5
456
100
AcDbEntity
  8
0
370
     5
390
0
 62
     7
 48
0.00006
100
AcDbLine
 10
8.099417
 20
0.587969
 30
0.0
 11
8.101811
 21
0.587915
 31
0.0
210
0.0
220
0.0
230
1.0
  0
LINE
  5
457
100
AcDbEntity
  8
0
370
     5
390
0
 62
     7
 48
0.000056
100
AcDbLine
 10
8.101811
 20
0.587915
 30
0.0
 11
8.104068
 21
0.587826
 31
0.0
210
0.0
220
0.0
230
1.0
  0
LINE
  5
458
100
AcDbEntity
  8
0
370
     5
390
0
 62
     7
 48
0.000053
100
AcDbLine
 10
8.104068
 20
0.587826
 30
0.0
 11
8.106191
 21
0.5877
 31
0.0
210
0.0
220
0.0
230
1.0
  0
LINE
  5
459
100
AcDbEntity
  8
0
370
     5
390
0
 62
     7
 48
0.00005
100
AcDbLine
 10
8.106191
 20
0.5877
 30
0.0
 11
8.108179
 21
0.58754
 31
0.0
210
0.0
220
0.0
230
1.0
  0
LINE
  5
45A
100
AcDbEntity
  8
0
370
     5
390
0
 62
     7
 48
0.000047
100
AcDbLine
 10
8.108179
 20
0.58754
 30
0.0
 11
8.110031
 21
0.587343
 31
0.0
210
0.0
220
0.0
230
1.0
  0
LINE
  5
45B
100
AcDbEntity
  8
0
370
     5
390
0
 62
     7
 48
0.000043
100
AcDbLine
 10
8.110031
 20
0.587343
 30
0.0
 11
8.111747
 21
0.587112
 31
0.0
210
0.0
220
0.0
230
1.0
  0
LINE
  5
45C
100
AcDbEntity
  8
0
370
     5
390
0
 62
     7
 48
0.00004
100
AcDbLine
 10
8.111747
 20
0.587112
 30
0.0
 11
8.113329
 21
0.586844
 31
0.0
210
0.0
220
0.0
230
1.0
  0
LINE
  5
45D
100
AcDbEntity
  8
0
370
     5
390
0
 62
     7
 48
0.000071
100
AcDbLine
 10
8.113329
 20
0.586844
 30
0.0
 11
8.116087
 21
0.586202
 31
0.0
210
0.0
220
0.0
230
1.0
  0
LINE
  5
45E
100
AcDbEntity
  8
0
370
     5
390
0
 62
     7
 48
0.000065
100
AcDbLine
 10
8.116087
 20
0.586202
 30
0.0
 11
8.118538
 21
0.585356
 31
0.0
210
0.0
220
0.0
230
1.0
  0
LINE
  5
45F
100
AcDbEntity
  8
0
370
     5
390
0
 62
     7
 48
0.000066
100
AcDbLine
 10
8.118538
 20
0.585356
 30
0.0
 11
8.120915
 21
0.584246
 31
0.0
210
0.0
220
0.0
230
1.0
  0
LINE
  5
460
100
AcDbEntity
  8
0
370
     5
390
0
 62
     7
 48
0.000067
100
AcDbLine
 10
8.120915
 20
0.584246
 30
0.0
 11
8.123219
 21
0.582873
 31
0.0
210
0.0
220
0.0
230
1.0
  0
LINE
  5
461
100
AcDbEntity
  8
0
370
     5
390
0
 62
     7
 48
0.000069
100
AcDbLine
 10
8.123219
 20
0.582873
 30
0.0
 11
8.125449
 21
0.581235
 31
0.0
210
0.0
220
0.0
230
1.0
  0
LINE
  5
462
100
AcDbEntity
  8
0
370
     5
390
0
 62
     7
 48
0.000072
100
AcDbLine
 10
8.125449
 20
0.581235
 30
0.0
 11
8.127607
 21
0.579333
 31
0.0
210
0.0
220
0.0
230
1.0
  0
LINE
  5
463
100
AcDbEntity
  8
0
370
     5
390
0
 62
     7
 48
0.000063
100
AcDbLine
 10
8.127607
 20
0.579333
 30
0.0
 11
8.126338
 21
0.581511
 31
0.0
210
0.0
220
0.0
230
1.0
  0
LINE
  5
464
100
AcDbEntity
  8
0
370
     5
390
0
 62
     7
 48
0.000063
100
AcDbLine
 10
8.126338
 20
0.581511
 30
0.0
 11
8.124737
 21
0.583461
 31
0.0
210
0.0
220
0.0
230
1.0
  0
LINE
  5
465
100
AcDbEntity
  8
0
370
     5
390
0
 62
     7
 48
0.000065
100
AcDbLine
 10
8.124737
 20
0.583461
 30
0.0
 11
8.122807
 21
0.58518
 31
0.0
210
0.0
220
0.0
230
1.0
  0
LINE
  5
466
100
AcDbEntity
  8
0
370
     5
390
0
 62
     7
 48
0.000068
100
AcDbLine
 10
8.122807
 20
0.58518
 30
0.0
 11
8.120546
 21
0.586671
 31
0.0
210
0.0
220
0.0
230
1.0
  0
LINE
  5
467
100
AcDbEntity
  8
0
370
     5
390
0
 62
     7
 48
0.000072
100
AcDbLine
 10
8.120546
 20
0.586671
 30
0.0
 11
8.117954
 21
0.587933
 31
0.0
210
0.0
220
0.0
230
1.0
  0
LINE
  5
468
100
AcDbEntity
  8
0
370
     5
390
0
 62
     7
 48
0.000078
100
AcDbLine
 10
8.117954
 20
0.587933
 30
0.0
 11
8.115029
 21
0.588965
 31
0.0
210
0.0
220
0.0
230
1.0
  0
LINE
  5
469
100
AcDbEntity
  8
0
370
     5
390
0
 62
     7
 48
0.000084
100
AcDbLine
 10
8.115029
 20
0.588965
 30
0.0
 11
8.111775
 21
0.589767
 31
0.0
210
0.0
220
0.0
230
1.0
  0
LINE
  5
46A
100
AcDbEntity
  8
0
370
     5
390
0
 62
     7
 48
0.000091
100
AcDbLine
 10
8.111775
 20
0.589767
 30
0.0
 11
8.108189
 21
0.59034
 31
0.0
210
0.0
220
0.0
230
1.0
  0
LINE
  5
46B
100
AcDbEntity
  8
0
370
     5
390
0
 62
     7
 48
0.000098
100
AcDbLine
 10
8.108189
 20
0.59034
 30
0.0
 11
8.104273
 21
0.590684
 31
0.0
210
0.0
220
0.0
230
1.0
  0
LINE
  5
46C
100
AcDbEntity
  8
0
370
     5
390
0
 62
     7
 48
0.000106
100
AcDbLine
 10
8.104273
 20
0.590684
 30
0.0
 11
8.100026
 21
0.590798
 31
0.0
210
0.0
220
0.0
230
1.0
  0
LINE
  5
46D
100
AcDbEntity
  8
0
370
     5
390
0
 62
     7
 48
0.000075
100
AcDbLine
 10
8.100026
 20
0.590798
 30
0.0
 11
8.097032
 21
0.590786
 31
0.0
210
0.0
220
0.0
230
1.0
  0
LINE
  5
46E
100
AcDbEntity
  8
0
370
     5
390
0
 62
     7
 48
0.000073
100
AcDbLine
 10
8.097032
 20
0.590786
 30
0.0
 11
8.094107
 21
0.590747
 31
0.0
210
0.0
220
0.0
230
1.0
  0
LINE
  5
46F
100
AcDbEntity
  8
0
370
     5
390
0
 62
     7
 48
0.000071
100
AcDbLine
 10
8.094107
 20
0.590747
 30
0.0
 11
8.091251
 21
0.590682
 31
0.0
210
0.0
220
0.0
230
1.0
  0
LINE
  5
470
100
AcDbEntity
  8
0
370
     5
390
0
 62
     7
 48
0.00007
100
AcDbLine
 10
8.091251
 20
0.590682
 30
0.0
 11
8.088465
 21
0.590591
 31
0.0
210
0.0
220
0.0
230
1.0
  0
LINE
  5
471
100
AcDbEntity
  8
0
370
     5
390
0
 62
     7
 48
0.000068
100
AcDbLine
 10
8.088465
 20
0.590591
 30
0.0
 11
8.085749
 21
0.590474
 31
0.0
210
0.0
220
0.0
230
1.0
  0
LINE
  5
472
100
AcDbEntity
  8
0
370
     5
390
0
 62
     7
 48
0.000078
100
AcDbLine
 10
8.085749
 20
0.590474
 30
0.0
 11
8.082612
 21
0.590366
 31
0.0
210
0.0
220
0.0
230
1.0
  0
LINE
  5
473
100
AcDbEntity
  8
0
370
     5
390
0
 62
     7
 48
0.001117
100
AcDbLine
 10
8.082612
 20
0.590366
 30
0.0
 11
8.082612
 21
0.545696
 31
0.0
210
0.0
220
0.0
230
1.0
  0
LINE
  5
474
100
AcDbEntity
  8
0
370
     5
390
0
 62
     7
 48
0.000165
100
AcDbLine
 10
8.082612
 20
0.545696
 30
0.0
 11
8.076014
 21
0.545696
 31
0.0
210
0.0
220
0.0
230
1.0
  0
LINE
  5
475
100
AcDbEntity
  8
0
370
     5
390
0
 62
     7
 48
0.001265
100
AcDbLine
 10
8.076014
 20
0.545696
 30
0.0
 11
8.076014
 21
0.596315
 31
0.0
210
0.0
220
0.0
230
1.0
  0
LINE
  5
476
100
AcDbEntity
  8
0
370
     5
390
0
 62
     7
 48
0.0001
100
AcDbLine
 10
8.076014
 20
0.596315
 30
0.0
 11
8.080016
 21
0.596207
 31
0.0
210
0.0
220
0.0
230
1.0
  0
LINE
  5
477
100
AcDbEntity
  8
0
370
     5
390
0
 62
     7
 48
0.000262
100
AcDbLine
 10
8.080016
 20
0.596207
 30
0.0
 11
8.090507
 21
0.596099
 31
0.0
210
0.0
220
0.0
230
1.0
  0
LINE
  5
478
100
AcDbEntity
  8
0
370
     5
390
0
 62
     7
 48
0.000154
100
AcDbLine
 10
8.090507
 20
0.596099
 30
0.0
 11
8.096672
 21
0.596207
 31
0.0
210
0.0
220
0.0
230
1.0
  0
LINE
  5
479
100
AcDbEntity
  8
0
370
     5
390
0
 62
     7
 48
0.00008
100
AcDbLine
 10
8.096672
 20
0.596207
 30
0.0
 11
8.099887
 21
0.596163
 31
0.0
210
0.0
220
0.0
230
1.0
  0
LINE
  5
47A
100
AcDbEntity
  8
0
370
     5
390
0
 62
     7
 48
0.000076
100
AcDbLine
 10
8.099887
 20
0.596163
 30
0.0
 11
8.102909
 21
0.596033
 31
0.0
210
0.0
220
0.0
230
1.0
  0
LINE
  5
47B
100
AcDbEntity
  8
0
370
     5
390
0
 62
     7
 48
0.000071
100
AcDbLine
 10
8.102909
 20
0.596033
 30
0.0
 11
8.10574
 21
0.595817
 31
0.0
210
0.0
220
0.0
230
1.0
  0
LINE
  5
47C
100
AcDbEntity
  8
0
370
     5
390
0
 62
     7
 48
0.000066
100
AcDbLine
 10
8.10574
 20
0.595817
 30
0.0
 11
8.108379
 21
0.595514
 31
0.0
210
0.0
220
0.0
230
1.0
  0
LINE
  5
47D
100
AcDbEntity
  8
0
370
     5
390
0
 62
     7
 48
0.000062
100
AcDbLine
 10
8.108379
 20
0.595514
 30
0.0
 11
8.110827
 21
0.595125
 31
0.0
210
0.0
220
0.0
230
1.0
  0
LINE
  5
47E
100
AcDbEntity
  8
0
370
     5
390
0
 62
     7
 48
0.000058
100
AcDbLine
 10
8.110827
 20
0.595125
 30
0.0
 11
8.113085
 21
0.594648
 31
0.0
210
0.0
220
0.0
230
1.0
  0
LINE
  5
47F
100
AcDbEntity
  8
0
370
     5
390
0
 62
     7
 48
0.000054
100
AcDbLine
 10
8.113085
 20
0.594648
 30
0.0
 11
8.11515
 21
0.594086
 31
0.0
210
0.0
220
0.0
230
1.0
  0
LINE
  5
480
100
AcDbEntity
  8
0
370
     5
390
0
 62
     7
 48
0.00005
100
AcDbLine
 10
8.11515
 20
0.594086
 30
0.0
 11
8.117024
 21
0.593438
 31
0.0
210
0.0
220
0.0
230
1.0
  0
LINE
  5
481
100
AcDbEntity
  8
0
370
     5
390
0
 62
     7
 48
0.000046
100
AcDbLine
 10
8.117024
 20
0.593438
 30
0.0
 11
8.118707
 21
0.592701
 31
0.0
210
0.0
220
0.0
230
1.0
  0
LINE
  5
482
100
AcDbEntity
  8
0
370
     5
390
0
 62
     7
 48
0.000043
100
AcDbLine
 10
8.118707
 20
0.592701
 30
0.0
 11
8.120198
 21
0.591881
 31
0.0
210
0.0
220
0.0
230
1.0
  0
LINE
  5
483
100
AcDbEntity
  8
0
370
     5
390
0
 62
     7
 48
0.000043
100
AcDbLine
 10
8.120198
 20
0.591881
 30
0.0
 11
8.121594
 21
0.59091
 31
0.0
210
0.0
220
0.0
230
1.0
  0
LINE
  5
484
100
AcDbEntity
  8
0
370
     5
390
0
 62
     7
 48
0.000046
100
AcDbLine
 10
8.121594
 20
0.59091
 30
0.0
 11
8.122994
 21
0.589734
 31
0.0
210
0.0
220
0.0
230
1.0
  0
LINE
  5
485
100
AcDbEntity
  8
0
370
     5
390
0
 62
     7
 48
0.000049
100
AcDbLine
 10
8.122994
 20
0.589734
 30
0.0
 11
8.124398
 21
0.58835
 31
0.0
210
0.0
220
0.0
230
1.0
  0
LINE
  5
486
100
AcDbEntity
  8
0
370
     5
390
0
 62
     7
 48
0.000053
100
AcDbLine
 10
8.124398
 20
0.58835
 30
0.0
 11
8.125804
 21
0.586758
 31
0.0
210
0.0
220
0.0
230
1.0
  0
LINE
  5
487
100
AcDbEntity
  8
0
370
     5
390
0
 62
     7
 48
0.000057
100
AcDbLine
 10
8.125804
 20
0.586758
 30
0.0
 11
8.127215
 21
0.584958
 31
0.0
210
0.0
220
0.0
230
1.0
  0
LINE
  5
488
100
AcDbEntity
  8
0
370
     5
390
0
 62
     7
 48
0.000061
100
AcDbLine
 10
8.127215
 20
0.584958
 30
0.0
 11
8.128628
 21
0.582951
 31
0.0
210
0.0
220
0.0
230
1.0
  0
LINE
  5
489
100
AcDbEntity
  8
0
370
     5
390
0
 62
     7
 48
0.000066
100
AcDbLine
 10
8.128628
 20
0.582951
 30
0.0
 11
8.130044
 21
0.580736
 31
0.0
210
0.0
220
0.0
230
1.0
  0
LINE
  5
48A
100
AcDbEntity
  8
0
370
     5
390
0
 62
     7
 48
0.00007
100
AcDbLine
 10
8.130044
 20
0.580736
 30
0.0
 11
8.131463
 21
0.578313
 31
0.0
210
0.0
220
0.0
230
1.0
  0
LINE
  5
48B
100
AcDbEntity
  8
0
370
     5
390
0
 62
     7
 48
0.000075
100
AcDbLine
 10
8.131463
 20
0.578313
 30
0.0
 11
8.132887
 21
0.575682
 31
0.0
210
0.0
220
0.0
230
1.0
  0
LINE
  5
48C
100
AcDbEntity
  8
0
370
     5
390
0
 62
     7
 48
0.000079
100
AcDbLine
 10
8.132887
 20
0.575682
 30
0.0
 11
8.134311
 21
0.572844
 31
0.0
210
0.0
220
0.0
230
1.0
  0
LINE
  5
48D
100
AcDbEntity
  8
0
370
     5
390
0
 62
     7
 48
0.000058
100
AcDbLine
 10
8.134311
 20
0.572844
 30
0.0
 11
8.135177
 21
0.575007
 31
0.0
210
0.0
220
0.0
230
1.0
  0
LINE
  5
48E
100
AcDbEntity
  8
0
370
     5
390
0
 62
     7
 48
0.000059
100
AcDbLine
 10
8.135177
 20
0.575007
 30
0.0
 11
8.136049
 21
0.577196
 31
0.0
210
0.0
220
0.0
230
1.0
  0
LINE
  5
48F
100
AcDbEntity
  8
0
370
     5
390
0
 62
     7
 48
0.000056
100
AcDbLine
 10
8.136049
 20
0.577196
 30
0.0
 11
8.136889
 21
0.57926
 31
0.0
210
0.0
220
0.0
230
1.0
  0
LINE
  5
490
100
AcDbEntity
  8
0
370
     5
390
0
 62
     7
 48
0.000053
100
AcDbLine
 10
8.136889
 20
0.57926
 30
0.0
 11
8.137697
 21
0.581201
 31
0.0
210
0.0
220
0.0
230
1.0
  0
LINE
  5
491
100
AcDbEntity
  8
0
370
     5
390
0
 62
     7
 48
0.000049
100
AcDbLine
 10
8.137697
 20
0.581201
 30
0.0
 11
8.138474
 21
0.583019
 31
0.0
210
0.0
220
0.0
230
1.0
  0
LINE
  5
492
100
AcDbEntity
  8
0
370
     5
390
0
 62
     7
 48
0.000046
100
AcDbLine
 10
8.138474
 20
0.583019
 30
0.0
 11
8.13922
 21
0.584714
 31
0.0
210
0.0
220
0.0
230
1.0
  0
LINE
  5
493
100
AcDbEntity
  8
0
370
     5
390
0
 62
     7
 48
0.000043
100
AcDbLine
 10
8.13922
 20
0.584714
 30
0.0
 11
8.139935
 21
0.586286
 31
0.0
210
0.0
220
0.0
230
1.0
  0
LINE
  5
494
100
AcDbEntity
  8
0
370
     5
390
0
 62
     7
 48
0.00004
100
AcDbLine
 10
8.139935
 20
0.586286
 30
0.0
 11
8.140617
 21
0.587735
 31
0.0
210
0.0
220
0.0
230
1.0
  0
LINE
  5
495
100
AcDbEntity
  8
0
370
     5
390
0
 62
     7
 48
0.000071
100
AcDbLine
 10
8.140617
 20
0.587735
 30
0.0
 11
8.14189
 21
0.590261
 31
0.0
210
0.0
220
0.0
230
1.0
  0
LINE
  5
496
100
AcDbEntity
  8
0
370
     5
390
0
 62
     7
 48
0.000061
100
AcDbLine
 10
8.14189
 20
0.590261
 30
0.0
 11
8.143089
 21
0.592394
 31
0.0
210
0.0
220
0.0
230
1.0
  0
LINE
  5
497
100
AcDbEntity
  8
0
370
     5
390
0
 62
     7
 48
0.000069
100
AcDbLine
 10
8.143089
 20
0.592394
 30
0.0
 11
8.144543
 21
0.594729
 31
0.0
210
0.0
220
0.0
230
1.0
  0
LINE
  5
498
100
AcDbEntity
  8
0
370
     5
390
0
 62
     7
 48
0.000038
100
AcDbLine
 10
8.144543
 20
0.594729
 30
0.0
 11
8.145386
 21
0.596012
 31
0.0
210
0.0
220
0.0
230
1.0
  0
LINE
  5
499
100
AcDbEntity
  8
0
370
     5
390
0
 62
     7
 48
0.000041
100
AcDbLine
 10
8.145386
 20
0.596012
 30
0.0
 11
8.146304
 21
0.597369
 31
0.0
210
0.0
220
0.0
230
1.0
  0
LINE
  5
49A
100
AcDbEntity
  8
0
370
     5
390
0
 62
     7
 48
0.000044
100
AcDbLine
 10
8.146304
 20
0.597369
 30
0.0
 11
8.1473
 21
0.598802
 31
0.0
210
0.0
220
0.0
230
1.0
  0
LINE
  5
49B
100
AcDbEntity
  8
0
370
     5
390
0
 62
     7
 48
0.000046
100
AcDbLine
 10
8.1473
 20
0.598802
 30
0.0
 11
8.148372
 21
0.600311
 31
0.0
210
0.0
220
0.0
230
1.0
  0
LINE
  5
49C
100
AcDbEntity
  8
0
370
     5
390
0
 62
     7
 48
0.000049
100
AcDbLine
 10
8.148372
 20
0.600311
 30
0.0
 11
8.149522
 21
0.601895
 31
0.0
210
0.0
220
0.0
230
1.0
  0
LINE
  5
49D
100
AcDbEntity
  8
0
370
     5
390
0
 62
     7
 48
0.000052
100
AcDbLine
 10
8.149522
 20
0.601895
 30
0.0
 11
8.150747
 21
0.603555
 31
0.0
210
0.0
220
0.0
230
1.0
  0
LINE
  5
49E
100
AcDbEntity
  8
0
370
     5
390
0
 62
     7
 48
0.000054
100
AcDbLine
 10
8.150747
 20
0.603555
 30
0.0
 11
8.152051
 21
0.605292
 31
0.0
210
0.0
220
0.0
230
1.0
  0
LINE
  5
49F
100
AcDbEntity
  8
0
370
     5
390
0
 62
     7
 48
0.002807
100
AcDbLine
 10
8.152051
 20
0.605292
 30
0.0
 11
8.03978
 21
0.605292
 31
0.0
210
0.0
220
0.0
230
1.0
  0
ENDBLK
  5
4A0
100
AcDbEntity
  8
0
390
0
100
AcDbBlockEnd
  0
BLOCK
  5
4A1
100
AcDbEntity
  8
0
370
     0
390
0
100
AcDbBlockBegin
  2
BLOCK7
 70
     0
 10
0.0
 20
0.0
 30
0.0
  3
BLOCK7
  1

  0
TEXT
  5
4A2
100
AcDbEntity
  8
0
370
    13
390
0
 62
     7
 48
0.03937
100
AcDbText
 10
-4.064002
 20
0.592194
 30
0.0
 40
0.140607
  1
4
 72
     5
 11
-3.962407
 21
0.592194
 31
0.0
100
AcDbText
  0
TEXT
  5
4A3
100
AcDbEntity
  8
0
370
    13
390
0
 62
     7
 48
0.03937
100
AcDbText
 10
-3.962407
 20
0.592194
 30
0.0
 40
0.140607
  1
X
 72
     5
 11
-3.806154
 21
0.592194
 31
0.0
100
AcDbText
  0
ENDBLK
  5
4A4
100
AcDbEntity
  8
0
390
0
100
AcDbBlockEnd
  0
BLOCK
  5
4A5
100
AcDbEntity
  8
0
370
     0
390
0
100
AcDbBlockBegin
  2
BLOCK8
 70
     0
 10
0.0
 20
0.0
 30
0.0
  3
BLOCK8
  1

  0
SOLID
  5
4A6
100
AcDbEntity
  8
0
370
    13
390
0
 62
     7
 48
0.03937
100
AcDbTrace
 10
-1.755806
 20
-2.085404
 30
0.0
 11
-1.603886
 21
-1.838791
 31
0.0
 12
-1.755806
 22
-2.085404
 32
0.0
 13
-1.827577
 23
-2.022802
 33
0.0
  0
SOLID
  5
4A7
100
AcDbEntity
  8
0
370
    13
390
0
 62
     7
 48
0.03937
100
AcDbTrace
 10
1.755806
 20
2.085404
 30
0.0
 11
1.603886
 21
1.838791
 31
0.0
 12
1.755806
 22
2.085404
 32
0.0
 13
1.827577
 23
2.022802
 33
0.0
  0
TEXT
  5
4A8
100
AcDbEntity
  8
0
370
    13
390
0
 62
     7
 48
0.03937
100
AcDbText
 10
2.741741
 20
2.338562
 30
0.0
 40
0.140607
  1
4.88
 72
     5
 11
3.097323
 21
2.338562
 31
0.0
100
AcDbText
  0
TEXT
  5
4A9
100
AcDbEntity
  8
0
370
    13
390
0
 62
     7
 48
0.03937
100
AcDbText
 10
3.097324
 20
2.338562
 30
0.0
 40
0.140607
  1
"
 72
     5
 11
3.200436
 21
2.338562
 31
0.0
100
AcDbText
  0
TEXT
  5
4AA
100
AcDbEntity
  8
0
370
    13
390
0
 62
     7
 48
0.03937
100
AcDbText
 10
2.458277
 20
2.338562
 30
0.0
 40
0.140607
  1
%%c
 72
     5
 11
2.598884
 21
2.338562
 31
0.0
100
AcDbText
  0
LINE
  5
4AB
100
AcDbEntity
  8
0
370
    13
390
0
 62
     7
 48
0.006071
100
AcDbLine
 10
2.101134
 20
2.408866
 30
0.0
 11
2.343991
 21
2.408866
 31
0.0
210
0.0
220
0.0
230
1.0
  0
LINE
  5
4AC
100
AcDbEntity
  8
0
370
    13
390
0
 62
     7
 48
0.004106
100
AcDbLine
 10
-1.899647
 20
-2.177869
 30
0.0
 11
-1.791692
 21
-2.054103
 31
0.0
210
0.0
220
0.0
230
1.0
  0
LINE
  5
4AD
100
AcDbEntity
  8
0
370
    13
390
0
 62
     7
 48
0.011769
100
AcDbLine
 10
1.791692
 20
2.054103
 30
0.0
 11
2.101134
 21
2.408866
 31
0.0
210
0.0
220
0.0
230
1.0
  0
POLYLINE
  5
4AE
100
AcDbEntity
  8
0
370
    13
390
0
 62
     7
 48
0.03937
100
AcDb2dPolyline
 66
     1
 10
0.0
 20
0.0
 30
0.0
 70
     1
 71
     3
  0
VERTEX
  5
4AF
100
AcDbEntity
  8
0
370
     0
390
0
100
AcDbVertex
100
AcDb2dVertex
 10
-1.755806
 20
-2.085404
 30
0.0
  0
VERTEX
  5
4B0
100
AcDbEntity
  8
0
370
     0
390
0
100
AcDbVertex
100
AcDb2dVertex
 10
-1.603886
 20
-1.838791
 30
0.0
  0
VERTEX
  5
4B1
100
AcDbEntity
  8
0
370
     0
390
0
100
AcDbVertex
100
AcDb2dVertex
 10
-1.827577
 20
-2.022802
 30
0.0
  0
SEQEND
  5
4B2
100
AcDbEntity
  8
0
370
     0
390
0
  0
POLYLINE
  5
4B3
100
AcDbEntity
  8
0
370
    13
390
0
 62
     7
 48
0.03937
100
AcDb2dPolyline
 66
     1
 10
0.0
 20
0.0
 30
0.0
 70
     1
 71
     3
  0
VERTEX
  5
4B4
100
AcDbEntity
  8
0
370
     0
390
0
100
AcDbVertex
100
AcDb2dVertex
 10
1.755806
 20
2.085404
 30
0.0
  0
VERTEX
  5
4B5
100
AcDbEntity
  8
0
370
     0
390
0
100
AcDbVertex
100
AcDb2dVertex
 10
1.603886
 20
1.838791
 30
0.0
  0
VERTEX
  5
4B6
100
AcDbEntity
  8
0
370
     0
390
0
100
AcDbVertex
100
AcDb2dVertex
 10
1.827577
 20
2.022802
 30
0.0
  0
SEQEND
  5
4B7
100
AcDbEntity
  8
0
370
     0
390
0
  0
ENDBLK
  5
4B8
100
AcDbEntity
  8
0
390
0
100
AcDbBlockEnd
  0
BLOCK
  5
4B9
100
AcDbEntity
  8
0
370
     0
390
0
100
AcDbBlockBegin
  2
BLOCK9
 70
     0
 10
0.0
 20
0.0
 30
0.0
  3
BLOCK9
  1

  0
SOLID
  5
4BA
100
AcDbEntity
  8
0
370
    13
390
0
 62
     7
 48
0.03937
100
AcDbTrace
 10
-2.39449
 20
0.153096
 30
0.0
 11
-2.107674
 21
0.112671
 31
0.0
 12
-2.39449
 22
0.153096
 32
0.0
 13
-2.365876
 23
0.243932
 33
0.0
  0
TEXT
  5
4BB
100
AcDbEntity
  8
0
370
    13
390
0
 62
     7
 48
0.03937
100
AcDbText
 10
-3.794034
 20
0.31659
 30
0.0
 40
0.140607
  1
0.75
 72
     5
 11
-3.438452
 21
0.31659
 31
0.0
100
AcDbText
  0
TEXT
  5
4BC
100
AcDbEntity
  8
0
370
    13
390
0
 62
     7
 48
0.03937
100
AcDbText
 10
-3.438452
 20
0.31659
 30
0.0
 40
0.140607
  1
"
 72
     5
 11
-3.335339
 21
0.31659
 31
0.0
100
AcDbText
  0
TEXT
  5
4BD
100
AcDbEntity
  8
0
370
    13
390
0
 62
     7
 48
0.03937
100
AcDbText
 10
-4.077498
 20
0.31659
 30
0.0
 40
0.140607
  1
%%c
 72
     5
 11
-3.936891
 21
0.31659
 31
0.0
100
AcDbText
  0
LINE
  5
4BE
100
AcDbEntity
  8
0
370
    13
390
0
 62
     7
 48
0.006071
100
AcDbLine
 10
-2.978197
 20
0.386894
 30
0.0
 11
-3.221054
 21
0.386894
 31
0.0
210
0.0
220
0.0
230
1.0
  0
LINE
  5
4BF
100
AcDbEntity
  8
0
370
    13
390
0
 62
     7
 48
0.015675
100
AcDbLine
 10
-2.380183
 20
0.198514
 30
0.0
 11
-2.978197
 21
0.386894
 31
0.0
210
0.0
220
0.0
230
1.0
  0
POLYLINE
  5
4C0
100
AcDbEntity
  8
0
370
    13
390
0
 62
     7
 48
0.03937
100
AcDb2dPolyline
 66
     1
 10
0.0
 20
0.0
 30
0.0
 70
     1
 71
     3
  0
VERTEX
  5
4C1
100
AcDbEntity
  8
0
370
     0
390
0
100
AcDbVertex
100
AcDb2dVertex
 10
-2.39449
 20
0.153096
 30
0.0
  0
VERTEX
  5
4C2
100
AcDbEntity
  8
0
370
     0
390
0
100
AcDbVertex
100
AcDb2dVertex
 10
-2.107674
 20
0.112671
 30
0.0
  0
VERTEX
  5
4C3
100
AcDbEntity
  8
0
370
     0
390
0
100
AcDbVertex
100
AcDb2dVertex
 10
-2.365876
 20
0.243932
 30
0.0
  0
SEQEND
  5
4C4
100
AcDbEntity
  8
0
370
     0
390
0
  0
ENDBLK
  5
4C5
100
AcDbEntity
  8
0
390
0
100
AcDbBlockEnd
  0
BLOCK
  5
4C6
100
AcDbEntity
  8
0
370
     0
390
0
100
AcDbBlockBegin
  2
BLOCK10
 70
     0
 10
0.0
 20
0.0
 30
0.0
  3
BLOCK10
  1

  0
SOLID
  5
4C7
100
AcDbEntity
  8
0
370
    13
390
0
 62
     7
 48
0.03937
100
AcDbTrace
 10
-1.24665
 20
0.769594
 30
0.0
 11
-1.5182
 21
0.870385
 31
0.0
 12
-1.24665
 22
0.769594
 32
0.0
 13
-1.294017
 23
0.686972
 33
0.0
  0
SOLID
  5
4C8
100
AcDbEntity
  8
0
370
    13
390
0
 62
     7
 48
0.03937
100
AcDbTrace
 10
1.24665
 20
-0.769594
 30
0.0
 11
1.5182
 21
-0.870385
 31
0.0
 12
1.24665
 22
-0.769594
 32
0.0
 13
1.294017
 23
-0.686972
 33
0.0
  0
TEXT
  5
4C9
100
AcDbEntity
  8
0
370
    13
390
0
 62
     7
 48
0.03937
100
AcDbText
 10
3.155194
 20
-1.55515
 30
0.0
 40
0.140607
  1
3.5
 72
     5
 11
3.409181
 21
-1.55515
 31
0.0
100
AcDbText
  0
TEXT
  5
4CA
100
AcDbEntity
  8
0
370
    13
390
0
 62
     7
 48
0.03937
100
AcDbText
 10
3.409181
 20
-1.55515
 30
0.0
 40
0.140607
  1
"
 72
     5
 11
3.512293
 21
-1.55515
 31
0.0
100
AcDbText
  0
TEXT
  5
4CB
100
AcDbEntity
  8
0
370
    13
390
0
 62
     7
 48
0.03937
100
AcDbText
 10
2.871729
 20
-1.55515
 30
0.0
 40
0.140607
  1
%%c
 72
     5
 11
3.012336
 21
-1.55515
 31
0.0
100
AcDbText
  0
TEXT
  5
4CC
100
AcDbEntity
  8
0
370
    13
390
0
 62
     7
 48
0.03937
100
AcDbText
 10
2.871729
 20
-1.780122
 30
0.0
 40
0.140607
  1
BOLT CIRCLE
 72
     5
 11
4.283493
 21
-1.780122
 31
0.0
100
AcDbText
  0
LINE
  5
4CD
100
AcDbEntity
  8
0
370
    13
390
0
 62
     7
 48
0.004186
100
AcDbLine
 10
2.589996
 20
-1.484846
 30
0.0
 11
2.757443
 21
-1.484846
 31
0.0
210
0.0
220
0.0
230
1.0
  0
ARC
  5
4CE
100
AcDbEntity
  8
0
370
    13
390
0
 62
     7
 48
0.03937
100
AcDbCircle
 10
0.0
 20
0.0
 30
0.0
 40
1.75
210
0.0
220
0.0
230
1.0
100
AcDbArc
 50
228.357652
 51
333.857161
  0
LINE
  5
4CF
100
AcDbEntity
  8
0
370
    13
390
0
 62
     7
 48
0.03937
100
AcDbLine
 10
-1.270334
 20
0.728283
 30
0.0
 11
1.270334
 21
-0.728283
 31
0.0
210
0.0
220
0.0
230
1.0
  0
LINE
  5
4D0
100
AcDbEntity
  8
0
370
    13
390
0
 62
     7
 48
0.03937
100
AcDbLine
 10
1.5182
 20
-0.870385
 30
0.0
 11
2.589996
 21
-1.484846
 31
0.0
210
0.0
220
0.0
230
1.0
  0
POLYLINE
  5
4D1
100
AcDbEntity
  8
0
370
    13
390
0
 62
     7
 48
0.03937
100
AcDb2dPolyline
 66
     1
 10
0.0
 20
0.0
 30
0.0
 70
     1
 71
     3
  0
VERTEX
  5
4D2
100
AcDbEntity
  8
0
370
     0
390
0
100
AcDbVertex
100
AcDb2dVertex
 10
-1.24665
 20
0.769594
 30
0.0
  0
VERTEX
  5
4D3
100
AcDbEntity
  8
0
370
     0
390
0
100
AcDbVertex
100
AcDb2dVertex
 10
-1.5182
 20
0.870385
 30
0.0
  0
VERTEX
  5
4D4
100
AcDbEntity
  8
0
370
     0
390
0
100
AcDbVertex
100
AcDb2dVertex
 10
-1.294017
 20
0.686972
 30
0.0
  0
SEQEND
  5
4D5
100
AcDbEntity
  8
0
370
     0
390
0
  0
POLYLINE
  5
4D6
100
AcDbEntity
  8
0
370
    13
390
0
 62
     7
 48
0.03937
100
AcDb2dPolyline
 66
     1
 10
0.0
 20
0.0
 30
0.0
 70
     1
 71
     3
  0
VERTEX
  5
4D7
100
AcDbEntity
  8
0
370
     0
390
0
100
AcDbVertex
100
AcDb2dVertex
 10
1.24665
 20
-0.769594
 30
0.0
  0
VERTEX
  5
4D8
100
AcDbEntity
  8
0
370
     0
390
0
100
AcDbVertex
100
AcDb2dVertex
 10
1.5182
 20
-0.870385
 30
0.0
  0
VERTEX
  5
4D9
100
AcDbEntity
  8
0
370
     0
390
0
100
AcDbVertex
100
AcDb2dVertex
 10
1.294017
 20
-0.686972
 30
0.0
  0
SEQEND
  5
4DA
100
AcDbEntity
  8
0
370
     0
390
0
  0
ENDBLK
  5
4DB
100
AcDbEntity
  8
0
390
0
100
AcDbBlockEnd
  0
BLOCK
  5
4DC
100
AcDbEntity
  8
0
370
     0
390
0
100
AcDbBlockBegin
  2
BLOCK11
 70
     0
 10
0.0
 20
0.0
 30
0.0
  3
BLOCK11
  1

  0
LINE
  5
4DD
100
AcDbEntity
  8
0
370
    13
390
0
  6
DASHDOT
 62
     7
 48
0.03937
100
AcDbLine
 10
-3.114514
 20
0.0
 30
0.0
 11
-0.385486
 21
0.0
 31
0.0
210
0.0
220
0.0
230
1.0
  0
ARC
  5
4DE
100
AcDbEntity
  8
0
370
    13
390
0
  6
DASHDOT
 62
     7
 48
0.03937
100
AcDbCircle
 10
0.0
 20
0.0
 30
0.0
 40
1.75
210
0.0
220
0.0
230
1.0
100
AcDbArc
 50
135.325199
 51
224.674801
  0
ENDBLK
  5
4DF
100
AcDbEntity
  8
0
390
0
100
AcDbBlockEnd
  0
BLOCK
  5
4E0
100
AcDbEntity
  8
0
370
     0
390
0
100
AcDbBlockBegin
  2
BLOCK12
 70
     0
 10
0.0
 20
0.0
 30
0.0
  3
BLOCK12
  1

  0
LINE
  5
4E1
100
AcDbEntity
  8
0
370
    13
390
0
  6
DASHDOT
 62
     7
 48
0.03937
100
AcDbLine
 10
0.0
 20
2.919299
 30
0.0
 11
0.0
 21
0.580701
 31
0.0
210
0.0
220
0.0
230
1.0
  0
ARC
  5
4E2
100
AcDbEntity
  8
0
370
    13
390
0
  6
DASHDOT
 62
     7
 48
0.03937
100
AcDbCircle
 10
0.0
 20
0.0
 30
0.0
 40
1.75
210
0.0
220
0.0
230
1.0
100
AcDbArc
 50
51.716628
 51
128.28337
  0
ENDBLK
  5
4E3
100
AcDbEntity
  8
0
390
0
100
AcDbBlockEnd
  0
BLOCK
  5
4E4
100
AcDbEntity
  8
0
370
     0
390
0
100
AcDbBlockBegin
  2
BLOCK13
 70
     0
 10
0.0
 20
0.0
 30
0.0
  3
BLOCK13
  1

  0
LINE
  5
4E5
100
AcDbEntity
  8
0
370
    13
390
0
  6
DASHDOT
 62
     7
 48
0.03937
100
AcDbLine
 10
3.163891
 20
0.0
 30
0.0
 11
0.336109
 21
0.0
 31
0.0
210
0.0
220
0.0
230
1.0
  0
ARC
  5
4E6
100
AcDbEntity
  8
0
370
    13
390
0
  6
DASHDOT
 62
     7
 48
0.03937
100
AcDbCircle
 10
0.0
 20
0.0
 30
0.0
 40
1.75
210
0.0
220
0.0
230
1.0
100
AcDbArc
 50
313.708567
 51
46.29143
  0
ENDBLK
  5
4E7
100
AcDbEntity
  8
0
390
0
100
AcDbBlockEnd
  0
BLOCK
  5
4E8
100
AcDbEntity
  8
0
370
     0
390
0
100
AcDbBlockBegin
  2
BLOCK14
 70
     0
 10
0.0
 20
0.0
 30
0.0
  3
BLOCK14
  1

  0
LINE
  5
4E9
100
AcDbEntity
  8
0
370
    13
390
0
  6
DASHDOT
 62
     7
 48
0.03937
100
AcDbLine
 10
0.0
 20
-3.208847
 30
0.0
 11
0.0
 21
-0.291153
 31
0.0
210
0.0
220
0.0
230
1.0
  0
ARC
  5
4EA
100
AcDbEntity
  8
0
370
    13
390
0
  6
DASHDOT
 62
     7
 48
0.03937
100
AcDbCircle
 10
0.0
 20
0.0
 30
0.0
 40
1.75
210
0.0
220
0.0
230
1.0
100
AcDbArc
 50
222.236696
 51
317.763295
  0
ENDBLK
  5
4EB
100
AcDbEntity
  8
0
390
0
100
AcDbBlockEnd
  0
BLOCK
  5
4EC
100
AcDbEntity
  8
0
370
     0
390
0
100
AcDbBlockBegin
  2
BLOCK15
 70
     0
 10
0.0
 20
0.0
 30
0.0
  3
BLOCK15
  1

  0
TEXT
  5
4ED
100
AcDbEntity
  8
0
370
    13
390
0
 62
     7
 48
0.03937
100
AcDbText
 10
-3.469366
 20
1.326549
 30
0.0
 40
0.140607
  1
GROOVE # 
 72
     5
 11
-2.264247
 21
1.326549
 31
0.0
100
AcDbText
  0
TEXT
  5
4EE
100
AcDbEntity
  8
0
370
    13
390
0
 62
     7
 48
0.03937
100
AcDbText
 10
-2.264247
 20
1.326549
 30
0.0
 40
0.140607
  1
 R16
 72
     5
 11
-1.854007
 21
1.326549
 31
0.0
100
AcDbText
  0
POLYLINE
  5
4EF
100
AcDbEntity
  8
0
370
    13
390
0
 62
     7
 48
0.03937
100
AcDb2dPolyline
 66
     1
 10
0.0
 20
0.0
 30
0.0
 71
     3
  0
VERTEX
  5
4F0
100
AcDbEntity
  8
0
370
     0
390
0
100
AcDbVertex
100
AcDb2dVertex
 10
-1.0
 20
0.002379
 30
0.0
  0
VERTEX
  5
4F1
100
AcDbEntity
  8
0
370
     0
390
0
100
AcDbVertex
100
AcDb2dVertex
 10
-1.54467
 20
1.398377
 30
0.0
  0
VERTEX
  5
4F2
100
AcDbEntity
  8
0
370
     0
390
0
100
AcDbVertex
100
AcDb2dVertex
 10
-1.741521
 20
1.398377
 30
0.0
  0
SEQEND
  5
4F3
100
AcDbEntity
  8
0
370
     0
390
0
  0
SOLID
  5
4F4
100
AcDbEntity
  8
0
370
    13
390
0
 62
     7
 48
0.03937
100
AcDbTrace
 10
-1.148211
 20
0.251239
 30
0.0
 11
-1.0
 21
0.002379
 31
0.0
 12
-1.059488
 22
0.285856
 32
0.0
 13
-1.059488
 23
0.285856
 33
0.0
  0
ENDBLK
  5
4F5
100
AcDbEntity
  8
0
390
0
100
AcDbBlockEnd
  0
BLOCK
  5
4F6
100
AcDbEntity
  8
0
370
     0
390
0
100
AcDbBlockBegin
  2
BLOCK16
 70
     0
 10
0.0
 20
0.0
 30
0.0
  3
BLOCK16
  1

  0
SOLID
  5
4F7
100
AcDbEntity
  8
0
370
    13
390
0
 62
     7
 48
0.03937
100
AcDbTrace
 10
0.54239
 20
-0.861335
 30
0.0
 11
0.8281
 21
-0.813717
 31
0.0
 12
0.54239
 22
-0.861335
 32
0.0
 13
0.54239
 23
-0.766099
 33
0.0
  0
SOLID
  5
4F8
100
AcDbEntity
  8
0
370
    13
390
0
 62
     7
 48
0.03937
100
AcDbTrace
 10
1.45761
 20
-0.766099
 30
0.0
 11
1.1719
 21
-0.813717
 31
0.0
 12
1.45761
 22
-0.766099
 32
0.0
 13
1.45761
 23
-0.861335
 33
0.0
  0
TEXT
  5
4F9
100
AcDbEntity
  8
0
370
    13
390
0
 62
     7
 48
0.03937
100
AcDbText
 10
1.884357
 20
-0.884021
 30
0.0
 40
0.140607
  1
0.34
 72
     5
 11
2.23994
 21
-0.884021
 31
0.0
100
AcDbText
  0
TEXT
  5
4FA
100
AcDbEntity
  8
0
370
    13
390
0
 62
     7
 48
0.03937
100
AcDbText
 10
2.23994
 20
-0.884021
 30
0.0
 40
0.140607
  1
"
 72
     5
 11
2.343052
 21
-0.884021
 31
0.0
100
AcDbText
  0
TEXT
  5
4FB
100
AcDbEntity
  8
0
370
    13
390
0
 62
     7
 48
0.03937
100
AcDbText
 10
1.884357
 20
-1.108993
 30
0.0
 40
0.140607
  1
TYP.
 72
     5
 11
2.347224
 21
-1.108993
 31
0.0
100
AcDbText
  0
LINE
  5
4FC
100
AcDbEntity
  8
0
370
    13
390
0
 62
     7
 48
0.014093
100
AcDbLine
 10
0.8281
 20
-0.362486
 30
0.0
 11
0.8281
 21
-0.926203
 31
0.0
210
0.0
220
0.0
230
1.0
  0
LINE
  5
4FD
100
AcDbEntity
  8
0
370
    13
390
0
 62
     7
 48
0.014093
100
AcDbLine
 10
1.1719
 20
-0.362486
 30
0.0
 11
1.1719
 21
-0.926203
 31
0.0
210
0.0
220
0.0
230
1.0
  0
LINE
  5
4FE
100
AcDbEntity
  8
0
370
    13
390
0
 62
     7
 48
0.004106
100
AcDbLine
 10
0.378156
 20
-0.813717
 30
0.0
 11
0.54239
 21
-0.813717
 31
0.0
210
0.0
220
0.0
230
1.0
  0
LINE
  5
4FF
100
AcDbEntity
  8
0
370
    13
390
0
 62
     7
 48
0.007812
100
AcDbLine
 10
1.45761
 20
-0.813717
 30
0.0
 11
1.770071
 21
-0.813717
 31
0.0
210
0.0
220
0.0
230
1.0
  0
POLYLINE
  5
500
100
AcDbEntity
  8
0
370
    13
390
0
 62
     7
 48
0.03937
100
AcDb2dPolyline
 66
     1
 10
0.0
 20
0.0
 30
0.0
 70
     1
 71
     3
  0
VERTEX
  5
501
100
AcDbEntity
  8
0
370
     0
390
0
100
AcDbVertex
100
AcDb2dVertex
 10
0.54239
 20
-0.861335
 30
0.0
  0
VERTEX
  5
502
100
AcDbEntity
  8
0
370
     0
390
0
100
AcDbVertex
100
AcDb2dVertex
 10
0.8281
 20
-0.813717
 30
0.0
  0
VERTEX
  5
503
100
AcDbEntity
  8
0
370
     0
390
0
100
AcDbVertex
100
AcDb2dVertex
 10
0.54239
 20
-0.766099
 30
0.0
  0
SEQEND
  5
504
100
AcDbEntity
  8
0
370
     0
390
0
  0
POLYLINE
  5
505
100
AcDbEntity
  8
0
370
    13
390
0
 62
     7
 48
0.03937
100
AcDb2dPolyline
 66
     1
 10
0.0
 20
0.0
 30
0.0
 70
     1
 71
     3
  0
VERTEX
  5
506
100
AcDbEntity
  8
0
370
     0
390
0
100
AcDbVertex
100
AcDb2dVertex
 10
1.45761
 20
-0.766099
 30
0.0
  0
VERTEX
  5
507
100
AcDbEntity
  8
0
370
     0
390
0
100
AcDbVertex
100
AcDb2dVertex
 10
1.1719
 20
-0.813717
 30
0.0
  0
VERTEX
  5
508
100
AcDbEntity
  8
0
370
     0
390
0
100
AcDbVertex
100
AcDb2dVertex
 10
1.45761
 20
-0.861335
 30
0.0
  0
SEQEND
  5
509
100
AcDbEntity
  8
0
370
     0
390
0
  0
ENDBLK
  5
50A
100
AcDbEntity
  8
0
390
0
100
AcDbBlockEnd
  0
BLOCK
  5
50B
100
AcDbEntity
  8
0
370
     0
390
0
100
AcDbBlockBegin
  2
BLOCK17
 70
     0
 10
0.0
 20
0.0
 30
0.0
  3
BLOCK17
  1

  0
SOLID
  5
50C
100
AcDbEntity
  8
0
370
    13
390
0
 62
     7
 48
0.03937
100
AcDbTrace
 10
0.71429
 20
-1.344843
 30
0.0
 11
1.0
 21
-1.297225
 31
0.0
 12
0.71429
 22
-1.344843
 32
0.0
 13
0.71429
 23
-1.249606
 33
0.0
  0
SOLID
  5
50D
100
AcDbEntity
  8
0
370
    13
390
0
 62
     7
 48
0.03937
100
AcDbTrace
 10
-0.71429
 20
-1.249606
 30
0.0
 11
-1.0
 21
-1.297225
 31
0.0
 12
-0.71429
 22
-1.249606
 32
0.0
 13
-0.71429
 23
-1.344843
 33
0.0
  0
TEXT
  5
50E
100
AcDbEntity
  8
0
370
    13
390
0
 62
     7
 48
0.03937
100
AcDbText
 10
0.039379
 20
-1.367528
 30
0.0
 40
0.140607
  1
2
 72
     5
 11
0.140974
 21
-1.367528
 31
0.0
100
AcDbText
  0
TEXT
  5
50F
100
AcDbEntity
  8
0
370
    13
390
0
 62
     7
 48
0.03937
100
AcDbText
 10
0.140974
 20
-1.367528
 30
0.0
 40
0.140607
  1
"
 72
     5
 11
0.244086
 21
-1.367528
 31
0.0
100
AcDbText
  0
TEXT
  5
510
100
AcDbEntity
  8
0
370
    13
390
0
 62
     7
 48
0.03937
100
AcDbText
 10
-0.244086
 20
-1.367528
 30
0.0
 40
0.140607
  1
%%c
 72
     5
 11
-0.103478
 21
-1.367528
 31
0.0
100
AcDbText
  0
LINE
  5
511
100
AcDbEntity
  8
0
370
    13
390
0
 62
     7
 48
0.03937
100
AcDbLine
 10
-1.0
 20
-0.525282
 30
0.0
 11
-1.0
 21
-1.409711
 31
0.0
210
0.0
220
0.0
230
1.0
  0
LINE
  5
512
100
AcDbEntity
  8
0
370
    13
390
0
 62
     7
 48
0.03937
100
AcDbLine
 10
1.0
 20
-0.525282
 30
0.0
 11
1.0
 21
-1.409711
 31
0.0
210
0.0
220
0.0
230
1.0
  0
LINE
  5
513
100
AcDbEntity
  8
0
370
    13
390
0
 62
     7
 48
0.008898
100
AcDbLine
 10
-0.71429
 20
-1.297225
 30
0.0
 11
-0.358372
 21
-1.297225
 31
0.0
210
0.0
220
0.0
230
1.0
  0
LINE
  5
514
100
AcDbEntity
  8
0
370
    13
390
0
 62
     7
 48
0.008898
100
AcDbLine
 10
0.358372
 20
-1.297225
 30
0.0
 11
0.71429
 21
-1.297225
 31
0.0
210
0.0
220
0.0
230
1.0
  0
POLYLINE
  5
515
100
AcDbEntity
  8
0
370
    13
390
0
 62
     7
 48
0.03937
100
AcDb2dPolyline
 66
     1
 10
0.0
 20
0.0
 30
0.0
 70
     1
 71
     3
  0
VERTEX
  5
516
100
AcDbEntity
  8
0
370
     0
390
0
100
AcDbVertex
100
AcDb2dVertex
 10
0.71429
 20
-1.344843
 30
0.0
  0
VERTEX
  5
517
100
AcDbEntity
  8
0
370
     0
390
0
100
AcDbVertex
100
AcDb2dVertex
 10
1.0
 20
-1.297225
 30
0.0
  0
VERTEX
  5
518
100
AcDbEntity
  8
0
370
     0
390
0
100
AcDbVertex
100
AcDb2dVertex
 10
0.71429
 20
-1.249606
 30
0.0
  0
SEQEND
  5
519
100
AcDbEntity
  8
0
370
     0
390
0
  0
POLYLINE
  5
51A
100
AcDbEntity
  8
0
370
    13
390
0
 62
     7
 48
0.03937
100
AcDb2dPolyline
 66
     1
 10
0.0
 20
0.0
 30
0.0
 70
     1
 71
     3
  0
VERTEX
  5
51B
100
AcDbEntity
  8
0
370
     0
390
0
100
AcDbVertex
100
AcDb2dVertex
 10
-0.71429
 20
-1.249606
 30
0.0
  0
VERTEX
  5
51C
100
AcDbEntity
  8
0
370
     0
390
0
100
AcDbVertex
100
AcDb2dVertex
 10
-1.0
 20
-1.297225
 30
0.0
  0
VERTEX
  5
51D
100
AcDbEntity
  8
0
370
     0
390
0
100
AcDbVertex
100
AcDb2dVertex
 10
-0.71429
 20
-1.344843
 30
0.0
  0
SEQEND
  5
51E
100
AcDbEntity
  8
0
370
     0
390
0
  0
ENDBLK
  5
51F
100
AcDbEntity
  8
0
390
0
100
AcDbBlockEnd
  0
BLOCK
  5
520
100
AcDbEntity
  8
0
370
     0
390
0
100
AcDbBlockBegin
  2
BLOCK18
 70
     0
 10
0.0
 20
0.0
 30
0.0
  3
BLOCK18
  1

  0
SOLID
  5
521
100
AcDbEntity
  8
0
370
    13
390
0
 62
     7
 48
0.03937
100
AcDbTrace
 10
-1.848999
 20
-1.113925
 30
0.0
 11
-1.567395
 21
-1.181728
 31
0.0
 12
-1.848999
 22
-1.113925
 32
0.0
 13
-1.811787
 23
-1.026259
 33
0.0
  0
SOLID
  5
522
100
AcDbEntity
  8
0
370
    13
390
0
 62
     7
 48
0.03937
100
AcDbTrace
 10
-0.71429
 20
-1.249548
 30
0.0
 11
-1.0
 21
-1.297166
 31
0.0
 12
-0.71429
 22
-1.249548
 32
0.0
 13
-0.71429
 23
-1.344784
 33
0.0
  0
TEXT
  5
523
100
AcDbEntity
  8
0
370
    13
390
0
 62
     7
 48
0.03937
100
AcDbText
 10
-2.708815
 20
-1.066229
 30
0.0
 40
0.140607
  1
23
 72
     5
 11
-2.505625
 21
-1.066229
 31
0.0
100
AcDbText
  0
TEXT
  5
524
100
AcDbEntity
  8
0
370
    13
390
0
 62
     7
 48
0.03937
100
AcDbText
 10
-2.505625
 20
-1.066229
 30
0.0
 40
0.140607
  1
%%d
 72
     5
 11
-2.402513
 21
-1.066229
 31
0.0
100
AcDbText
  0
TEXT
  5
525
100
AcDbEntity
  8
0
370
    13
390
0
 62
     7
 48
0.03937
100
AcDbText
 10
-2.708815
 20
-1.291201
 30
0.0
 40
0.140607
  1
TYP.
 72
     5
 11
-2.245948
 21
-1.291201
 31
0.0
100
AcDbText
  0
LINE
  5
526
100
AcDbEntity
  8
0
370
    13
390
0
 62
     7
 48
0.006154
100
AcDbLine
 10
-1.885516
 20
-0.995925
 30
0.0
 11
-2.131663
 21
-0.995925
 31
0.0
210
0.0
220
0.0
230
1.0
  0
LINE
  5
527
100
AcDbEntity
  8
0
370
    13
390
0
 62
     7
 48
0.03937
100
AcDbLine
 10
-1.215852
 20
-0.353544
 30
0.0
 11
-1.611347
 21
-1.285272
 31
0.0
210
0.0
220
0.0
230
1.0
  0
LINE
  5
528
100
AcDbEntity
  8
0
370
    13
390
0
 62
     7
 48
0.03937
100
AcDbLine
 10
-1.0
 20
-0.525282
 30
0.0
 11
-1.0
 21
-1.409652
 31
0.0
210
0.0
220
0.0
230
1.0
  0
ARC
  5
529
100
AcDbEntity
  8
0
370
    13
390
0
 62
     7
 48
0.03937
100
AcDbCircle
 10
-1.0
 20
0.154971
 30
0.0
 40
1.452137
210
0.0
220
0.0
230
1.0
100
AcDbArc
 50
232.424811
 51
235.65295
  0
ARC
  5
52A
100
AcDbEntity
  8
0
370
    13
390
0
 62
     7
 48
0.03937
100
AcDbCircle
 10
-1.0
 20
0.154971
 30
0.0
 40
1.452137
210
0.0
220
0.0
230
1.0
100
AcDbArc
 50
281.347073
 51
287.753059
  0
POLYLINE
  5
52B
100
AcDbEntity
  8
0
370
    13
390
0
 62
     7
 48
0.03937
100
AcDb2dPolyline
 66
     1
 10
0.0
 20
0.0
 30
0.0
 70
     1
 71
     3
  0
VERTEX
  5
52C
100
AcDbEntity
  8
0
370
     0
390
0
100
AcDbVertex
100
AcDb2dVertex
 10
-1.848999
 20
-1.113925
 30
0.0
  0
VERTEX
  5
52D
100
AcDbEntity
  8
0
370
     0
390
0
100
AcDbVertex
100
AcDb2dVertex
 10
-1.567395
 20
-1.181728
 30
0.0
  0
VERTEX
  5
52E
100
AcDbEntity
  8
0
370
     0
390
0
100
AcDbVertex
100
AcDb2dVertex
 10
-1.811787
 20
-1.026259
 30
0.0
  0
SEQEND
  5
52F
100
AcDbEntity
  8
0
370
     0
390
0
  0
POLYLINE
  5
530
100
AcDbEntity
  8
0
370
    13
390
0
 62
     7
 48
0.03937
100
AcDb2dPolyline
 66
     1
 10
0.0
 20
0.0
 30
0.0
 70
     1
 71
     3
  0
VERTEX
  5
531
100
AcDbEntity
  8
0
370
     0
390
0
100
AcDbVertex
100
AcDb2dVertex
 10
-0.71429
 20
-1.249548
 30
0.0
  0
VERTEX
  5
532
100
AcDbEntity
  8
0
370
     0
390
0
100
AcDbVertex
100
AcDb2dVertex
 10
-1.0
 20
-1.297166
 30
0.0
  0
VERTEX
  5
533
100
AcDbEntity
  8
0
370
     0
390
0
100
AcDbVertex
100
AcDb2dVertex
 10
-0.71429
 20
-1.344784
 30
0.0
  0
SEQEND
  5
534
100
AcDbEntity
  8
0
370
     0
390
0
  0
ENDBLK
  5
535
100
AcDbEntity
  8
0
390
0
100
AcDbBlockEnd
  0
BLOCK
  5
536
100
AcDbEntity
  8
0
370
     0
390
0
100
AcDbBlockBegin
  2
BLOCK19
 70
     0
 10
0.0
 20
0.0
 30
0.0
  3
BLOCK19
  1

  0
SOLID
  5
537
100
AcDbEntity
  8
0
370
    13
390
0
 62
     7
 48
0.03937
100
AcDbTrace
 10
-1.08929
 20
-1.807576
 30
0.0
 11
-1.375
 21
-1.855194
 31
0.0
 12
-1.08929
 22
-1.807576
 32
0.0
 13
-1.08929
 23
-1.902812
 33
0.0
  0
SOLID
  5
538
100
AcDbEntity
  8
0
370
    13
390
0
 62
     7
 48
0.03937
100
AcDbTrace
 10
1.08929
 20
-1.902812
 30
0.0
 11
1.375
 21
-1.855194
 31
0.0
 12
1.08929
 22
-1.902812
 32
0.0
 13
1.08929
 23
-1.807576
 33
0.0
  0
TEXT
  5
539
100
AcDbEntity
  8
0
370
    13
390
0
 62
     7
 48
0.03937
100
AcDbText
 10
-0.087615
 20
-1.925498
 30
0.0
 40
0.140607
  1
2.75
 72
     5
 11
0.267967
 21
-1.925498
 31
0.0
100
AcDbText
  0
TEXT
  5
53A
100
AcDbEntity
  8
0
370
    13
390
0
 62
     7
 48
0.03937
100
AcDbText
 10
0.267967
 20
-1.925498
 30
0.0
 40
0.140607
  1
"
 72
     5
 11
0.37108
 21
-1.925498
 31
0.0
100
AcDbText
  0
TEXT
  5
53B
100
AcDbEntity
  8
0
370
    13
390
0
 62
     7
 48
0.03937
100
AcDbText
 10
-0.37108
 20
-1.925498
 30
0.0
 40
0.140607
  1
%%c
 72
     5
 11
-0.230472
 21
-1.925498
 31
0.0
100
AcDbText
  0
LINE
  5
53C
100
AcDbEntity
  8
0
370
    13
390
0
 62
     7
 48
0.03937
100
AcDbLine
 10
-1.375
 20
-0.34384
 30
0.0
 11
-1.375
 21
-1.96768
 31
0.0
210
0.0
220
0.0
230
1.0
  0
LINE
  5
53D
100
AcDbEntity
  8
0
370
    13
390
0
 62
     7
 48
0.007423
100
AcDbLine
 10
1.375
 20
-0.343841
 30
0.0
 11
1.375
 21
-0.640762
 31
0.0
210
0.0
220
0.0
230
1.0
  0
LINE
  5
53E
100
AcDbEntity
  8
0
370
    13
390
0
 62
     7
 48
0.03937
100
AcDbLine
 10
1.375
 20
-1.141715
 30
0.0
 11
1.375
 21
-1.96768
 31
0.0
210
0.0
220
0.0
230
1.0
  0
LINE
  5
53F
100
AcDbEntity
  8
0
370
    13
390
0
 62
     7
 48
0.015098
100
AcDbLine
 10
-1.08929
 20
-1.855194
 30
0.0
 11
-0.485365
 21
-1.855194
 31
0.0
210
0.0
220
0.0
230
1.0
  0
LINE
  5
540
100
AcDbEntity
  8
0
370
    13
390
0
 62
     7
 48
0.015098
100
AcDbLine
 10
0.485365
 20
-1.855194
 30
0.0
 11
1.08929
 21
-1.855194
 31
0.0
210
0.0
220
0.0
230
1.0
  0
POLYLINE
  5
541
100
AcDbEntity
  8
0
370
    13
390
0
 62
     7
 48
0.03937
100
AcDb2dPolyline
 66
     1
 10
0.0
 20
0.0
 30
0.0
 70
     1
 71
     3
  0
VERTEX
  5
542
100
AcDbEntity
  8
0
370
     0
390
0
100
AcDbVertex
100
AcDb2dVertex
 10
-1.08929
 20
-1.807576
 30
0.0
  0
VERTEX
  5
543
100
AcDbEntity
  8
0
370
     0
390
0
100
AcDbVertex
100
AcDb2dVertex
 10
-1.375
 20
-1.855194
 30
0.0
  0
VERTEX
  5
544
100
AcDbEntity
  8
0
370
     0
390
0
100
AcDbVertex
100
AcDb2dVertex
 10
-1.08929
 20
-1.902812
 30
0.0
  0
SEQEND
  5
545
100
AcDbEntity
  8
0
370
     0
390
0
  0
POLYLINE
  5
546
100
AcDbEntity
  8
0
370
    13
390
0
 62
     7
 48
0.03937
100
AcDb2dPolyline
 66
     1
 10
0.0
 20
0.0
 30
0.0
 70
     1
 71
     3
  0
VERTEX
  5
547
100
AcDbEntity
  8
0
370
     0
390
0
100
AcDbVertex
100
AcDb2dVertex
 10
1.08929
 20
-1.902812
 30
0.0
  0
VERTEX
  5
548
100
AcDbEntity
  8
0
370
     0
390
0
100
AcDbVertex
100
AcDb2dVertex
 10
1.375
 20
-1.855194
 30
0.0
  0
VERTEX
  5
549
100
AcDbEntity
  8
0
370
     0
390
0
100
AcDbVertex
100
AcDb2dVertex
 10
1.08929
 20
-1.807576
 30
0.0
  0
SEQEND
  5
54A
100
AcDbEntity
  8
0
370
     0
390
0
  0
ENDBLK
  5
54B
100
AcDbEntity
  8
0
390
0
100
AcDbBlockEnd
  0
BLOCK
  5
54C
100
AcDbEntity
  8
0
370
     0
390
0
100
AcDbBlockBegin
  2
BLOCK20
 70
     0
 10
0.0
 20
0.0
 30
0.0
  3
BLOCK20
  1

  0
SOLID
  5
54D
100
AcDbEntity
  8
0
370
    13
390
0
 62
     7
 48
0.03937
100
AcDbTrace
 10
4.198786
 20
0.28571
 30
0.0
 11
4.246404
 21
0.0
 31
0.0
 12
4.198786
 22
0.28571
 32
0.0
 13
4.294022
 23
0.28571
 33
0.0
  0
SOLID
  5
54E
100
AcDbEntity
  8
0
370
    13
390
0
 62
     7
 48
0.03937
100
AcDbTrace
 10
4.294022
 20
-0.53571
 30
0.0
 11
4.246404
 21
-0.25
 31
0.0
 12
4.294022
 22
-0.53571
 32
0.0
 13
4.198786
 23
-0.53571
 33
0.0
  0
TEXT
  5
54F
100
AcDbEntity
  8
0
370
    13
390
0
 62
     7
 48
0.03937
100
AcDbText
 10
4.017057
 20
-0.922317
 30
0.0
 40
0.140607
  1
0.25
 72
     5
 11
4.372639
 21
-0.922317
 31
0.0
100
AcDbText
  0
TEXT
  5
550
100
AcDbEntity
  8
0
370
    13
390
0
 62
     7
 48
0.03937
100
AcDbText
 10
4.372639
 20
-0.922317
 30
0.0
 40
0.140607
  1
"
 72
     5
 11
4.475752
 21
-0.922317
 31
0.0
100
AcDbText
  0
LINE
  5
551
100
AcDbEntity
  8
0
370
    13
390
0
 62
     7
 48
0.03937
100
AcDbLine
 10
1.487486
 20
-0.25
 30
0.0
 11
4.35889
 21
-0.25
 31
0.0
210
0.0
220
0.0
230
1.0
  0
LINE
  5
552
100
AcDbEntity
  8
0
370
    13
390
0
 62
     7
 48
0.03937
100
AcDbLine
 10
2.552486
 20
0.0
 30
0.0
 11
4.35889
 21
0.0
 31
0.0
210
0.0
220
0.0
230
1.0
  0
LINE
  5
553
100
AcDbEntity
  8
0
370
    13
390
0
 62
     7
 48
0.003293
100
AcDbLine
 10
4.246404
 20
-0.667424
 30
0.0
 11
4.246404
 21
-0.53571
 31
0.0
210
0.0
220
0.0
230
1.0
  0
LINE
  5
554
100
AcDbEntity
  8
0
370
    13
390
0
 62
     7
 48
0.004106
100
AcDbLine
 10
4.246404
 20
0.28571
 30
0.0
 11
4.246404
 21
0.449944
 31
0.0
210
0.0
220
0.0
230
1.0
  0
POLYLINE
  5
555
100
AcDbEntity
  8
0
370
    13
390
0
 62
     7
 48
0.03937
100
AcDb2dPolyline
 66
     1
 10
0.0
 20
0.0
 30
0.0
 70
     1
 71
     3
  0
VERTEX
  5
556
100
AcDbEntity
  8
0
370
     0
390
0
100
AcDbVertex
100
AcDb2dVertex
 10
4.198786
 20
0.28571
 30
0.0
  0
VERTEX
  5
557
100
AcDbEntity
  8
0
370
     0
390
0
100
AcDbVertex
100
AcDb2dVertex
 10
4.246404
 20
0.0
 30
0.0
  0
VERTEX
  5
558
100
AcDbEntity
  8
0
370
     0
390
0
100
AcDbVertex
100
AcDb2dVertex
 10
4.294022
 20
0.28571
 30
0.0
  0
SEQEND
  5
559
100
AcDbEntity
  8
0
370
     0
390
0
  0
POLYLINE
  5
55A
100
AcDbEntity
  8
0
370
    13
390
0
 62
     7
 48
0.03937
100
AcDb2dPolyline
 66
     1
 10
0.0
 20
0.0
 30
0.0
 70
     1
 71
     3
  0
VERTEX
  5
55B
100
AcDbEntity
  8
0
370
     0
390
0
100
AcDbVertex
100
AcDb2dVertex
 10
4.294022
 20
-0.53571
 30
0.0
  0
VERTEX
  5
55C
100
AcDbEntity
  8
0
370
     0
390
0
100
AcDbVertex
100
AcDb2dVertex
 10
4.246404
 20
-0.25
 30
0.0
  0
VERTEX
  5
55D
100
AcDbEntity
  8
0
370
     0
390
0
100
AcDbVertex
100
AcDb2dVertex
 10
4.198786
 20
-0.53571
 30
0.0
  0
SEQEND
  5
55E
100
AcDbEntity
  8
0
370
     0
390
0
  0
ENDBLK
  5
55F
100
AcDbEntity
  8
0
390
0
100
AcDbBlockEnd
  0
BLOCK
  5
560
100
AcDbEntity
  8
0
370
     0
390
0
100
AcDbBlockBegin
  2
BLOCK21
 70
     0
 10
0.0
 20
0.0
 30
0.0
  3
BLOCK21
  1

  0
SOLID
  5
561
100
AcDbEntity
  8
0
370
    13
390
0
 62
     7
 48
0.03937
100
AcDbTrace
 10
4.198786
 20
0.28571
 30
0.0
 11
4.246404
 21
0.0
 31
0.0
 12
4.198786
 22
0.28571
 32
0.0
 13
4.294022
 23
0.28571
 33
0.0
  0
SOLID
  5
562
100
AcDbEntity
  8
0
370
    13
390
0
 62
     7
 48
0.03937
100
AcDbTrace
 10
4.294022
 20
0.33429
 30
0.0
 11
4.246404
 21
0.62
 31
0.0
 12
4.294022
 22
0.33429
 32
0.0
 13
4.198786
 23
0.33429
 33
0.0
  0
TEXT
  5
563
100
AcDbEntity
  8
0
370
    13
390
0
 62
     7
 48
0.03937
100
AcDbText
 10
4.017057
 20
0.996998
 30
0.0
 40
0.140607
  1
0.62
 72
     5
 11
4.372639
 21
0.996998
 31
0.0
100
AcDbText
  0
TEXT
  5
564
100
AcDbEntity
  8
0
370
    13
390
0
 62
     7
 48
0.03937
100
AcDbText
 10
4.372639
 20
0.996998
 30
0.0
 40
0.140607
  1
"
 72
     5
 11
4.475752
 21
0.996998
 31
0.0
100
AcDbText
  0
LINE
  5
565
100
AcDbEntity
  8
0
370
    13
390
0
 62
     7
 48
0.03937
100
AcDbLine
 10
2.552486
 20
0.0
 30
0.0
 11
4.35889
 21
0.0
 31
0.0
210
0.0
220
0.0
230
1.0
  0
LINE
  5
566
100
AcDbEntity
  8
0
370
    13
390
0
 62
     7
 48
0.03937
100
AcDbLine
 10
2.552486
 20
0.62
 30
0.0
 11
4.35889
 21
0.62
 31
0.0
210
0.0
220
0.0
230
1.0
  0
LINE
  5
567
100
AcDbEntity
  8
0
370
    13
390
0
 62
     7
 48
0.001214
100
AcDbLine
 10
4.246404
 20
0.28571
 30
0.0
 11
4.246404
 21
0.33429
 31
0.0
210
0.0
220
0.0
230
1.0
  0
LINE
  5
568
100
AcDbEntity
  8
0
370
    13
390
0
 62
     7
 48
0.006568
100
AcDbLine
 10
4.246404
 20
0.62
 30
0.0
 11
4.246404
 21
0.882712
 31
0.0
210
0.0
220
0.0
230
1.0
  0
POLYLINE
  5
569
100
AcDbEntity
  8
0
370
    13
390
0
 62
     7
 48
0.03937
100
AcDb2dPolyline
 66
     1
 10
0.0
 20
0.0
 30
0.0
 70
     1
 71
     3
  0
VERTEX
  5
56A
100
AcDbEntity
  8
0
370
     0
390
0
100
AcDbVertex
100
AcDb2dVertex
 10
4.198786
 20
0.28571
 30
0.0
  0
VERTEX
  5
56B
100
AcDbEntity
  8
0
370
     0
390
0
100
AcDbVertex
100
AcDb2dVertex
 10
4.246404
 20
0.0
 30
0.0
  0
VERTEX
  5
56C
100
AcDbEntity
  8
0
370
     0
390
0
100
AcDbVertex
100
AcDb2dVertex
 10
4.294022
 20
0.28571
 30
0.0
  0
SEQEND
  5
56D
100
AcDbEntity
  8
0
370
     0
390
0
  0
POLYLINE
  5
56E
100
AcDbEntity
  8
0
370
    13
390
0
 62
     7
 48
0.03937
100
AcDb2dPolyline
 66
     1
 10
0.0
 20
0.0
 30
0.0
 70
     1
 71
     3
  0
VERTEX
  5
56F
100
AcDbEntity
  8
0
370
     0
390
0
100
AcDbVertex
100
AcDb2dVertex
 10
4.294022
 20
0.33429
 30
0.0
  0
VERTEX
  5
570
100
AcDbEntity
  8
0
370
     0
390
0
100
AcDbVertex
100
AcDb2dVertex
 10
4.246404
 20
0.62
 30
0.0
  0
VERTEX
  5
571
100
AcDbEntity
  8
0
370
     0
390
0
100
AcDbVertex
100
AcDb2dVertex
 10
4.198786
 20
0.33429
 30
0.0
  0
SEQEND
  5
572
100
AcDbEntity
  8
0
370
     0
390
0
  0
ENDBLK
  5
573
100
AcDbEntity
  8
0
390
0
100
AcDbBlockEnd
  0
BLOCK
  5
574
100
AcDbEntity
  8
0
370
     0
390
0
100
AcDbBlockBegin
  2
BLOCK22
 70
     0
 10
0.0
 20
0.0
 30
0.0
  3
BLOCK22
  1

  0
LINE
  5
575
100
AcDbEntity
  8
0
370
     5
390
0
 62
     7
 48
0.007875
100
AcDbLine
 10
-2.44
 20
0.62
 30
0.0
 11
-2.125
 21
0.62
 31
0.0
210
0.0
220
0.0
230
1.0
  0
LINE
  5
576
100
AcDbEntity
  8
0
370
     5
390
0
 62
     7
 48
0.0155
100
AcDbLine
 10
-2.125
 20
0.62
 30
0.0
 11
-2.125
 21
0.0
 31
0.0
210
0.0
220
0.0
230
1.0
  0
LINE
  5
577
100
AcDbEntity
  8
0
370
     5
390
0
 62
     7
 48
0.007875
100
AcDbLine
 10
-2.125
 20
0.0
 30
0.0
 11
-2.44
 21
0.0
 31
0.0
210
0.0
220
0.0
230
1.0
  0
LINE
  5
578
100
AcDbEntity
  8
0
370
     5
390
0
 62
     7
 48
0.0155
100
AcDbLine
 10
-2.44
 20
0.0
 30
0.0
 11
-2.44
 21
0.62
 31
0.0
210
0.0
220
0.0
230
1.0
  0
ENDBLK
  5
579
100
AcDbEntity
  8
0
390
0
100
AcDbBlockEnd
  0
BLOCK
  5
57A
100
AcDbEntity
  8
0
370
     0
390
0
100
AcDbBlockBegin
  2
BLOCK23
 70
     0
 10
0.0
 20
0.0
 30
0.0
  3
BLOCK23
  1

  0
LINE
  5
57B
100
AcDbEntity
  8
0
370
     5
390
0
 62
     7
 48
0.006272
100
AcDbLine
 10
0.926124
 20
-0.01907
 30
0.0
 11
0.8281
 21
-0.25
 31
0.0
210
0.0
220
0.0
230
1.0
  0
LINE
  5
57C
100
AcDbEntity
  8
0
370
     5
390
0
 62
     7
 48
0.03937
100
AcDbLine
 10
0.8281
 20
-0.25
 30
0.0
 11
-0.8281
 21
-0.25
 31
0.0
210
0.0
220
0.0
230
1.0
  0
LINE
  5
57D
100
AcDbEntity
  8
0
370
     5
390
0
 62
     7
 48
0.006272
100
AcDbLine
 10
-0.8281
 20
-0.25
 30
0.0
 11
-0.926124
 21
-0.01907
 31
0.0
210
0.0
220
0.0
230
1.0
  0
LINE
  5
57E
100
AcDbEntity
  8
0
370
     5
390
0
 62
     7
 48
0.000048
100
AcDbLine
 10
-0.926124
 20
-0.01907
 30
0.0
 11
-0.926931
 21
-0.017321
 31
0.0
210
0.0
220
0.0
230
1.0
  0
LINE
  5
57F
100
AcDbEntity
  8
0
370
     5
390
0
 62
     7
 48
0.000048
100
AcDbLine
 10
-0.926931
 20
-0.017321
 30
0.0
 11
-0.927843
 21
-0.015625
 31
0.0
210
0.0
220
0.0
230
1.0
  0
LINE
  5
580
100
AcDbEntity
  8
0
370
     5
390
0
 62
     7
 48
0.000048
100
AcDbLine
 10
-0.927843
 20
-0.015625
 30
0.0
 11
-0.928859
 21
-0.013988
 31
0.0
210
0.0
220
0.0
230
1.0
  0
LINE
  5
581
100
AcDbEntity
  8
0
370
     5
390
0
 62
     7
 48
0.000048
100
AcDbLine
 10
-0.928859
 20
-0.013988
 30
0.0
 11
-0.929973
 21
-0.012417
 31
0.0
210
0.0
220
0.0
230
1.0
  0
LINE
  5
582
100
AcDbEntity
  8
0
370
     5
390
0
 62
     7
 48
0.000048
100
AcDbLine
 10
-0.929973
 20
-0.012417
 30
0.0
 11
-0.931182
 21
-0.010918
 31
0.0
210
0.0
220
0.0
230
1.0
  0
LINE
  5
583
100
AcDbEntity
  8
0
370
     5
390
0
 62
     7
 48
0.000048
100
AcDbLine
 10
-0.931182
 20
-0.010918
 30
0.0
 11
-0.93248
 21
-0.009495
 31
0.0
210
0.0
220
0.0
230
1.0
  0
LINE
  5
584
100
AcDbEntity
  8
0
370
     5
390
0
 62
     7
 48
0.000048
100
AcDbLine
 10
-0.93248
 20
-0.009495
 30
0.0
 11
-0.933864
 21
-0.008155
 31
0.0
210
0.0
220
0.0
230
1.0
  0
LINE
  5
585
100
AcDbEntity
  8
0
370
     5
390
0
 62
     7
 48
0.000048
100
AcDbLine
 10
-0.933864
 20
-0.008155
 30
0.0
 11
-0.935327
 21
-0.006903
 31
0.0
210
0.0
220
0.0
230
1.0
  0
LINE
  5
586
100
AcDbEntity
  8
0
370
     5
390
0
 62
     7
 48
0.000048
100
AcDbLine
 10
-0.935327
 20
-0.006903
 30
0.0
 11
-0.936865
 21
-0.005743
 31
0.0
210
0.0
220
0.0
230
1.0
  0
LINE
  5
587
100
AcDbEntity
  8
0
370
     5
390
0
 62
     7
 48
0.000048
100
AcDbLine
 10
-0.936865
 20
-0.005743
 30
0.0
 11
-0.938471
 21
-0.00468
 31
0.0
210
0.0
220
0.0
230
1.0
  0
LINE
  5
588
100
AcDbEntity
  8
0
370
     5
390
0
 62
     7
 48
0.000048
100
AcDbLine
 10
-0.938471
 20
-0.00468
 30
0.0
 11
-0.94014
 21
-0.003718
 31
0.0
210
0.0
220
0.0
230
1.0
  0
LINE
  5
589
100
AcDbEntity
  8
0
370
     5
390
0
 62
     7
 48
0.000048
100
AcDbLine
 10
-0.94014
 20
-0.003718
 30
0.0
 11
-0.941864
 21
-0.00286
 31
0.0
210
0.0
220
0.0
230
1.0
  0
LINE
  5
58A
100
AcDbEntity
  8
0
370
     5
390
0
 62
     7
 48
0.000048
100
AcDbLine
 10
-0.941864
 20
-0.00286
 30
0.0
 11
-0.943638
 21
-0.00211
 31
0.0
210
0.0
220
0.0
230
1.0
  0
LINE
  5
58B
100
AcDbEntity
  8
0
370
     5
390
0
 62
     7
 48
0.000048
100
AcDbLine
 10
-0.943638
 20
-0.00211
 30
0.0
 11
-0.945455
 21
-0.00147
 31
0.0
210
0.0
220
0.0
230
1.0
  0
LINE
  5
58C
100
AcDbEntity
  8
0
370
     5
390
0
 62
     7
 48
0.000048
100
AcDbLine
 10
-0.945455
 20
-0.00147
 30
0.0
 11
-0.947308
 21
-0.000944
 31
0.0
210
0.0
220
0.0
230
1.0
  0
LINE
  5
58D
100
AcDbEntity
  8
0
370
     5
390
0
 62
     7
 48
0.000048
100
AcDbLine
 10
-0.947308
 20
-0.000944
 30
0.0
 11
-0.949189
 21
-0.000532
 31
0.0
210
0.0
220
0.0
230
1.0
  0
LINE
  5
58E
100
AcDbEntity
  8
0
370
     5
390
0
 62
     7
 48
0.000048
100
AcDbLine
 10
-0.949189
 20
-0.000532
 30
0.0
 11
-0.951093
 21
-0.000237
 31
0.0
210
0.0
220
0.0
230
1.0
  0
LINE
  5
58F
100
AcDbEntity
  8
0
370
     5
390
0
 62
     7
 48
0.000048
100
AcDbLine
 10
-0.951093
 20
-0.000237
 30
0.0
 11
-0.953011
 21
-0.000059
 31
0.0
210
0.0
220
0.0
230
1.0
  0
LINE
  5
590
100
AcDbEntity
  8
0
370
     5
390
0
 62
     7
 48
0.000048
100
AcDbLine
 10
-0.953011
 20
-0.000059
 30
0.0
 11
-0.954936
 21
0.0
 31
0.0
210
0.0
220
0.0
230
1.0
  0
LINE
  5
591
100
AcDbEntity
  8
0
370
     5
390
0
 62
     7
 48
0.002253
100
AcDbLine
 10
-0.954936
 20
0.0
 30
0.0
 11
-1.045064
 21
0.0
 31
0.0
210
0.0
220
0.0
230
1.0
  0
LINE
  5
592
100
AcDbEntity
  8
0
370
     5
390
0
 62
     7
 48
0.000048
100
AcDbLine
 10
-1.045064
 20
0.0
 30
0.0
 11
-1.046989
 21
-0.000059
 31
0.0
210
0.0
220
0.0
230
1.0
  0
LINE
  5
593
100
AcDbEntity
  8
0
370
     5
390
0
 62
     7
 48
0.000048
100
AcDbLine
 10
-1.046989
 20
-0.000059
 30
0.0
 11
-1.048907
 21
-0.000237
 31
0.0
210
0.0
220
0.0
230
1.0
  0
LINE
  5
594
100
AcDbEntity
  8
0
370
     5
390
0
 62
     7
 48
0.000048
100
AcDbLine
 10
-1.048907
 20
-0.000237
 30
0.0
 11
-1.050811
 21
-0.000532
 31
0.0
210
0.0
220
0.0
230
1.0
  0
LINE
  5
595
100
AcDbEntity
  8
0
370
     5
390
0
 62
     7
 48
0.000048
100
AcDbLine
 10
-1.050811
 20
-0.000532
 30
0.0
 11
-1.052692
 21
-0.000944
 31
0.0
210
0.0
220
0.0
230
1.0
  0
LINE
  5
596
100
AcDbEntity
  8
0
370
     5
390
0
 62
     7
 48
0.000048
100
AcDbLine
 10
-1.052692
 20
-0.000944
 30
0.0
 11
-1.054545
 21
-0.00147
 31
0.0
210
0.0
220
0.0
230
1.0
  0
LINE
  5
597
100
AcDbEntity
  8
0
370
     5
390
0
 62
     7
 48
0.000048
100
AcDbLine
 10
-1.054545
 20
-0.00147
 30
0.0
 11
-1.056362
 21
-0.00211
 31
0.0
210
0.0
220
0.0
230
1.0
  0
LINE
  5
598
100
AcDbEntity
  8
0
370
     5
390
0
 62
     7
 48
0.000048
100
AcDbLine
 10
-1.056362
 20
-0.00211
 30
0.0
 11
-1.058136
 21
-0.00286
 31
0.0
210
0.0
220
0.0
230
1.0
  0
LINE
  5
599
100
AcDbEntity
  8
0
370
     5
390
0
 62
     7
 48
0.000048
100
AcDbLine
 10
-1.058136
 20
-0.00286
 30
0.0
 11
-1.05986
 21
-0.003718
 31
0.0
210
0.0
220
0.0
230
1.0
  0
LINE
  5
59A
100
AcDbEntity
  8
0
370
     5
390
0
 62
     7
 48
0.000048
100
AcDbLine
 10
-1.05986
 20
-0.003718
 30
0.0
 11
-1.061529
 21
-0.00468
 31
0.0
210
0.0
220
0.0
230
1.0
  0
LINE
  5
59B
100
AcDbEntity
  8
0
370
     5
390
0
 62
     7
 48
0.000048
100
AcDbLine
 10
-1.061529
 20
-0.00468
 30
0.0
 11
-1.063135
 21
-0.005743
 31
0.0
210
0.0
220
0.0
230
1.0
  0
LINE
  5
59C
100
AcDbEntity
  8
0
370
     5
390
0
 62
     7
 48
0.000048
100
AcDbLine
 10
-1.063135
 20
-0.005743
 30
0.0
 11
-1.064672
 21
-0.006903
 31
0.0
210
0.0
220
0.0
230
1.0
  0
LINE
  5
59D
100
AcDbEntity
  8
0
370
     5
390
0
 62
     7
 48
0.000048
100
AcDbLine
 10
-1.064672
 20
-0.006903
 30
0.0
 11
-1.066136
 21
-0.008155
 31
0.0
210
0.0
220
0.0
230
1.0
  0
LINE
  5
59E
100
AcDbEntity
  8
0
370
     5
390
0
 62
     7
 48
0.000048
100
AcDbLine
 10
-1.066136
 20
-0.008155
 30
0.0
 11
-1.06752
 21
-0.009495
 31
0.0
210
0.0
220
0.0
230
1.0
  0
LINE
  5
59F
100
AcDbEntity
  8
0
370
     5
390
0
 62
     7
 48
0.000048
100
AcDbLine
 10
-1.06752
 20
-0.009495
 30
0.0
 11
-1.068818
 21
-0.010918
 31
0.0
210
0.0
220
0.0
230
1.0
  0
LINE
  5
5A0
100
AcDbEntity
  8
0
370
     5
390
0
 62
     7
 48
0.000048
100
AcDbLine
 10
-1.068818
 20
-0.010918
 30
0.0
 11
-1.070027
 21
-0.012417
 31
0.0
210
0.0
220
0.0
230
1.0
  0
LINE
  5
5A1
100
AcDbEntity
  8
0
370
     5
390
0
 62
     7
 48
0.000048
100
AcDbLine
 10
-1.070027
 20
-0.012417
 30
0.0
 11
-1.071141
 21
-0.013988
 31
0.0
210
0.0
220
0.0
230
1.0
  0
LINE
  5
5A2
100
AcDbEntity
  8
0
370
     5
390
0
 62
     7
 48
0.000048
100
AcDbLine
 10
-1.071141
 20
-0.013988
 30
0.0
 11
-1.072156
 21
-0.015625
 31
0.0
210
0.0
220
0.0
230
1.0
  0
LINE
  5
5A3
100
AcDbEntity
  8
0
370
     5
390
0
 62
     7
 48
0.000048
100
AcDbLine
 10
-1.072156
 20
-0.015625
 30
0.0
 11
-1.073069
 21
-0.017321
 31
0.0
210
0.0
220
0.0
230
1.0
  0
LINE
  5
5A4
100
AcDbEntity
  8
0
370
     5
390
0
 62
     7
 48
0.000048
100
AcDbLine
 10
-1.073069
 20
-0.017321
 30
0.0
 11
-1.073876
 21
-0.01907
 31
0.0
210
0.0
220
0.0
230
1.0
  0
LINE
  5
5A5
100
AcDbEntity
  8
0
370
     5
390
0
 62
     7
 48
0.006272
100
AcDbLine
 10
-1.073876
 20
-0.01907
 30
0.0
 11
-1.1719
 21
-0.25
 31
0.0
210
0.0
220
0.0
230
1.0
  0
LINE
  5
5A6
100
AcDbEntity
  8
0
370
     5
390
0
 62
     7
 48
0.005077
100
AcDbLine
 10
-1.1719
 20
-0.25
 30
0.0
 11
-1.375
 21
-0.25
 31
0.0
210
0.0
220
0.0
230
1.0
  0
LINE
  5
5A7
100
AcDbEntity
  8
0
370
     5
390
0
 62
     7
 48
0.00625
100
AcDbLine
 10
-1.375
 20
-0.25
 30
0.0
 11
-1.375
 21
0.0
 31
0.0
210
0.0
220
0.0
230
1.0
  0
LINE
  5
5A8
100
AcDbEntity
  8
0
370
     5
390
0
 62
     7
 48
0.0155
100
AcDbLine
 10
-1.375
 20
0.0
 30
0.0
 11
-1.375
 21
0.62
 31
0.0
210
0.0
220
0.0
230
1.0
  0
LINE
  5
5A9
100
AcDbEntity
  8
0
370
     5
390
0
 62
     7
 48
0.03937
100
AcDbLine
 10
-1.375
 20
0.62
 30
0.0
 11
1.375
 21
0.62
 31
0.0
210
0.0
220
0.0
230
1.0
  0
LINE
  5
5AA
100
AcDbEntity
  8
0
370
     5
390
0
 62
     7
 48
0.0155
100
AcDbLine
 10
1.375
 20
0.62
 30
0.0
 11
1.375
 21
0.0
 31
0.0
210
0.0
220
0.0
230
1.0
  0
LINE
  5
5AB
100
AcDbEntity
  8
0
370
     5
390
0
 62
     7
 48
0.00625
100
AcDbLine
 10
1.375
 20
0.0
 30
0.0
 11
1.375
 21
-0.25
 31
0.0
210
0.0
220
0.0
230
1.0
  0
LINE
  5
5AC
100
AcDbEntity
  8
0
370
     5
390
0
 62
     7
 48
0.005077
100
AcDbLine
 10
1.375
 20
-0.25
 30
0.0
 11
1.1719
 21
-0.25
 31
0.0
210
0.0
220
0.0
230
1.0
  0
LINE
  5
5AD
100
AcDbEntity
  8
0
370
     5
390
0
 62
     7
 48
0.006272
100
AcDbLine
 10
1.1719
 20
-0.25
 30
0.0
 11
1.073876
 21
-0.01907
 31
0.0
210
0.0
220
0.0
230
1.0
  0
LINE
  5
5AE
100
AcDbEntity
  8
0
370
     5
390
0
 62
     7
 48
0.000048
100
AcDbLine
 10
1.073876
 20
-0.01907
 30
0.0
 11
1.073069
 21
-0.017321
 31
0.0
210
0.0
220
0.0
230
1.0
  0
LINE
  5
5AF
100
AcDbEntity
  8
0
370
     5
390
0
 62
     7
 48
0.000048
100
AcDbLine
 10
1.073069
 20
-0.017321
 30
0.0
 11
1.072156
 21
-0.015625
 31
0.0
210
0.0
220
0.0
230
1.0
  0
LINE
  5
5B0
100
AcDbEntity
  8
0
370
     5
390
0
 62
     7
 48
0.000048
100
AcDbLine
 10
1.072156
 20
-0.015625
 30
0.0
 11
1.071141
 21
-0.013988
 31
0.0
210
0.0
220
0.0
230
1.0
  0
LINE
  5
5B1
100
AcDbEntity
  8
0
370
     5
390
0
 62
     7
 48
0.000048
100
AcDbLine
 10
1.071141
 20
-0.013988
 30
0.0
 11
1.070027
 21
-0.012417
 31
0.0
210
0.0
220
0.0
230
1.0
  0
LINE
  5
5B2
100
AcDbEntity
  8
0
370
     5
390
0
 62
     7
 48
0.000048
100
AcDbLine
 10
1.070027
 20
-0.012417
 30
0.0
 11
1.068818
 21
-0.010918
 31
0.0
210
0.0
220
0.0
230
1.0
  0
LINE
  5
5B3
100
AcDbEntity
  8
0
370
     5
390
0
 62
     7
 48
0.000048
100
AcDbLine
 10
1.068818
 20
-0.010918
 30
0.0
 11
1.06752
 21
-0.009495
 31
0.0
210
0.0
220
0.0
230
1.0
  0
LINE
  5
5B4
100
AcDbEntity
  8
0
370
     5
390
0
 62
     7
 48
0.000048
100
AcDbLine
 10
1.06752
 20
-0.009495
 30
0.0
 11
1.066136
 21
-0.008155
 31
0.0
210
0.0
220
0.0
230
1.0
  0
LINE
  5
5B5
100
AcDbEntity
  8
0
370
     5
390
0
 62
     7
 48
0.000048
100
AcDbLine
 10
1.066136
 20
-0.008155
 30
0.0
 11
1.064672
 21
-0.006903
 31
0.0
210
0.0
220
0.0
230
1.0
  0
LINE
  5
5B6
100
AcDbEntity
  8
0
370
     5
390
0
 62
     7
 48
0.000048
100
AcDbLine
 10
1.064672
 20
-0.006903
 30
0.0
 11
1.063135
 21
-0.005743
 31
0.0
210
0.0
220
0.0
230
1.0
  0
LINE
  5
5B7
100
AcDbEntity
  8
0
370
     5
390
0
 62
     7
 48
0.000048
100
AcDbLine
 10
1.063135
 20
-0.005743
 30
0.0
 11
1.061529
 21
-0.00468
 31
0.0
210
0.0
220
0.0
230
1.0
  0
LINE
  5
5B8
100
AcDbEntity
  8
0
370
     5
390
0
 62
     7
 48
0.000048
100
AcDbLine
 10
1.061529
 20
-0.00468
 30
0.0
 11
1.05986
 21
-0.003718
 31
0.0
210
0.0
220
0.0
230
1.0
  0
LINE
  5
5B9
100
AcDbEntity
  8
0
370
     5
390
0
 62
     7
 48
0.000048
100
AcDbLine
 10
1.05986
 20
-0.003718
 30
0.0
 11
1.058136
 21
-0.00286
 31
0.0
210
0.0
220
0.0
230
1.0
  0
LINE
  5
5BA
100
AcDbEntity
  8
0
370
     5
390
0
 62
     7
 48
0.000048
100
AcDbLine
 10
1.058136
 20
-0.00286
 30
0.0
 11
1.056362
 21
-0.00211
 31
0.0
210
0.0
220
0.0
230
1.0
  0
LINE
  5
5BB
100
AcDbEntity
  8
0
370
     5
390
0
 62
     7
 48
0.000048
100
AcDbLine
 10
1.056362
 20
-0.00211
 30
0.0
 11
1.054545
 21
-0.00147
 31
0.0
210
0.0
220
0.0
230
1.0
  0
LINE
  5
5BC
100
AcDbEntity
  8
0
370
     5
390
0
 62
     7
 48
0.000048
100
AcDbLine
 10
1.054545
 20
-0.00147
 30
0.0
 11
1.052692
 21
-0.000944
 31
0.0
210
0.0
220
0.0
230
1.0
  0
LINE
  5
5BD
100
AcDbEntity
  8
0
370
     5
390
0
 62
     7
 48
0.000048
100
AcDbLine
 10
1.052692
 20
-0.000944
 30
0.0
 11
1.050811
 21
-0.000532
 31
0.0
210
0.0
220
0.0
230
1.0
  0
LINE
  5
5BE
100
AcDbEntity
  8
0
370
     5
390
0
 62
     7
 48
0.000048
100
AcDbLine
 10
1.050811
 20
-0.000532
 30
0.0
 11
1.048907
 21
-0.000237
 31
0.0
210
0.0
220
0.0
230
1.0
  0
LINE
  5
5BF
100
AcDbEntity
  8
0
370
     5
390
0
 62
     7
 48
0.000048
100
AcDbLine
 10
1.048907
 20
-0.000237
 30
0.0
 11
1.046989
 21
-0.000059
 31
0.0
210
0.0
220
0.0
230
1.0
  0
LINE
  5
5C0
100
AcDbEntity
  8
0
370
     5
390
0
 62
     7
 48
0.000048
100
AcDbLine
 10
1.046989
 20
-0.000059
 30
0.0
 11
1.045064
 21
0.0
 31
0.0
210
0.0
220
0.0
230
1.0
  0
LINE
  5
5C1
100
AcDbEntity
  8
0
370
     5
390
0
 62
     7
 48
0.002253
100
AcDbLine
 10
1.045064
 20
0.0
 30
0.0
 11
0.954936
 21
0.0
 31
0.0
210
0.0
220
0.0
230
1.0
  0
LINE
  5
5C2
100
AcDbEntity
  8
0
370
     5
390
0
 62
     7
 48
0.000048
100
AcDbLine
 10
0.954936
 20
0.0
 30
0.0
 11
0.953011
 21
-0.000059
 31
0.0
210
0.0
220
0.0
230
1.0
  0
LINE
  5
5C3
100
AcDbEntity
  8
0
370
     5
390
0
 62
     7
 48
0.000048
100
AcDbLine
 10
0.953011
 20
-0.000059
 30
0.0
 11
0.951093
 21
-0.000237
 31
0.0
210
0.0
220
0.0
230
1.0
  0
LINE
  5
5C4
100
AcDbEntity
  8
0
370
     5
390
0
 62
     7
 48
0.000048
100
AcDbLine
 10
0.951093
 20
-0.000237
 30
0.0
 11
0.949189
 21
-0.000532
 31
0.0
210
0.0
220
0.0
230
1.0
  0
LINE
  5
5C5
100
AcDbEntity
  8
0
370
     5
390
0
 62
     7
 48
0.000048
100
AcDbLine
 10
0.949189
 20
-0.000532
 30
0.0
 11
0.947308
 21
-0.000944
 31
0.0
210
0.0
220
0.0
230
1.0
  0
LINE
  5
5C6
100
AcDbEntity
  8
0
370
     5
390
0
 62
     7
 48
0.000048
100
AcDbLine
 10
0.947308
 20
-0.000944
 30
0.0
 11
0.945455
 21
-0.00147
 31
0.0
210
0.0
220
0.0
230
1.0
  0
LINE
  5
5C7
100
AcDbEntity
  8
0
370
     5
390
0
 62
     7
 48
0.000048
100
AcDbLine
 10
0.945455
 20
-0.00147
 30
0.0
 11
0.943638
 21
-0.00211
 31
0.0
210
0.0
220
0.0
230
1.0
  0
LINE
  5
5C8
100
AcDbEntity
  8
0
370
     5
390
0
 62
     7
 48
0.000048
100
AcDbLine
 10
0.943638
 20
-0.00211
 30
0.0
 11
0.941864
 21
-0.00286
 31
0.0
210
0.0
220
0.0
230
1.0
  0
LINE
  5
5C9
100
AcDbEntity
  8
0
370
     5
390
0
 62
     7
 48
0.000048
100
AcDbLine
 10
0.941864
 20
-0.00286
 30
0.0
 11
0.94014
 21
-0.003718
 31
0.0
210
0.0
220
0.0
230
1.0
  0
LINE
  5
5CA
100
AcDbEntity
  8
0
370
     5
390
0
 62
     7
 48
0.000048
100
AcDbLine
 10
0.94014
 20
-0.003718
 30
0.0
 11
0.938471
 21
-0.00468
 31
0.0
210
0.0
220
0.0
230
1.0
  0
LINE
  5
5CB
100
AcDbEntity
  8
0
370
     5
390
0
 62
     7
 48
0.000048
100
AcDbLine
 10
0.938471
 20
-0.00468
 30
0.0
 11
0.936865
 21
-0.005743
 31
0.0
210
0.0
220
0.0
230
1.0
  0
LINE
  5
5CC
100
AcDbEntity
  8
0
370
     5
390
0
 62
     7
 48
0.000048
100
AcDbLine
 10
0.936865
 20
-0.005743
 30
0.0
 11
0.935327
 21
-0.006903
 31
0.0
210
0.0
220
0.0
230
1.0
  0
LINE
  5
5CD
100
AcDbEntity
  8
0
370
     5
390
0
 62
     7
 48
0.000048
100
AcDbLine
 10
0.935327
 20
-0.006903
 30
0.0
 11
0.933864
 21
-0.008155
 31
0.0
210
0.0
220
0.0
230
1.0
  0
LINE
  5
5CE
100
AcDbEntity
  8
0
370
     5
390
0
 62
     7
 48
0.000048
100
AcDbLine
 10
0.933864
 20
-0.008155
 30
0.0
 11
0.93248
 21
-0.009495
 31
0.0
210
0.0
220
0.0
230
1.0
  0
LINE
  5
5CF
100
AcDbEntity
  8
0
370
     5
390
0
 62
     7
 48
0.000048
100
AcDbLine
 10
0.93248
 20
-0.009495
 30
0.0
 11
0.931182
 21
-0.010918
 31
0.0
210
0.0
220
0.0
230
1.0
  0
LINE
  5
5D0
100
AcDbEntity
  8
0
370
     5
390
0
 62
     7
 48
0.000048
100
AcDbLine
 10
0.931182
 20
-0.010918
 30
0.0
 11
0.929973
 21
-0.012417
 31
0.0
210
0.0
220
0.0
230
1.0
  0
LINE
  5
5D1
100
AcDbEntity
  8
0
370
     5
390
0
 62
     7
 48
0.000048
100
AcDbLine
 10
0.929973
 20
-0.012417
 30
0.0
 11
0.928859
 21
-0.013988
 31
0.0
210
0.0
220
0.0
230
1.0
  0
LINE
  5
5D2
100
AcDbEntity
  8
0
370
     5
390
0
 62
     7
 48
0.000048
100
AcDbLine
 10
0.928859
 20
-0.013988
 30
0.0
 11
0.927843
 21
-0.015625
 31
0.0
210
0.0
220
0.0
230
1.0
  0
LINE
  5
5D3
100
AcDbEntity
  8
0
370
     5
390
0
 62
     7
 48
0.000048
100
AcDbLine
 10
0.927843
 20
-0.015625
 30
0.0
 11
0.926931
 21
-0.017321
 31
0.0
210
0.0
220
0.0
230
1.0
  0
LINE
  5
5D4
100
AcDbEntity
  8
0
370
     5
390
0
 62
     7
 48
0.000048
100
AcDbLine
 10
0.926931
 20
-0.017321
 30
0.0
 11
0.926124
 21
-0.01907
 31
0.0
210
0.0
220
0.0
230
1.0
  0
ENDBLK
  5
5D5
100
AcDbEntity
  8
0
390
0
100
AcDbBlockEnd
  0
BLOCK
  5
5D6
100
AcDbEntity
  8
0
370
     0
390
0
100
AcDbBlockBegin
  2
BLOCK24
 70
     0
 10
0.0
 20
0.0
 30
0.0
  3
BLOCK24
  1

  0
LINE
  5
5D7
100
AcDbEntity
  8
0
370
     5
390
0
 62
     7
 48
0.0155
100
AcDbLine
 10
2.44
 20
0.62
 30
0.0
 11
2.44
 21
0.0
 31
0.0
210
0.0
220
0.0
230
1.0
  0
LINE
  5
5D8
100
AcDbEntity
  8
0
370
     5
390
0
 62
     7
 48
0.007875
100
AcDbLine
 10
2.44
 20
0.0
 30
0.0
 11
2.125
 21
0.0
 31
0.0
210
0.0
220
0.0
230
1.0
  0
LINE
  5
5D9
100
AcDbEntity
  8
0
370
     5
390
0
 62
     7
 48
0.0155
100
AcDbLine
 10
2.125
 20
0.0
 30
0.0
 11
2.125
 21
0.62
 31
0.0
210
0.0
220
0.0
230
1.0
  0
LINE
  5
5DA
100
AcDbEntity
  8
0
370
     5
390
0
 62
     7
 48
0.007875
100
AcDbLine
 10
2.125
 20
0.62
 30
0.0
 11
2.44
 21
0.62
 31
0.0
210
0.0
220
0.0
230
1.0
  0
ENDBLK
  5
5DB
100
AcDbEntity
  8
0
390
0
100
AcDbBlockEnd
  0
ENDSEC
  0
SECTION
  2
ENTITIES
  0
VIEWPORT
  5
370
100
AcDbEntity
 67
     1
  8
0
370
     0
390
0
 62
     0
 48
0.0
100
AcDbViewport
 10
0.0
 20
0.0
 30
0.0
 40
1000.0
 41
1000.0
 68
     1
 69
     1
 12
0.0
 22
0.0
 13
0.0
 23
0.0
 14
1.0
 24
1.0
 15
1.0
 25
1.0
 16
0.0
 26
0.0
 36
1.0
 17
0.0
 27
0.0
 37
0.0
 42
50.0
 43
0.0
 44
0.0
 45
1000.0
 50
0.0
 51
0.0
 72
   100
 90
        0
340
0
  1

281
     0
 71
     0
 74
     1
110
0.0
120
0.0
130
0.0
111
1.0
121
0.0
131
0.0
112
0.0
122
1.0
132
0.0
345
0
346
0
 79
     0
146
0.0
  0
TEXT
  5
27
100
AcDbEntity
  8
0
370
    13
390
0
 62
     7
 48
0.03937
100
AcDbText
 10
7.774762
 20
1.08216
 30
0.0
 40
0.06
  1
SIZE:
 72
     5
 11
8.064134
 21
1.08216
 31
0.0
100
AcDbText
  0
TEXT
  5
28
100
AcDbEntity
  8
0
370
    13
390
0
 62
     7
 48
0.03937
100
AcDbText
 10
7.774762
 20
0.894218
 30
0.0
 40
0.06
  1
TYPE:
 72
     5
 11
8.064134
 21
0.894218
 31
0.0
100
AcDbText
  0
POINT
  5
29
100
AcDbEntity
  8
0
370
     5
390
0
 62
     7
 48
0.03937
100
AcDbPoint
 10
0.0
 20
0.0
 30
0.0
210
0.0
220
0.0
230
1.0
  0
POINT
  5
2A
100
AcDbEntity
  8
0
370
     5
390
0
 62
     7
 48
0.03937
100
AcDbPoint
 10
8.029755
 20
0.53125
 30
0.0
210
0.0
220
0.0
230
1.0
  0
LINE
  5
2B
100
AcDbEntity
  8
1
370
    35
390
0
 62
     7
 48
0.000032
100
AcDbLine
 10
9.035676
 20
0.778761
 30
0.0
 11
9.036922
 21
0.778449
 31
0.0
210
0.0
220
0.0
230
1.0
  0
LINE
  5
2C
100
AcDbEntity
  8
1
370
    35
390
0
 62
     7
 48
0.03937
100
AcDbLine
 10
0.25
 20
0.25
 30
0.0
 11
0.25
 21
8.25
 31
0.0
210
0.0
220
0.0
230
1.0
  0
LINE
  5
2D
100
AcDbEntity
  8
1
370
    35
390
0
 62
     7
 48
0.03937
100
AcDbLine
 10
7.75
 20
1.1875
 30
0.0
 11
10.75
 21
1.1875
 31
0.0
210
0.0
220
0.0
230
1.0
  0
LINE
  5
2E
100
AcDbEntity
  8
1
370
    35
390
0
 62
     7
 48
0.03937
100
AcDbLine
 10
7.75
 20
1.0
 30
0.0
 11
10.75
 21
1.0
 31
0.0
210
0.0
220
0.0
230
1.0
  0
LINE
  5
2F
100
AcDbEntity
  8
1
370
    35
390
0
 62
     7
 48
0.03937
100
AcDbLine
 10
0.25
 20
8.25
 30
0.0
 11
10.75
 21
8.25
 31
0.0
210
0.0
220
0.0
230
1.0
  0
LINE
  5
30
100
AcDbEntity
  8
1
370
    35
390
0
 62
     7
 48
0.03937
100
AcDbLine
 10
7.75
 20
0.8125
 30
0.0
 11
10.75
 21
0.8125
 31
0.0
210
0.0
220
0.0
230
1.0
  0
LINE
  5
31
100
AcDbEntity
  8
1
370
    35
390
0
 62
     7
 48
0.03937
100
AcDbLine
 10
0.25
 20
0.25
 30
0.0
 11
10.75
 21
0.25
 31
0.0
210
0.0
220
0.0
230
1.0
  0
LINE
  5
32
100
AcDbEntity
  8
1
370
    35
390
0
 62
     7
 48
0.03937
100
AcDbLine
 10
10.75
 20
8.25
 30
0.0
 11
10.75
 21
0.25
 31
0.0
210
0.0
220
0.0
230
1.0
  0
LINE
  5
33
100
AcDbEntity
  8
1
370
    35
390
0
 62
     7
 48
0.03937
100
AcDbLine
 10
7.75
 20
1.1875
 30
0.0
 11
7.75
 21
0.25
 31
0.0
210
0.0
220
0.0
230
1.0
  0
CIRCLE
  5
34
100
AcDbEntity
  8
0
370
    70
390
0
 62
     7
 48
0.03937
100
AcDbCircle
 10
8.029755
 20
0.53125
 30
0.0
 40
0.2475
210
0.0
220
0.0
230
1.0
  0
CIRCLE
  5
35
100
AcDbEntity
  8
0
370
    70
390
0
 62
     7
 48
0.03937
100
AcDbCircle
 10
8.029755
 20
0.53125
 30
0.0
 40
0.195
210
0.0
220
0.0
230
1.0
  0
CIRCLE
  5
36
100
AcDbEntity
  8
0
370
    35
390
0
 62
     7
 48
0.03937
100
AcDbCircle
 10
8.029755
 20
0.7525
 30
0.0
 40
0.015
210
0.0
220
0.0
230
1.0
  0
CIRCLE
  5
37
100
AcDbEntity
  8
0
370
    35
390
0
 62
     7
 48
0.03937
100
AcDbCircle
 10
8.251005
 20
0.53125
 30
0.0
 40
0.015
210
0.0
220
0.0
230
1.0
  0
CIRCLE
  5
38
100
AcDbEntity
  8
0
370
    35
390
0
 62
     7
 48
0.03937
100
AcDbCircle
 10
8.186202
 20
0.687697
 30
0.0
 40
0.015
210
0.0
220
0.0
230
1.0
  0
CIRCLE
  5
39
100
AcDbEntity
  8
0
370
    35
390
0
 62
     7
 48
0.03937
100
AcDbCircle
 10
8.029755
 20
0.31
 30
0.0
 40
0.015
210
0.0
220
0.0
230
1.0
  0
CIRCLE
  5
3A
100
AcDbEntity
  8
0
370
    35
390
0
 62
     7
 48
0.03937
100
AcDbCircle
 10
8.186202
 20
0.374803
 30
0.0
 40
0.015
210
0.0
220
0.0
230
1.0
  0
CIRCLE
  5
3B
100
AcDbEntity
  8
0
370
    35
390
0
 62
     7
 48
0.03937
100
AcDbCircle
 10
7.808505
 20
0.53125
 30
0.0
 40
0.015
210
0.0
220
0.0
230
1.0
  0
CIRCLE
  5
3C
100
AcDbEntity
  8
0
370
    35
390
0
 62
     7
 48
0.03937
100
AcDbCircle
 10
7.873308
 20
0.687697
 30
0.0
 40
0.015
210
0.0
220
0.0
230
1.0
  0
CIRCLE
  5
3D
100
AcDbEntity
  8
0
370
    35
390
0
 62
     7
 48
0.03937
100
AcDbCircle
 10
7.873308
 20
0.374803
 30
0.0
 40
0.015
210
0.0
220
0.0
230
1.0
  0
POLYLINE
  5
3E
100
AcDbEntity
  8
0
370
    13
390
0
 62
     7
 48
0.03937
100
AcDb2dPolyline
 66
     1
 10
0.0
 20
0.0
 30
0.0
 70
     1
 71
   118
  0
VERTEX
  5
3F
100
AcDbEntity
  8
0
370
     0
390
0
100
AcDbVertex
100
AcDb2dVertex
 10
8.029831
 20
0.605292
 30
0.0
  0
VERTEX
  5
40
100
AcDbEntity
  8
0
370
     0
390
0
100
AcDbVertex
100
AcDb2dVertex
 10
8.029019
 20
0.60375
 30
0.0
  0
VERTEX
  5
41
100
AcDbEntity
  8
0
370
     0
390
0
100
AcDbVertex
100
AcDb2dVertex
 10
8.021177
 20
0.589826
 30
0.0
  0
VERTEX
  5
42
100
AcDbEntity
  8
0
370
     0
390
0
100
AcDbVertex
100
AcDb2dVertex
 10
8.020426
 20
0.588405
 30
0.0
  0
VERTEX
  5
43
100
AcDbEntity
  8
0
370
     0
390
0
100
AcDbVertex
100
AcDb2dVertex
 10
8.019684
 20
0.586917
 30
0.0
  0
VERTEX
  5
44
100
AcDbEntity
  8
0
370
     0
390
0
100
AcDbVertex
100
AcDb2dVertex
 10
8.018954
 20
0.58536
 30
0.0
  0
VERTEX
  5
45
100
AcDbEntity
  8
0
370
     0
390
0
100
AcDbVertex
100
AcDb2dVertex
 10
8.018235
 20
0.583734
 30
0.0
  0
VERTEX
  5
46
100
AcDbEntity
  8
0
370
     0
390
0
100
AcDbVertex
100
AcDb2dVertex
 10
8.017528
 20
0.582038
 30
0.0
  0
VERTEX
  5
47
100
AcDbEntity
  8
0
370
     0
390
0
100
AcDbVertex
100
AcDb2dVertex
 10
8.01683
 20
0.580272
 30
0.0
  0
VERTEX
  5
48
100
AcDbEntity
  8
0
370
     0
390
0
100
AcDbVertex
100
AcDb2dVertex
 10
8.016143
 20
0.578438
 30
0.0
  0
VERTEX
  5
49
100
AcDbEntity
  8
0
370
     0
390
0
100
AcDbVertex
100
AcDb2dVertex
 10
8.015467
 20
0.576534
 30
0.0
  0
VERTEX
  5
4A
100
AcDbEntity
  8
0
370
     0
390
0
100
AcDbVertex
100
AcDb2dVertex
 10
8.014802
 20
0.574562
 30
0.0
  0
VERTEX
  5
4B
100
AcDbEntity
  8
0
370
     0
390
0
100
AcDbVertex
100
AcDb2dVertex
 10
8.014147
 20
0.572519
 30
0.0
  0
VERTEX
  5
4C
100
AcDbEntity
  8
0
370
     0
390
0
100
AcDbVertex
100
AcDb2dVertex
 10
8.012525
 20
0.574142
 30
0.0
  0
VERTEX
  5
4D
100
AcDbEntity
  8
0
370
     0
390
0
100
AcDbVertex
100
AcDb2dVertex
 10
8.011871
 20
0.576531
 30
0.0
  0
VERTEX
  5
4E
100
AcDbEntity
  8
0
370
     0
390
0
100
AcDbVertex
100
AcDb2dVertex
 10
8.011163
 20
0.578771
 30
0.0
  0
VERTEX
  5
4F
100
AcDbEntity
  8
0
370
     0
390
0
100
AcDbVertex
100
AcDb2dVertex
 10
8.010404
 20
0.580859
 30
0.0
  0
VERTEX
  5
50
100
AcDbEntity
  8
0
370
     0
390
0
100
AcDbVertex
100
AcDb2dVertex
 10
8.009591
 20
0.582795
 30
0.0
  0
VERTEX
  5
51
100
AcDbEntity
  8
0
370
     0
390
0
100
AcDbVertex
100
AcDb2dVertex
 10
8.008726
 20
0.584579
 30
0.0
  0
VERTEX
  5
52
100
AcDbEntity
  8
0
370
     0
390
0
100
AcDbVertex
100
AcDb2dVertex
 10
8.007806
 20
0.586212
 30
0.0
  0
VERTEX
  5
53
100
AcDbEntity
  8
0
370
     0
390
0
100
AcDbVertex
100
AcDb2dVertex
 10
8.006836
 20
0.587694
 30
0.0
  0
VERTEX
  5
54
100
AcDbEntity
  8
0
370
     0
390
0
100
AcDbVertex
100
AcDb2dVertex
 10
8.00581
 20
0.589025
 30
0.0
  0
VERTEX
  5
55
100
AcDbEntity
  8
0
370
     0
390
0
100
AcDbVertex
100
AcDb2dVertex
 10
8.004733
 20
0.590204
 30
0.0
  0
VERTEX
  5
56
100
AcDbEntity
  8
0
370
     0
390
0
100
AcDbVertex
100
AcDb2dVertex
 10
8.003601
 20
0.591231
 30
0.0
  0
VERTEX
  5
57
100
AcDbEntity
  8
0
370
     0
390
0
100
AcDbVertex
100
AcDb2dVertex
 10
8.002384
 20
0.592136
 30
0.0
  0
VERTEX
  5
58
100
AcDbEntity
  8
0
370
     0
390
0
100
AcDbVertex
100
AcDb2dVertex
 10
8.001043
 20
0.592944
 30
0.0
  0
VERTEX
  5
59
100
AcDbEntity
  8
0
370
     0
390
0
100
AcDbVertex
100
AcDb2dVertex
 10
7.99958
 20
0.593658
 30
0.0
  0
VERTEX
  5
5A
100
AcDbEntity
  8
0
370
     0
390
0
100
AcDbVertex
100
AcDb2dVertex
 10
7.997995
 20
0.594276
 30
0.0
  0
VERTEX
  5
5B
100
AcDbEntity
  8
0
370
     0
390
0
100
AcDbVertex
100
AcDb2dVertex
 10
7.996287
 20
0.5948
 30
0.0
  0
VERTEX
  5
5C
100
AcDbEntity
  8
0
370
     0
390
0
100
AcDbVertex
100
AcDb2dVertex
 10
7.994457
 20
0.595229
 30
0.0
  0
VERTEX
  5
5D
100
AcDbEntity
  8
0
370
     0
390
0
100
AcDbVertex
100
AcDb2dVertex
 10
7.992506
 20
0.595562
 30
0.0
  0
VERTEX
  5
5E
100
AcDbEntity
  8
0
370
     0
390
0
100
AcDbVertex
100
AcDb2dVertex
 10
7.990431
 20
0.595799
 30
0.0
  0
VERTEX
  5
5F
100
AcDbEntity
  8
0
370
     0
390
0
100
AcDbVertex
100
AcDb2dVertex
 10
7.988236
 20
0.595943
 30
0.0
  0
VERTEX
  5
60
100
AcDbEntity
  8
0
370
     0
390
0
100
AcDbVertex
100
AcDb2dVertex
 10
7.985918
 20
0.595991
 30
0.0
  0
VERTEX
  5
61
100
AcDbEntity
  8
0
370
     0
390
0
100
AcDbVertex
100
AcDb2dVertex
 10
7.983971
 20
0.595973
 30
0.0
  0
VERTEX
  5
62
100
AcDbEntity
  8
0
370
     0
390
0
100
AcDbVertex
100
AcDb2dVertex
 10
7.982024
 20
0.59592
 30
0.0
  0
VERTEX
  5
63
100
AcDbEntity
  8
0
370
     0
390
0
100
AcDbVertex
100
AcDb2dVertex
 10
7.980077
 20
0.595835
 30
0.0
  0
VERTEX
  5
64
100
AcDbEntity
  8
0
370
     0
390
0
100
AcDbVertex
100
AcDb2dVertex
 10
7.97813
 20
0.595713
 30
0.0
  0
VERTEX
  5
65
100
AcDbEntity
  8
0
370
     0
390
0
100
AcDbVertex
100
AcDb2dVertex
 10
7.976183
 20
0.595557
 30
0.0
  0
VERTEX
  5
66
100
AcDbEntity
  8
0
370
     0
390
0
100
AcDbVertex
100
AcDb2dVertex
 10
7.974885
 20
0.478313
 30
0.0
  0
VERTEX
  5
67
100
AcDbEntity
  8
0
370
     0
390
0
100
AcDbVertex
100
AcDb2dVertex
 10
7.987647
 20
0.466523
 30
0.0
  0
VERTEX
  5
68
100
AcDbEntity
  8
0
370
     0
390
0
100
AcDbVertex
100
AcDb2dVertex
 10
7.93822
 20
0.466523
 30
0.0
  0
VERTEX
  5
69
100
AcDbEntity
  8
0
370
     0
390
0
100
AcDbVertex
100
AcDb2dVertex
 10
7.953361
 20
0.479178
 30
0.0
  0
VERTEX
  5
6A
100
AcDbEntity
  8
0
370
     0
390
0
100
AcDbVertex
100
AcDb2dVertex
 10
7.953361
 20
0.586796
 30
0.0
  0
VERTEX
  5
6B
100
AcDbEntity
  8
0
370
     0
390
0
100
AcDbVertex
100
AcDb2dVertex
 10
7.945682
 20
0.586905
 30
0.0
  0
VERTEX
  5
6C
100
AcDbEntity
  8
0
370
     0
390
0
100
AcDbVertex
100
AcDb2dVertex
 10
7.943519
 20
0.58686
 30
0.0
  0
VERTEX
  5
6D
100
AcDbEntity
  8
0
370
     0
390
0
100
AcDbVertex
100
AcDb2dVertex
 10
7.941484
 20
0.58673
 30
0.0
  0
VERTEX
  5
6E
100
AcDbEntity
  8
0
370
     0
390
0
100
AcDbVertex
100
AcDb2dVertex
 10
7.939577
 20
0.586511
 30
0.0
  0
VERTEX
  5
6F
100
AcDbEntity
  8
0
370
     0
390
0
100
AcDbVertex
100
AcDb2dVertex
 10
7.937799
 20
0.586203
 30
0.0
  0
VERTEX
  5
70
100
AcDbEntity
  8
0
370
     0
390
0
100
AcDbVertex
100
AcDb2dVertex
 10
7.936151
 20
0.585809
 30
0.0
  0
VERTEX
  5
71
100
AcDbEntity
  8
0
370
     0
390
0
100
AcDbVertex
100
AcDb2dVertex
 10
7.93463
 20
0.585327
 30
0.0
  0
VERTEX
  5
72
100
AcDbEntity
  8
0
370
     0
390
0
100
AcDbVertex
100
AcDb2dVertex
 10
7.93324
 20
0.584759
 30
0.0
  0
VERTEX
  5
73
100
AcDbEntity
  8
0
370
     0
390
0
100
AcDbVertex
100
AcDb2dVertex
 10
7.930843
 20
0.583356
 30
0.0
  0
VERTEX
  5
74
100
AcDbEntity
  8
0
370
     0
390
0
100
AcDbVertex
100
AcDb2dVertex
 10
7.928935
 20
0.581582
 30
0.0
  0
VERTEX
  5
75
100
AcDbEntity
  8
0
370
     0
390
0
100
AcDbVertex
100
AcDb2dVertex
 10
7.92736
 20
0.579297
 30
0.0
  0
VERTEX
  5
76
100
AcDbEntity
  8
0
370
     0
390
0
100
AcDbVertex
100
AcDb2dVertex
 10
7.926092
 20
0.57648
 30
0.0
  0
VERTEX
  5
77
100
AcDbEntity
  8
0
370
     0
390
0
100
AcDbVertex
100
AcDb2dVertex
 10
7.925573
 20
0.574872
 30
0.0
  0
VERTEX
  5
78
100
AcDbEntity
  8
0
370
     0
390
0
100
AcDbVertex
100
AcDb2dVertex
 10
7.92513
 20
0.573132
 30
0.0
  0
VERTEX
  5
79
100
AcDbEntity
  8
0
370
     0
390
0
100
AcDbVertex
100
AcDb2dVertex
 10
7.924766
 20
0.571259
 30
0.0
  0
VERTEX
  5
7A
100
AcDbEntity
  8
0
370
     0
390
0
100
AcDbVertex
100
AcDb2dVertex
 10
7.924478
 20
0.569252
 30
0.0
  0
VERTEX
  5
7B
100
AcDbEntity
  8
0
370
     0
390
0
100
AcDbVertex
100
AcDb2dVertex
 10
7.924266
 20
0.567111
 30
0.0
  0
VERTEX
  5
7C
100
AcDbEntity
  8
0
370
     0
390
0
100
AcDbVertex
100
AcDb2dVertex
 10
7.921454
 20
0.567111
 30
0.0
  0
VERTEX
  5
7D
100
AcDbEntity
  8
0
370
     0
390
0
100
AcDbVertex
100
AcDb2dVertex
 10
7.921734
 20
0.569565
 30
0.0
  0
VERTEX
  5
7E
100
AcDbEntity
  8
0
370
     0
390
0
100
AcDbVertex
100
AcDb2dVertex
 10
7.922096
 20
0.571866
 30
0.0
  0
VERTEX
  5
7F
100
AcDbEntity
  8
0
370
     0
390
0
100
AcDbVertex
100
AcDb2dVertex
 10
7.922543
 20
0.574013
 30
0.0
  0
VERTEX
  5
80
100
AcDbEntity
  8
0
370
     0
390
0
100
AcDbVertex
100
AcDb2dVertex
 10
7.923073
 20
0.576006
 30
0.0
  0
VERTEX
  5
81
100
AcDbEntity
  8
0
370
     0
390
0
100
AcDbVertex
100
AcDb2dVertex
 10
7.923684
 20
0.577847
 30
0.0
  0
VERTEX
  5
82
100
AcDbEntity
  8
0
370
     0
390
0
100
AcDbVertex
100
AcDb2dVertex
 10
7.924381
 20
0.579533
 30
0.0
  0
VERTEX
  5
83
100
AcDbEntity
  8
0
370
     0
390
0
100
AcDbVertex
100
AcDb2dVertex
 10
7.92516
 20
0.581064
 30
0.0
  0
VERTEX
  5
84
100
AcDbEntity
  8
0
370
     0
390
0
100
AcDbVertex
100
AcDb2dVertex
 10
7.926023
 20
0.582444
 30
0.0
  0
VERTEX
  5
85
100
AcDbEntity
  8
0
370
     0
390
0
100
AcDbVertex
100
AcDb2dVertex
 10
7.926968
 20
0.58367
 30
0.0
  0
VERTEX
  5
86
100
AcDbEntity
  8
0
370
     0
390
0
100
AcDbVertex
100
AcDb2dVertex
 10
7.929138
 20
0.585687
 30
0.0
  0
VERTEX
  5
87
100
AcDbEntity
  8
0
370
     0
390
0
100
AcDbVertex
100
AcDb2dVertex
 10
7.930418
 20
0.586532
 30
0.0
  0
VERTEX
  5
88
100
AcDbEntity
  8
0
370
     0
390
0
100
AcDbVertex
100
AcDb2dVertex
 10
7.931839
 20
0.587279
 30
0.0
  0
VERTEX
  5
89
100
AcDbEntity
  8
0
370
     0
390
0
100
AcDbVertex
100
AcDb2dVertex
 10
7.933397
 20
0.587925
 30
0.0
  0
VERTEX
  5
8A
100
AcDbEntity
  8
0
370
     0
390
0
100
AcDbVertex
100
AcDb2dVertex
 10
7.935095
 20
0.588473
 30
0.0
  0
VERTEX
  5
8B
100
AcDbEntity
  8
0
370
     0
390
0
100
AcDbVertex
100
AcDb2dVertex
 10
7.936934
 20
0.588921
 30
0.0
  0
VERTEX
  5
8C
100
AcDbEntity
  8
0
370
     0
390
0
100
AcDbVertex
100
AcDb2dVertex
 10
7.938912
 20
0.589269
 30
0.0
  0
VERTEX
  5
8D
100
AcDbEntity
  8
0
370
     0
390
0
100
AcDbVertex
100
AcDb2dVertex
 10
7.941029
 20
0.589518
 30
0.0
  0
VERTEX
  5
8E
100
AcDbEntity
  8
0
370
     0
390
0
100
AcDbVertex
100
AcDb2dVertex
 10
7.943286
 20
0.589667
 30
0.0
  0
VERTEX
  5
8F
100
AcDbEntity
  8
0
370
     0
390
0
100
AcDbVertex
100
AcDb2dVertex
 10
7.945682
 20
0.589716
 30
0.0
  0
VERTEX
  5
90
100
AcDbEntity
  8
0
370
     0
390
0
100
AcDbVertex
100
AcDb2dVertex
 10
7.952171
 20
0.589608
 30
0.0
  0
VERTEX
  5
91
100
AcDbEntity
  8
0
370
     0
390
0
100
AcDbVertex
100
AcDb2dVertex
 10
7.953361
 20
0.594908
 30
0.0
  0
VERTEX
  5
92
100
AcDbEntity
  8
0
370
     0
390
0
100
AcDbVertex
100
AcDb2dVertex
 10
7.951177
 20
0.595142
 30
0.0
  0
VERTEX
  5
93
100
AcDbEntity
  8
0
370
     0
390
0
100
AcDbVertex
100
AcDb2dVertex
 10
7.949034
 20
0.595323
 30
0.0
  0
VERTEX
  5
94
100
AcDbEntity
  8
0
370
     0
390
0
100
AcDbVertex
100
AcDb2dVertex
 10
7.946936
 20
0.595454
 30
0.0
  0
VERTEX
  5
95
100
AcDbEntity
  8
0
370
     0
390
0
100
AcDbVertex
100
AcDb2dVertex
 10
7.944881
 20
0.595532
 30
0.0
  0
VERTEX
  5
96
100
AcDbEntity
  8
0
370
     0
390
0
100
AcDbVertex
100
AcDb2dVertex
 10
7.94287
 20
0.595557
 30
0.0
  0
VERTEX
  5
97
100
AcDbEntity
  8
0
370
     0
390
0
100
AcDbVertex
100
AcDb2dVertex
 10
7.940158
 20
0.5955
 30
0.0
  0
VERTEX
  5
98
100
AcDbEntity
  8
0
370
     0
390
0
100
AcDbVertex
100
AcDb2dVertex
 10
7.9376
 20
0.595331
 30
0.0
  0
VERTEX
  5
99
100
AcDbEntity
  8
0
370
     0
390
0
100
AcDbVertex
100
AcDb2dVertex
 10
7.9352
 20
0.595046
 30
0.0
  0
VERTEX
  5
9A
100
AcDbEntity
  8
0
370
     0
390
0
100
AcDbVertex
100
AcDb2dVertex
 10
7.932953
 20
0.594648
 30
0.0
  0
VERTEX
  5
9B
100
AcDbEntity
  8
0
370
     0
390
0
100
AcDbVertex
100
AcDb2dVertex
 10
7.930864
 20
0.594138
 30
0.0
  0
VERTEX
  5
9C
100
AcDbEntity
  8
0
370
     0
390
0
100
AcDbVertex
100
AcDb2dVertex
 10
7.92893
 20
0.593513
 30
0.0
  0
VERTEX
  5
9D
100
AcDbEntity
  8
0
370
     0
390
0
100
AcDbVertex
100
AcDb2dVertex
 10
7.927152
 20
0.592775
 30
0.0
  0
VERTEX
  5
9E
100
AcDbEntity
  8
0
370
     0
390
0
100
AcDbVertex
100
AcDb2dVertex
 10
7.92553
 20
0.591923
 30
0.0
  0
VERTEX
  5
9F
100
AcDbEntity
  8
0
370
     0
390
0
100
AcDbVertex
100
AcDb2dVertex
 10
7.924063
 20
0.590958
 30
0.0
  0
VERTEX
  5
A0
100
AcDbEntity
  8
0
370
     0
390
0
100
AcDbVertex
100
AcDb2dVertex
 10
7.922751
 20
0.58988
 30
0.0
  0
VERTEX
  5
A1
100
AcDbEntity
  8
0
370
     0
390
0
100
AcDbVertex
100
AcDb2dVertex
 10
7.921574
 20
0.588665
 30
0.0
  0
VERTEX
  5
A2
100
AcDbEntity
  8
0
370
     0
390
0
100
AcDbVertex
100
AcDb2dVertex
 10
7.920506
 20
0.587294
 30
0.0
  0
VERTEX
  5
A3
100
AcDbEntity
  8
0
370
     0
390
0
100
AcDbVertex
100
AcDb2dVertex
 10
7.919549
 20
0.585767
 30
0.0
  0
VERTEX
  5
A4
100
AcDbEntity
  8
0
370
     0
390
0
100
AcDbVertex
100
AcDb2dVertex
 10
7.918703
 20
0.584081
 30
0.0
  0
VERTEX
  5
A5
100
AcDbEntity
  8
0
370
     0
390
0
100
AcDbVertex
100
AcDb2dVertex
 10
7.917966
 20
0.58224
 30
0.0
  0
VERTEX
  5
A6
100
AcDbEntity
  8
0
370
     0
390
0
100
AcDbVertex
100
AcDb2dVertex
 10
7.917339
 20
0.580242
 30
0.0
  0
VERTEX
  5
A7
100
AcDbEntity
  8
0
370
     0
390
0
100
AcDbVertex
100
AcDb2dVertex
 10
7.916824
 20
0.578087
 30
0.0
  0
VERTEX
  5
A8
100
AcDbEntity
  8
0
370
     0
390
0
100
AcDbVertex
100
AcDb2dVertex
 10
7.916418
 20
0.575775
 30
0.0
  0
VERTEX
  5
A9
100
AcDbEntity
  8
0
370
     0
390
0
100
AcDbVertex
100
AcDb2dVertex
 10
7.916123
 20
0.573306
 30
0.0
  0
VERTEX
  5
AA
100
AcDbEntity
  8
0
370
     0
390
0
100
AcDbVertex
100
AcDb2dVertex
 10
7.915938
 20
0.570681
 30
0.0
  0
VERTEX
  5
AB
100
AcDbEntity
  8
0
370
     0
390
0
100
AcDbVertex
100
AcDb2dVertex
 10
7.913659
 20
0.573722
 30
0.0
  0
VERTEX
  5
AC
100
AcDbEntity
  8
0
370
     0
390
0
100
AcDbVertex
100
AcDb2dVertex
 10
7.912577
 20
0.576833
 30
0.0
  0
VERTEX
  5
AD
100
AcDbEntity
  8
0
370
     0
390
0
100
AcDbVertex
100
AcDb2dVertex
 10
7.911392
 20
0.580013
 30
0.0
  0
VERTEX
  5
AE
100
AcDbEntity
  8
0
370
     0
390
0
100
AcDbVertex
100
AcDb2dVertex
 10
7.910106
 20
0.583262
 30
0.0
  0
VERTEX
  5
AF
100
AcDbEntity
  8
0
370
     0
390
0
100
AcDbVertex
100
AcDb2dVertex
 10
7.908719
 20
0.58658
 30
0.0
  0
VERTEX
  5
B0
100
AcDbEntity
  8
0
370
     0
390
0
100
AcDbVertex
100
AcDb2dVertex
 10
7.907229
 20
0.589967
 30
0.0
  0
VERTEX
  5
B1
100
AcDbEntity
  8
0
370
     0
390
0
100
AcDbVertex
100
AcDb2dVertex
 10
7.905638
 20
0.593424
 30
0.0
  0
VERTEX
  5
B2
100
AcDbEntity
  8
0
370
     0
390
0
100
AcDbVertex
100
AcDb2dVertex
 10
7.903945
 20
0.596951
 30
0.0
  0
VERTEX
  5
B3
100
AcDbEntity
  8
0
370
     0
390
0
100
AcDbVertex
100
AcDb2dVertex
 10
7.902151
 20
0.600546
 30
0.0
  0
VERTEX
  5
B4
100
AcDbEntity
  8
0
370
     0
390
0
100
AcDbVertex
100
AcDb2dVertex
 10
7.900255
 20
0.604209
 30
0.0
  0
SEQEND
  5
B5
100
AcDbEntity
  8
0
370
     0
390
0
  0
POLYLINE
  5
B6
100
AcDbEntity
  8
0
370
    13
390
0
 62
     7
 48
0.03937
100
AcDb2dPolyline
 66
     1
 10
0.0
 20
0.0
 30
0.0
 70
     1
 71
    22
  0
VERTEX
  5
B7
100
AcDbEntity
  8
0
370
     0
390
0
100
AcDbVertex
100
AcDb2dVertex
 10
8.036644
 20
0.598478
 30
0.0
  0
VERTEX
  5
B8
100
AcDbEntity
  8
0
370
     0
390
0
100
AcDbVertex
100
AcDb2dVertex
 10
8.035144
 20
0.596448
 30
0.0
  0
VERTEX
  5
B9
100
AcDbEntity
  8
0
370
     0
390
0
100
AcDbVertex
100
AcDb2dVertex
 10
8.033629
 20
0.594168
 30
0.0
  0
VERTEX
  5
BA
100
AcDbEntity
  8
0
370
     0
390
0
100
AcDbVertex
100
AcDb2dVertex
 10
8.032099
 20
0.591638
 30
0.0
  0
VERTEX
  5
BB
100
AcDbEntity
  8
0
370
     0
390
0
100
AcDbVertex
100
AcDb2dVertex
 10
8.030552
 20
0.588855
 30
0.0
  0
VERTEX
  5
BC
100
AcDbEntity
  8
0
370
     0
390
0
100
AcDbVertex
100
AcDb2dVertex
 10
8.028992
 20
0.585822
 30
0.0
  0
VERTEX
  5
BD
100
AcDbEntity
  8
0
370
     0
390
0
100
AcDbVertex
100
AcDb2dVertex
 10
8.027416
 20
0.582539
 30
0.0
  0
VERTEX
  5
BE
100
AcDbEntity
  8
0
370
     0
390
0
100
AcDbVertex
100
AcDb2dVertex
 10
8.025824
 20
0.579005
 30
0.0
  0
VERTEX
  5
BF
100
AcDbEntity
  8
0
370
     0
390
0
100
AcDbVertex
100
AcDb2dVertex
 10
8.024219
 20
0.575219
 30
0.0
  0
VERTEX
  5
C0
100
AcDbEntity
  8
0
370
     0
390
0
100
AcDbVertex
100
AcDb2dVertex
 10
8.022597
 20
0.571182
 30
0.0
  0
VERTEX
  5
C1
100
AcDbEntity
  8
0
370
     0
390
0
100
AcDbVertex
100
AcDb2dVertex
 10
8.020961
 20
0.566895
 30
0.0
  0
VERTEX
  5
C2
100
AcDbEntity
  8
0
370
     0
390
0
100
AcDbVertex
100
AcDb2dVertex
 10
8.018149
 20
0.567869
 30
0.0
  0
VERTEX
  5
C3
100
AcDbEntity
  8
0
370
     0
390
0
100
AcDbVertex
100
AcDb2dVertex
 10
8.020069
 20
0.573183
 30
0.0
  0
VERTEX
  5
C4
100
AcDbEntity
  8
0
370
     0
390
0
100
AcDbVertex
100
AcDb2dVertex
 10
8.021652
 20
0.577253
 30
0.0
  0
VERTEX
  5
C5
100
AcDbEntity
  8
0
370
     0
390
0
100
AcDbVertex
100
AcDb2dVertex
 10
8.023227
 20
0.581049
 30
0.0
  0
VERTEX
  5
C6
100
AcDbEntity
  8
0
370
     0
390
0
100
AcDbVertex
100
AcDb2dVertex
 10
8.024791
 20
0.584573
 30
0.0
  0
VERTEX
  5
C7
100
AcDbEntity
  8
0
370
     0
390
0
100
AcDbVertex
100
AcDb2dVertex
 10
8.026342
 20
0.587825
 30
0.0
  0
VERTEX
  5
C8
100
AcDbEntity
  8
0
370
     0
390
0
100
AcDbVertex
100
AcDb2dVertex
 10
8.027884
 20
0.590802
 30
0.0
  0
VERTEX
  5
C9
100
AcDbEntity
  8
0
370
     0
390
0
100
AcDbVertex
100
AcDb2dVertex
 10
8.029413
 20
0.593508
 30
0.0
  0
VERTEX
  5
CA
100
AcDbEntity
  8
0
370
     0
390
0
100
AcDbVertex
100
AcDb2dVertex
 10
8.030933
 20
0.595943
 30
0.0
  0
VERTEX
  5
CB
100
AcDbEntity
  8
0
370
     0
390
0
100
AcDbVertex
100
AcDb2dVertex
 10
8.032442
 20
0.598104
 30
0.0
  0
VERTEX
  5
CC
100
AcDbEntity
  8
0
370
     0
390
0
100
AcDbVertex
100
AcDb2dVertex
 10
8.03394
 20
0.599991
 30
0.0
  0
SEQEND
  5
CD
100
AcDbEntity
  8
0
370
     0
390
0
  0
POLYLINE
  5
CE
100
AcDbEntity
  8
0
370
    13
390
0
 62
     7
 48
0.03937
100
AcDb2dPolyline
 66
     1
 10
0.0
 20
0.0
 30
0.0
 70
     1
 71
    34
  0
VERTEX
  5
CF
100
AcDbEntity
  8
0
370
     0
390
0
100
AcDbVertex
100
AcDb2dVertex
 10
8.007766
 20
0.581604
 30
0.0
  0
VERTEX
  5
D0
100
AcDbEntity
  8
0
370
     0
390
0
100
AcDbVertex
100
AcDb2dVertex
 10
8.006072
 20
0.582632
 30
0.0
  0
VERTEX
  5
D1
100
AcDbEntity
  8
0
370
     0
390
0
100
AcDbVertex
100
AcDb2dVertex
 10
8.004322
 20
0.583551
 30
0.0
  0
VERTEX
  5
D2
100
AcDbEntity
  8
0
370
     0
390
0
100
AcDbVertex
100
AcDb2dVertex
 10
8.002516
 20
0.584363
 30
0.0
  0
VERTEX
  5
D3
100
AcDbEntity
  8
0
370
     0
390
0
100
AcDbVertex
100
AcDb2dVertex
 10
8.000652
 20
0.585066
 30
0.0
  0
VERTEX
  5
D4
100
AcDbEntity
  8
0
370
     0
390
0
100
AcDbVertex
100
AcDb2dVertex
 10
7.998734
 20
0.58566
 30
0.0
  0
VERTEX
  5
D5
100
AcDbEntity
  8
0
370
     0
390
0
100
AcDbVertex
100
AcDb2dVertex
 10
7.996758
 20
0.586148
 30
0.0
  0
VERTEX
  5
D6
100
AcDbEntity
  8
0
370
     0
390
0
100
AcDbVertex
100
AcDb2dVertex
 10
7.994728
 20
0.586526
 30
0.0
  0
VERTEX
  5
D7
100
AcDbEntity
  8
0
370
     0
390
0
100
AcDbVertex
100
AcDb2dVertex
 10
7.992641
 20
0.586796
 30
0.0
  0
VERTEX
  5
D8
100
AcDbEntity
  8
0
370
     0
390
0
100
AcDbVertex
100
AcDb2dVertex
 10
7.990496
 20
0.586959
 30
0.0
  0
VERTEX
  5
D9
100
AcDbEntity
  8
0
370
     0
390
0
100
AcDbVertex
100
AcDb2dVertex
 10
7.988297
 20
0.587013
 30
0.0
  0
VERTEX
  5
DA
100
AcDbEntity
  8
0
370
     0
390
0
100
AcDbVertex
100
AcDb2dVertex
 10
7.986785
 20
0.586983
 30
0.0
  0
VERTEX
  5
DB
100
AcDbEntity
  8
0
370
     0
390
0
100
AcDbVertex
100
AcDb2dVertex
 10
7.985234
 20
0.586896
 30
0.0
  0
VERTEX
  5
DC
100
AcDbEntity
  8
0
370
     0
390
0
100
AcDbVertex
100
AcDb2dVertex
 10
7.983644
 20
0.586751
 30
0.0
  0
VERTEX
  5
DD
100
AcDbEntity
  8
0
370
     0
390
0
100
AcDbVertex
100
AcDb2dVertex
 10
7.983538
 20
0.477987
 30
0.0
  0
VERTEX
  5
DE
100
AcDbEntity
  8
0
370
     0
390
0
100
AcDbVertex
100
AcDb2dVertex
 10
8.000735
 20
0.457653
 30
0.0
  0
VERTEX
  5
DF
100
AcDbEntity
  8
0
370
     0
390
0
100
AcDbVertex
100
AcDb2dVertex
 10
7.945466
 20
0.457653
 30
0.0
  0
VERTEX
  5
E0
100
AcDbEntity
  8
0
370
     0
390
0
100
AcDbVertex
100
AcDb2dVertex
 10
7.942978
 20
0.460574
 30
0.0
  0
VERTEX
  5
E1
100
AcDbEntity
  8
0
370
     0
390
0
100
AcDbVertex
100
AcDb2dVertex
 10
7.994786
 20
0.460574
 30
0.0
  0
VERTEX
  5
E2
100
AcDbEntity
  8
0
370
     0
390
0
100
AcDbVertex
100
AcDb2dVertex
 10
7.980293
 20
0.477123
 30
0.0
  0
VERTEX
  5
E3
100
AcDbEntity
  8
0
370
     0
390
0
100
AcDbVertex
100
AcDb2dVertex
 10
7.980293
 20
0.589826
 30
0.0
  0
VERTEX
  5
E4
100
AcDbEntity
  8
0
370
     0
390
0
100
AcDbVertex
100
AcDb2dVertex
 10
7.986134
 20
0.589934
 30
0.0
  0
VERTEX
  5
E5
100
AcDbEntity
  8
0
370
     0
390
0
100
AcDbVertex
100
AcDb2dVertex
 10
7.988171
 20
0.589916
 30
0.0
  0
VERTEX
  5
E6
100
AcDbEntity
  8
0
370
     0
390
0
100
AcDbVertex
100
AcDb2dVertex
 10
7.990086
 20
0.589866
 30
0.0
  0
VERTEX
  5
E7
100
AcDbEntity
  8
0
370
     0
390
0
100
AcDbVertex
100
AcDb2dVertex
 10
7.991879
 20
0.589782
 30
0.0
  0
VERTEX
  5
E8
100
AcDbEntity
  8
0
370
     0
390
0
100
AcDbVertex
100
AcDb2dVertex
 10
7.993549
 20
0.589665
 30
0.0
  0
VERTEX
  5
E9
100
AcDbEntity
  8
0
370
     0
390
0
100
AcDbVertex
100
AcDb2dVertex
 10
7.995098
 20
0.589514
 30
0.0
  0
VERTEX
  5
EA
100
AcDbEntity
  8
0
370
     0
390
0
100
AcDbVertex
100
AcDb2dVertex
 10
7.997828
 20
0.589112
 30
0.0
  0
VERTEX
  5
EB
100
AcDbEntity
  8
0
370
     0
390
0
100
AcDbVertex
100
AcDb2dVertex
 10
8.000069
 20
0.588575
 30
0.0
  0
VERTEX
  5
EC
100
AcDbEntity
  8
0
370
     0
390
0
100
AcDbVertex
100
AcDb2dVertex
 10
8.001862
 20
0.587888
 30
0.0
  0
VERTEX
  5
ED
100
AcDbEntity
  8
0
370
     0
390
0
100
AcDbVertex
100
AcDb2dVertex
 10
8.003455
 20
0.586953
 30
0.0
  0
VERTEX
  5
EE
100
AcDbEntity
  8
0
370
     0
390
0
100
AcDbVertex
100
AcDb2dVertex
 10
8.004886
 20
0.585755
 30
0.0
  0
VERTEX
  5
EF
100
AcDbEntity
  8
0
370
     0
390
0
100
AcDbVertex
100
AcDb2dVertex
 10
8.006157
 20
0.584294
 30
0.0
  0
VERTEX
  5
F0
100
AcDbEntity
  8
0
370
     0
390
0
100
AcDbVertex
100
AcDb2dVertex
 10
8.007269
 20
0.582567
 30
0.0
  0
SEQEND
  5
F1
100
AcDbEntity
  8
0
370
     0
390
0
  0
POLYLINE
  5
F2
100
AcDbEntity
  8
0
370
    13
390
0
 62
     7
 48
0.03937
100
AcDb2dPolyline
 66
     1
 10
0.0
 20
0.0
 30
0.0
 70
     1
 71
   138
  0
VERTEX
  5
F3
100
AcDbEntity
  8
0
370
     0
390
0
100
AcDbVertex
100
AcDb2dVertex
 10
8.03978
 20
0.605292
 30
0.0
  0
VERTEX
  5
F4
100
AcDbEntity
  8
0
370
     0
390
0
100
AcDbVertex
100
AcDb2dVertex
 10
8.152051
 20
0.605292
 30
0.0
  0
VERTEX
  5
F5
100
AcDbEntity
  8
0
370
     0
390
0
100
AcDbVertex
100
AcDb2dVertex
 10
8.150747
 20
0.603555
 30
0.0
  0
VERTEX
  5
F6
100
AcDbEntity
  8
0
370
     0
390
0
100
AcDbVertex
100
AcDb2dVertex
 10
8.149522
 20
0.601895
 30
0.0
  0
VERTEX
  5
F7
100
AcDbEntity
  8
0
370
     0
390
0
100
AcDbVertex
100
AcDb2dVertex
 10
8.148372
 20
0.600311
 30
0.0
  0
VERTEX
  5
F8
100
AcDbEntity
  8
0
370
     0
390
0
100
AcDbVertex
100
AcDb2dVertex
 10
8.1473
 20
0.598802
 30
0.0
  0
VERTEX
  5
F9
100
AcDbEntity
  8
0
370
     0
390
0
100
AcDbVertex
100
AcDb2dVertex
 10
8.146304
 20
0.597369
 30
0.0
  0
VERTEX
  5
FA
100
AcDbEntity
  8
0
370
     0
390
0
100
AcDbVertex
100
AcDb2dVertex
 10
8.145386
 20
0.596012
 30
0.0
  0
VERTEX
  5
FB
100
AcDbEntity
  8
0
370
     0
390
0
100
AcDbVertex
100
AcDb2dVertex
 10
8.144543
 20
0.594729
 30
0.0
  0
VERTEX
  5
FC
100
AcDbEntity
  8
0
370
     0
390
0
100
AcDbVertex
100
AcDb2dVertex
 10
8.143089
 20
0.592394
 30
0.0
  0
VERTEX
  5
FD
100
AcDbEntity
  8
0
370
     0
390
0
100
AcDbVertex
100
AcDb2dVertex
 10
8.14189
 20
0.590261
 30
0.0
  0
VERTEX
  5
FE
100
AcDbEntity
  8
0
370
     0
390
0
100
AcDbVertex
100
AcDb2dVertex
 10
8.140617
 20
0.587735
 30
0.0
  0
VERTEX
  5
FF
100
AcDbEntity
  8
0
370
     0
390
0
100
AcDbVertex
100
AcDb2dVertex
 10
8.139935
 20
0.586286
 30
0.0
  0
VERTEX
  5
100
100
AcDbEntity
  8
0
370
     0
390
0
100
AcDbVertex
100
AcDb2dVertex
 10
8.13922
 20
0.584714
 30
0.0
  0
VERTEX
  5
101
100
AcDbEntity
  8
0
370
     0
390
0
100
AcDbVertex
100
AcDb2dVertex
 10
8.138474
 20
0.583019
 30
0.0
  0
VERTEX
  5
102
100
AcDbEntity
  8
0
370
     0
390
0
100
AcDbVertex
100
AcDb2dVertex
 10
8.137697
 20
0.581201
 30
0.0
  0
VERTEX
  5
103
100
AcDbEntity
  8
0
370
     0
390
0
100
AcDbVertex
100
AcDb2dVertex
 10
8.136889
 20
0.57926
 30
0.0
  0
VERTEX
  5
104
100
AcDbEntity
  8
0
370
     0
390
0
100
AcDbVertex
100
AcDb2dVertex
 10
8.136049
 20
0.577196
 30
0.0
  0
VERTEX
  5
105
100
AcDbEntity
  8
0
370
     0
390
0
100
AcDbVertex
100
AcDb2dVertex
 10
8.135177
 20
0.575007
 30
0.0
  0
VERTEX
  5
106
100
AcDbEntity
  8
0
370
     0
390
0
100
AcDbVertex
100
AcDb2dVertex
 10
8.134311
 20
0.572844
 30
0.0
  0
VERTEX
  5
107
100
AcDbEntity
  8
0
370
     0
390
0
100
AcDbVertex
100
AcDb2dVertex
 10
8.132887
 20
0.575682
 30
0.0
  0
VERTEX
  5
108
100
AcDbEntity
  8
0
370
     0
390
0
100
AcDbVertex
100
AcDb2dVertex
 10
8.131463
 20
0.578313
 30
0.0
  0
VERTEX
  5
109
100
AcDbEntity
  8
0
370
     0
390
0
100
AcDbVertex
100
AcDb2dVertex
 10
8.130044
 20
0.580736
 30
0.0
  0
VERTEX
  5
10A
100
AcDbEntity
  8
0
370
     0
390
0
100
AcDbVertex
100
AcDb2dVertex
 10
8.128628
 20
0.582951
 30
0.0
  0
VERTEX
  5
10B
100
AcDbEntity
  8
0
370
     0
390
0
100
AcDbVertex
100
AcDb2dVertex
 10
8.127215
 20
0.584958
 30
0.0
  0
VERTEX
  5
10C
100
AcDbEntity
  8
0
370
     0
390
0
100
AcDbVertex
100
AcDb2dVertex
 10
8.125804
 20
0.586758
 30
0.0
  0
VERTEX
  5
10D
100
AcDbEntity
  8
0
370
     0
390
0
100
AcDbVertex
100
AcDb2dVertex
 10
8.124398
 20
0.58835
 30
0.0
  0
VERTEX
  5
10E
100
AcDbEntity
  8
0
370
     0
390
0
100
AcDbVertex
100
AcDb2dVertex
 10
8.122994
 20
0.589734
 30
0.0
  0
VERTEX
  5
10F
100
AcDbEntity
  8
0
370
     0
390
0
100
AcDbVertex
100
AcDb2dVertex
 10
8.121594
 20
0.59091
 30
0.0
  0
VERTEX
  5
110
100
AcDbEntity
  8
0
370
     0
390
0
100
AcDbVertex
100
AcDb2dVertex
 10
8.120198
 20
0.591881
 30
0.0
  0
VERTEX
  5
111
100
AcDbEntity
  8
0
370
     0
390
0
100
AcDbVertex
100
AcDb2dVertex
 10
8.118707
 20
0.592701
 30
0.0
  0
VERTEX
  5
112
100
AcDbEntity
  8
0
370
     0
390
0
100
AcDbVertex
100
AcDb2dVertex
 10
8.117024
 20
0.593438
 30
0.0
  0
VERTEX
  5
113
100
AcDbEntity
  8
0
370
     0
390
0
100
AcDbVertex
100
AcDb2dVertex
 10
8.11515
 20
0.594086
 30
0.0
  0
VERTEX
  5
114
100
AcDbEntity
  8
0
370
     0
390
0
100
AcDbVertex
100
AcDb2dVertex
 10
8.113085
 20
0.594648
 30
0.0
  0
VERTEX
  5
115
100
AcDbEntity
  8
0
370
     0
390
0
100
AcDbVertex
100
AcDb2dVertex
 10
8.110827
 20
0.595125
 30
0.0
  0
VERTEX
  5
116
100
AcDbEntity
  8
0
370
     0
390
0
100
AcDbVertex
100
AcDb2dVertex
 10
8.108379
 20
0.595514
 30
0.0
  0
VERTEX
  5
117
100
AcDbEntity
  8
0
370
     0
390
0
100
AcDbVertex
100
AcDb2dVertex
 10
8.10574
 20
0.595817
 30
0.0
  0
VERTEX
  5
118
100
AcDbEntity
  8
0
370
     0
390
0
100
AcDbVertex
100
AcDb2dVertex
 10
8.102909
 20
0.596033
 30
0.0
  0
VERTEX
  5
119
100
AcDbEntity
  8
0
370
     0
390
0
100
AcDbVertex
100
AcDb2dVertex
 10
8.099887
 20
0.596163
 30
0.0
  0
VERTEX
  5
11A
100
AcDbEntity
  8
0
370
     0
390
0
100
AcDbVertex
100
AcDb2dVertex
 10
8.096672
 20
0.596207
 30
0.0
  0
VERTEX
  5
11B
100
AcDbEntity
  8
0
370
     0
390
0
100
AcDbVertex
100
AcDb2dVertex
 10
8.090507
 20
0.596099
 30
0.0
  0
VERTEX
  5
11C
100
AcDbEntity
  8
0
370
     0
390
0
100
AcDbVertex
100
AcDb2dVertex
 10
8.080016
 20
0.596207
 30
0.0
  0
VERTEX
  5
11D
100
AcDbEntity
  8
0
370
     0
390
0
100
AcDbVertex
100
AcDb2dVertex
 10
8.076014
 20
0.596315
 30
0.0
  0
VERTEX
  5
11E
100
AcDbEntity
  8
0
370
     0
390
0
100
AcDbVertex
100
AcDb2dVertex
 10
8.076014
 20
0.545696
 30
0.0
  0
VERTEX
  5
11F
100
AcDbEntity
  8
0
370
     0
390
0
100
AcDbVertex
100
AcDb2dVertex
 10
8.082612
 20
0.545696
 30
0.0
  0
VERTEX
  5
120
100
AcDbEntity
  8
0
370
     0
390
0
100
AcDbVertex
100
AcDb2dVertex
 10
8.082612
 20
0.590366
 30
0.0
  0
VERTEX
  5
121
100
AcDbEntity
  8
0
370
     0
390
0
100
AcDbVertex
100
AcDb2dVertex
 10
8.085749
 20
0.590474
 30
0.0
  0
VERTEX
  5
122
100
AcDbEntity
  8
0
370
     0
390
0
100
AcDbVertex
100
AcDb2dVertex
 10
8.088465
 20
0.590591
 30
0.0
  0
VERTEX
  5
123
100
AcDbEntity
  8
0
370
     0
390
0
100
AcDbVertex
100
AcDb2dVertex
 10
8.091251
 20
0.590682
 30
0.0
  0
VERTEX
  5
124
100
AcDbEntity
  8
0
370
     0
390
0
100
AcDbVertex
100
AcDb2dVertex
 10
8.094107
 20
0.590747
 30
0.0
  0
VERTEX
  5
125
100
AcDbEntity
  8
0
370
     0
390
0
100
AcDbVertex
100
AcDb2dVertex
 10
8.097032
 20
0.590786
 30
0.0
  0
VERTEX
  5
126
100
AcDbEntity
  8
0
370
     0
390
0
100
AcDbVertex
100
AcDb2dVertex
 10
8.100026
 20
0.590798
 30
0.0
  0
VERTEX
  5
127
100
AcDbEntity
  8
0
370
     0
390
0
100
AcDbVertex
100
AcDb2dVertex
 10
8.104273
 20
0.590684
 30
0.0
  0
VERTEX
  5
128
100
AcDbEntity
  8
0
370
     0
390
0
100
AcDbVertex
100
AcDb2dVertex
 10
8.108189
 20
0.59034
 30
0.0
  0
VERTEX
  5
129
100
AcDbEntity
  8
0
370
     0
390
0
100
AcDbVertex
100
AcDb2dVertex
 10
8.111775
 20
0.589767
 30
0.0
  0
VERTEX
  5
12A
100
AcDbEntity
  8
0
370
     0
390
0
100
AcDbVertex
100
AcDb2dVertex
 10
8.115029
 20
0.588965
 30
0.0
  0
VERTEX
  5
12B
100
AcDbEntity
  8
0
370
     0
390
0
100
AcDbVertex
100
AcDb2dVertex
 10
8.117954
 20
0.587933
 30
0.0
  0
VERTEX
  5
12C
100
AcDbEntity
  8
0
370
     0
390
0
100
AcDbVertex
100
AcDb2dVertex
 10
8.120546
 20
0.586671
 30
0.0
  0
VERTEX
  5
12D
100
AcDbEntity
  8
0
370
     0
390
0
100
AcDbVertex
100
AcDb2dVertex
 10
8.122807
 20
0.58518
 30
0.0
  0
VERTEX
  5
12E
100
AcDbEntity
  8
0
370
     0
390
0
100
AcDbVertex
100
AcDb2dVertex
 10
8.124737
 20
0.583461
 30
0.0
  0
VERTEX
  5
12F
100
AcDbEntity
  8
0
370
     0
390
0
100
AcDbVertex
100
AcDb2dVertex
 10
8.126338
 20
0.581511
 30
0.0
  0
VERTEX
  5
130
100
AcDbEntity
  8
0
370
     0
390
0
100
AcDbVertex
100
AcDb2dVertex
 10
8.127607
 20
0.579333
 30
0.0
  0
VERTEX
  5
131
100
AcDbEntity
  8
0
370
     0
390
0
100
AcDbVertex
100
AcDb2dVertex
 10
8.125449
 20
0.581235
 30
0.0
  0
VERTEX
  5
132
100
AcDbEntity
  8
0
370
     0
390
0
100
AcDbVertex
100
AcDb2dVertex
 10
8.123219
 20
0.582873
 30
0.0
  0
VERTEX
  5
133
100
AcDbEntity
  8
0
370
     0
390
0
100
AcDbVertex
100
AcDb2dVertex
 10
8.120915
 20
0.584246
 30
0.0
  0
VERTEX
  5
134
100
AcDbEntity
  8
0
370
     0
390
0
100
AcDbVertex
100
AcDb2dVertex
 10
8.118538
 20
0.585356
 30
0.0
  0
VERTEX
  5
135
100
AcDbEntity
  8
0
370
     0
390
0
100
AcDbVertex
100
AcDb2dVertex
 10
8.116087
 20
0.586202
 30
0.0
  0
VERTEX
  5
136
100
AcDbEntity
  8
0
370
     0
390
0
100
AcDbVertex
100
AcDb2dVertex
 10
8.113329
 20
0.586844
 30
0.0
  0
VERTEX
  5
137
100
AcDbEntity
  8
0
370
     0
390
0
100
AcDbVertex
100
AcDb2dVertex
 10
8.111747
 20
0.587112
 30
0.0
  0
VERTEX
  5
138
100
AcDbEntity
  8
0
370
     0
390
0
100
AcDbVertex
100
AcDb2dVertex
 10
8.110031
 20
0.587343
 30
0.0
  0
VERTEX
  5
139
100
AcDbEntity
  8
0
370
     0
390
0
100
AcDbVertex
100
AcDb2dVertex
 10
8.108179
 20
0.58754
 30
0.0
  0
VERTEX
  5
13A
100
AcDbEntity
  8
0
370
     0
390
0
100
AcDbVertex
100
AcDb2dVertex
 10
8.106191
 20
0.5877
 30
0.0
  0
VERTEX
  5
13B
100
AcDbEntity
  8
0
370
     0
390
0
100
AcDbVertex
100
AcDb2dVertex
 10
8.104068
 20
0.587826
 30
0.0
  0
VERTEX
  5
13C
100
AcDbEntity
  8
0
370
     0
390
0
100
AcDbVertex
100
AcDb2dVertex
 10
8.101811
 20
0.587915
 30
0.0
  0
VERTEX
  5
13D
100
AcDbEntity
  8
0
370
     0
390
0
100
AcDbVertex
100
AcDb2dVertex
 10
8.099417
 20
0.587969
 30
0.0
  0
VERTEX
  5
13E
100
AcDbEntity
  8
0
370
     0
390
0
100
AcDbVertex
100
AcDb2dVertex
 10
8.09689
 20
0.587987
 30
0.0
  0
VERTEX
  5
13F
100
AcDbEntity
  8
0
370
     0
390
0
100
AcDbVertex
100
AcDb2dVertex
 10
8.094938
 20
0.587964
 30
0.0
  0
VERTEX
  5
140
100
AcDbEntity
  8
0
370
     0
390
0
100
AcDbVertex
100
AcDb2dVertex
 10
8.092805
 20
0.5879
 30
0.0
  0
VERTEX
  5
141
100
AcDbEntity
  8
0
370
     0
390
0
100
AcDbVertex
100
AcDb2dVertex
 10
8.090491
 20
0.587792
 30
0.0
  0
VERTEX
  5
142
100
AcDbEntity
  8
0
370
     0
390
0
100
AcDbVertex
100
AcDb2dVertex
 10
8.087994
 20
0.58764
 30
0.0
  0
VERTEX
  5
143
100
AcDbEntity
  8
0
370
     0
390
0
100
AcDbVertex
100
AcDb2dVertex
 10
8.085316
 20
0.587445
 30
0.0
  0
VERTEX
  5
144
100
AcDbEntity
  8
0
370
     0
390
0
100
AcDbVertex
100
AcDb2dVertex
 10
8.085316
 20
0.545696
 30
0.0
  0
VERTEX
  5
145
100
AcDbEntity
  8
0
370
     0
390
0
100
AcDbVertex
100
AcDb2dVertex
 10
8.101647
 20
0.545696
 30
0.0
  0
VERTEX
  5
146
100
AcDbEntity
  8
0
370
     0
390
0
100
AcDbVertex
100
AcDb2dVertex
 10
8.118953
 20
0.563975
 30
0.0
  0
VERTEX
  5
147
100
AcDbEntity
  8
0
370
     0
390
0
100
AcDbVertex
100
AcDb2dVertex
 10
8.118953
 20
0.518655
 30
0.0
  0
VERTEX
  5
148
100
AcDbEntity
  8
0
370
     0
390
0
100
AcDbVertex
100
AcDb2dVertex
 10
8.100782
 20
0.53661
 30
0.0
  0
VERTEX
  5
149
100
AcDbEntity
  8
0
370
     0
390
0
100
AcDbVertex
100
AcDb2dVertex
 10
8.076014
 20
0.53661
 30
0.0
  0
VERTEX
  5
14A
100
AcDbEntity
  8
0
370
     0
390
0
100
AcDbVertex
100
AcDb2dVertex
 10
8.076014
 20
0.482097
 30
0.0
  0
VERTEX
  5
14B
100
AcDbEntity
  8
0
370
     0
390
0
100
AcDbVertex
100
AcDb2dVertex
 10
8.089859
 20
0.468038
 30
0.0
  0
VERTEX
  5
14C
100
AcDbEntity
  8
0
370
     0
390
0
100
AcDbVertex
100
AcDb2dVertex
 10
8.036753
 20
0.468038
 30
0.0
  0
VERTEX
  5
14D
100
AcDbEntity
  8
0
370
     0
390
0
100
AcDbVertex
100
AcDb2dVertex
 10
8.054382
 20
0.482097
 30
0.0
  0
VERTEX
  5
14E
100
AcDbEntity
  8
0
370
     0
390
0
100
AcDbVertex
100
AcDb2dVertex
 10
8.054382
 20
0.528606
 30
0.0
  0
VERTEX
  5
14F
100
AcDbEntity
  8
0
370
     0
390
0
100
AcDbVertex
100
AcDb2dVertex
 10
8.052737
 20
0.528543
 30
0.0
  0
VERTEX
  5
150
100
AcDbEntity
  8
0
370
     0
390
0
100
AcDbVertex
100
AcDb2dVertex
 10
8.051134
 20
0.528356
 30
0.0
  0
VERTEX
  5
151
100
AcDbEntity
  8
0
370
     0
390
0
100
AcDbVertex
100
AcDb2dVertex
 10
8.049571
 20
0.528042
 30
0.0
  0
VERTEX
  5
152
100
AcDbEntity
  8
0
370
     0
390
0
100
AcDbVertex
100
AcDb2dVertex
 10
8.048048
 20
0.527603
 30
0.0
  0
VERTEX
  5
153
100
AcDbEntity
  8
0
370
     0
390
0
100
AcDbVertex
100
AcDb2dVertex
 10
8.046567
 20
0.527039
 30
0.0
  0
VERTEX
  5
154
100
AcDbEntity
  8
0
370
     0
390
0
100
AcDbVertex
100
AcDb2dVertex
 10
8.045129
 20
0.526349
 30
0.0
  0
VERTEX
  5
155
100
AcDbEntity
  8
0
370
     0
390
0
100
AcDbVertex
100
AcDb2dVertex
 10
8.04373
 20
0.525533
 30
0.0
  0
VERTEX
  5
156
100
AcDbEntity
  8
0
370
     0
390
0
100
AcDbVertex
100
AcDb2dVertex
 10
8.042372
 20
0.524592
 30
0.0
  0
VERTEX
  5
157
100
AcDbEntity
  8
0
370
     0
390
0
100
AcDbVertex
100
AcDb2dVertex
 10
8.041057
 20
0.523526
 30
0.0
  0
VERTEX
  5
158
100
AcDbEntity
  8
0
370
     0
390
0
100
AcDbVertex
100
AcDb2dVertex
 10
8.03978
 20
0.522333
 30
0.0
  0
VERTEX
  5
159
100
AcDbEntity
  8
0
370
     0
390
0
100
AcDbVertex
100
AcDb2dVertex
 10
8.037725
 20
0.524604
 30
0.0
  0
VERTEX
  5
15A
100
AcDbEntity
  8
0
370
     0
390
0
100
AcDbVertex
100
AcDb2dVertex
 10
8.039021
 20
0.52592
 30
0.0
  0
VERTEX
  5
15B
100
AcDbEntity
  8
0
370
     0
390
0
100
AcDbVertex
100
AcDb2dVertex
 10
8.0404
 20
0.527097
 30
0.0
  0
VERTEX
  5
15C
100
AcDbEntity
  8
0
370
     0
390
0
100
AcDbVertex
100
AcDb2dVertex
 10
8.041859
 20
0.528135
 30
0.0
  0
VERTEX
  5
15D
100
AcDbEntity
  8
0
370
     0
390
0
100
AcDbVertex
100
AcDb2dVertex
 10
8.043403
 20
0.529035
 30
0.0
  0
VERTEX
  5
15E
100
AcDbEntity
  8
0
370
     0
390
0
100
AcDbVertex
100
AcDb2dVertex
 10
8.045027
 20
0.529796
 30
0.0
  0
VERTEX
  5
15F
100
AcDbEntity
  8
0
370
     0
390
0
100
AcDbVertex
100
AcDb2dVertex
 10
8.046733
 20
0.53042
 30
0.0
  0
VERTEX
  5
160
100
AcDbEntity
  8
0
370
     0
390
0
100
AcDbVertex
100
AcDb2dVertex
 10
8.048522
 20
0.530904
 30
0.0
  0
VERTEX
  5
161
100
AcDbEntity
  8
0
370
     0
390
0
100
AcDbVertex
100
AcDb2dVertex
 10
8.050394
 20
0.531249
 30
0.0
  0
VERTEX
  5
162
100
AcDbEntity
  8
0
370
     0
390
0
100
AcDbVertex
100
AcDb2dVertex
 10
8.052347
 20
0.531458
 30
0.0
  0
VERTEX
  5
163
100
AcDbEntity
  8
0
370
     0
390
0
100
AcDbVertex
100
AcDb2dVertex
 10
8.054382
 20
0.531527
 30
0.0
  0
VERTEX
  5
164
100
AcDbEntity
  8
0
370
     0
390
0
100
AcDbVertex
100
AcDb2dVertex
 10
8.054382
 20
0.53661
 30
0.0
  0
VERTEX
  5
165
100
AcDbEntity
  8
0
370
     0
390
0
100
AcDbVertex
100
AcDb2dVertex
 10
8.052773
 20
0.536748
 30
0.0
  0
VERTEX
  5
166
100
AcDbEntity
  8
0
370
     0
390
0
100
AcDbVertex
100
AcDb2dVertex
 10
8.051138
 20
0.536826
 30
0.0
  0
VERTEX
  5
167
100
AcDbEntity
  8
0
370
     0
390
0
100
AcDbVertex
100
AcDb2dVertex
 10
8.049152
 20
0.536744
 30
0.0
  0
VERTEX
  5
168
100
AcDbEntity
  8
0
370
     0
390
0
100
AcDbVertex
100
AcDb2dVertex
 10
8.047222
 20
0.536498
 30
0.0
  0
VERTEX
  5
169
100
AcDbEntity
  8
0
370
     0
390
0
100
AcDbVertex
100
AcDb2dVertex
 10
8.045345
 20
0.536087
 30
0.0
  0
VERTEX
  5
16A
100
AcDbEntity
  8
0
370
     0
390
0
100
AcDbVertex
100
AcDb2dVertex
 10
8.043522
 20
0.535512
 30
0.0
  0
VERTEX
  5
16B
100
AcDbEntity
  8
0
370
     0
390
0
100
AcDbVertex
100
AcDb2dVertex
 10
8.041754
 20
0.534771
 30
0.0
  0
VERTEX
  5
16C
100
AcDbEntity
  8
0
370
     0
390
0
100
AcDbVertex
100
AcDb2dVertex
 10
8.04004
 20
0.533868
 30
0.0
  0
VERTEX
  5
16D
100
AcDbEntity
  8
0
370
     0
390
0
100
AcDbVertex
100
AcDb2dVertex
 10
8.038381
 20
0.532799
 30
0.0
  0
VERTEX
  5
16E
100
AcDbEntity
  8
0
370
     0
390
0
100
AcDbVertex
100
AcDb2dVertex
 10
8.036774
 20
0.531566
 30
0.0
  0
VERTEX
  5
16F
100
AcDbEntity
  8
0
370
     0
390
0
100
AcDbVertex
100
AcDb2dVertex
 10
8.035222
 20
0.530168
 30
0.0
  0
VERTEX
  5
170
100
AcDbEntity
  8
0
370
     0
390
0
100
AcDbVertex
100
AcDb2dVertex
 10
8.033725
 20
0.528606
 30
0.0
  0
VERTEX
  5
171
100
AcDbEntity
  8
0
370
     0
390
0
100
AcDbVertex
100
AcDb2dVertex
 10
8.032967
 20
0.530337
 30
0.0
  0
VERTEX
  5
172
100
AcDbEntity
  8
0
370
     0
390
0
100
AcDbVertex
100
AcDb2dVertex
 10
8.034058
 20
0.533022
 30
0.0
  0
VERTEX
  5
173
100
AcDbEntity
  8
0
370
     0
390
0
100
AcDbVertex
100
AcDb2dVertex
 10
8.03538
 20
0.535451
 30
0.0
  0
VERTEX
  5
174
100
AcDbEntity
  8
0
370
     0
390
0
100
AcDbVertex
100
AcDb2dVertex
 10
8.036938
 20
0.537626
 30
0.0
  0
VERTEX
  5
175
100
AcDbEntity
  8
0
370
     0
390
0
100
AcDbVertex
100
AcDb2dVertex
 10
8.03873
 20
0.539544
 30
0.0
  0
VERTEX
  5
176
100
AcDbEntity
  8
0
370
     0
390
0
100
AcDbVertex
100
AcDb2dVertex
 10
8.040755
 20
0.541208
 30
0.0
  0
VERTEX
  5
177
100
AcDbEntity
  8
0
370
     0
390
0
100
AcDbVertex
100
AcDb2dVertex
 10
8.043013
 20
0.542615
 30
0.0
  0
VERTEX
  5
178
100
AcDbEntity
  8
0
370
     0
390
0
100
AcDbVertex
100
AcDb2dVertex
 10
8.045504
 20
0.543768
 30
0.0
  0
VERTEX
  5
179
100
AcDbEntity
  8
0
370
     0
390
0
100
AcDbVertex
100
AcDb2dVertex
 10
8.048231
 20
0.544665
 30
0.0
  0
VERTEX
  5
17A
100
AcDbEntity
  8
0
370
     0
390
0
100
AcDbVertex
100
AcDb2dVertex
 10
8.051189
 20
0.545309
 30
0.0
  0
VERTEX
  5
17B
100
AcDbEntity
  8
0
370
     0
390
0
100
AcDbVertex
100
AcDb2dVertex
 10
8.054382
 20
0.545696
 30
0.0
  0
VERTEX
  5
17C
100
AcDbEntity
  8
0
370
     0
390
0
100
AcDbVertex
100
AcDb2dVertex
 10
8.054382
 20
0.591339
 30
0.0
  0
SEQEND
  5
17D
100
AcDbEntity
  8
0
370
     0
390
0
  0
POLYLINE
  5
17E
100
AcDbEntity
  8
0
370
    13
390
0
 62
     7
 48
0.03937
100
AcDb2dPolyline
 66
     1
 10
0.0
 20
0.0
 30
0.0
 70
     1
 71
    22
  0
VERTEX
  5
17F
100
AcDbEntity
  8
0
370
     0
390
0
100
AcDbVertex
100
AcDb2dVertex
 10
8.160271
 20
0.598694
 30
0.0
  0
VERTEX
  5
180
100
AcDbEntity
  8
0
370
     0
390
0
100
AcDbVertex
100
AcDb2dVertex
 10
8.157292
 20
0.595112
 30
0.0
  0
VERTEX
  5
181
100
AcDbEntity
  8
0
370
     0
390
0
100
AcDbVertex
100
AcDb2dVertex
 10
8.154542
 20
0.59159
 30
0.0
  0
VERTEX
  5
182
100
AcDbEntity
  8
0
370
     0
390
0
100
AcDbVertex
100
AcDb2dVertex
 10
8.152022
 20
0.588129
 30
0.0
  0
VERTEX
  5
183
100
AcDbEntity
  8
0
370
     0
390
0
100
AcDbVertex
100
AcDb2dVertex
 10
8.149732
 20
0.584729
 30
0.0
  0
VERTEX
  5
184
100
AcDbEntity
  8
0
370
     0
390
0
100
AcDbVertex
100
AcDb2dVertex
 10
8.147671
 20
0.581388
 30
0.0
  0
VERTEX
  5
185
100
AcDbEntity
  8
0
370
     0
390
0
100
AcDbVertex
100
AcDb2dVertex
 10
8.145838
 20
0.578109
 30
0.0
  0
VERTEX
  5
186
100
AcDbEntity
  8
0
370
     0
390
0
100
AcDbVertex
100
AcDb2dVertex
 10
8.144234
 20
0.57489
 30
0.0
  0
VERTEX
  5
187
100
AcDbEntity
  8
0
370
     0
390
0
100
AcDbVertex
100
AcDb2dVertex
 10
8.142862
 20
0.571733
 30
0.0
  0
VERTEX
  5
188
100
AcDbEntity
  8
0
370
     0
390
0
100
AcDbVertex
100
AcDb2dVertex
 10
8.141717
 20
0.568634
 30
0.0
  0
VERTEX
  5
189
100
AcDbEntity
  8
0
370
     0
390
0
100
AcDbVertex
100
AcDb2dVertex
 10
8.140802
 20
0.565596
 30
0.0
  0
VERTEX
  5
18A
100
AcDbEntity
  8
0
370
     0
390
0
100
AcDbVertex
100
AcDb2dVertex
 10
8.138531
 20
0.567111
 30
0.0
  0
VERTEX
  5
18B
100
AcDbEntity
  8
0
370
     0
390
0
100
AcDbVertex
100
AcDb2dVertex
 10
8.139469
 20
0.570503
 30
0.0
  0
VERTEX
  5
18C
100
AcDbEntity
  8
0
370
     0
390
0
100
AcDbVertex
100
AcDb2dVertex
 10
8.140637
 20
0.573882
 30
0.0
  0
VERTEX
  5
18D
100
AcDbEntity
  8
0
370
     0
390
0
100
AcDbVertex
100
AcDb2dVertex
 10
8.142038
 20
0.577251
 30
0.0
  0
VERTEX
  5
18E
100
AcDbEntity
  8
0
370
     0
390
0
100
AcDbVertex
100
AcDb2dVertex
 10
8.14367
 20
0.58061
 30
0.0
  0
VERTEX
  5
18F
100
AcDbEntity
  8
0
370
     0
390
0
100
AcDbVertex
100
AcDb2dVertex
 10
8.145533
 20
0.583958
 30
0.0
  0
VERTEX
  5
190
100
AcDbEntity
  8
0
370
     0
390
0
100
AcDbVertex
100
AcDb2dVertex
 10
8.147629
 20
0.587294
 30
0.0
  0
VERTEX
  5
191
100
AcDbEntity
  8
0
370
     0
390
0
100
AcDbVertex
100
AcDb2dVertex
 10
8.149955
 20
0.590619
 30
0.0
  0
VERTEX
  5
192
100
AcDbEntity
  8
0
370
     0
390
0
100
AcDbVertex
100
AcDb2dVertex
 10
8.152513
 20
0.593936
 30
0.0
  0
VERTEX
  5
193
100
AcDbEntity
  8
0
370
     0
390
0
100
AcDbVertex
100
AcDb2dVertex
 10
8.155303
 20
0.597239
 30
0.0
  0
VERTEX
  5
194
100
AcDbEntity
  8
0
370
     0
390
0
100
AcDbVertex
100
AcDb2dVertex
 10
8.158324
 20
0.600533
 30
0.0
  0
SEQEND
  5
195
100
AcDbEntity
  8
0
370
     0
390
0
  0
POLYLINE
  5
196
100
AcDbEntity
  8
0
370
    13
390
0
 62
     7
 48
0.03937
100
AcDb2dPolyline
 66
     1
 10
0.0
 20
0.0
 30
0.0
 70
     1
 71
     4
  0
VERTEX
  5
197
100
AcDbEntity
  8
0
370
     0
390
0
100
AcDbVertex
100
AcDb2dVertex
 10
8.126849
 20
0.560189
 30
0.0
  0
VERTEX
  5
198
100
AcDbEntity
  8
0
370
     0
390
0
100
AcDbVertex
100
AcDb2dVertex
 10
8.126849
 20
0.513464
 30
0.0
  0
VERTEX
  5
199
100
AcDbEntity
  8
0
370
     0
390
0
100
AcDbVertex
100
AcDb2dVertex
 10
8.124036
 20
0.515087
 30
0.0
  0
VERTEX
  5
19A
100
AcDbEntity
  8
0
370
     0
390
0
100
AcDbVertex
100
AcDb2dVertex
 10
8.124036
 20
0.561812
 30
0.0
  0
SEQEND
  5
19B
100
AcDbEntity
  8
0
370
     0
390
0
  0
POLYLINE
  5
19C
100
AcDbEntity
  8
0
370
    13
390
0
 62
     7
 48
0.03937
100
AcDb2dPolyline
 66
     1
 10
0.0
 20
0.0
 30
0.0
 70
     1
 71
    10
  0
VERTEX
  5
19D
100
AcDbEntity
  8
0
370
     0
390
0
100
AcDbVertex
100
AcDb2dVertex
 10
8.107488
 20
0.527525
 30
0.0
  0
VERTEX
  5
19E
100
AcDbEntity
  8
0
370
     0
390
0
100
AcDbVertex
100
AcDb2dVertex
 10
8.085316
 20
0.527525
 30
0.0
  0
VERTEX
  5
19F
100
AcDbEntity
  8
0
370
     0
390
0
100
AcDbVertex
100
AcDb2dVertex
 10
8.085316
 20
0.481233
 30
0.0
  0
VERTEX
  5
1A0
100
AcDbEntity
  8
0
370
     0
390
0
100
AcDbVertex
100
AcDb2dVertex
 10
8.104352
 20
0.457653
 30
0.0
  0
VERTEX
  5
1A1
100
AcDbEntity
  8
0
370
     0
390
0
100
AcDbVertex
100
AcDb2dVertex
 10
8.041727
 20
0.457653
 30
0.0
  0
VERTEX
  5
1A2
100
AcDbEntity
  8
0
370
     0
390
0
100
AcDbVertex
100
AcDb2dVertex
 10
8.039024
 20
0.460574
 30
0.0
  0
VERTEX
  5
1A3
100
AcDbEntity
  8
0
370
     0
390
0
100
AcDbVertex
100
AcDb2dVertex
 10
8.098295
 20
0.460574
 30
0.0
  0
VERTEX
  5
1A4
100
AcDbEntity
  8
0
370
     0
390
0
100
AcDbVertex
100
AcDb2dVertex
 10
8.082612
 20
0.479934
 30
0.0
  0
VERTEX
  5
1A5
100
AcDbEntity
  8
0
370
     0
390
0
100
AcDbVertex
100
AcDb2dVertex
 10
8.082612
 20
0.530445
 30
0.0
  0
VERTEX
  5
1A6
100
AcDbEntity
  8
0
370
     0
390
0
100
AcDbVertex
100
AcDb2dVertex
 10
8.104352
 20
0.530445
 30
0.0
  0
SEQEND
  5
1A7
100
AcDbEntity
  8
0
370
     0
390
0
  0
CIRCLE
  5
1A8
100
AcDbEntity
  8
0
370
    35
390
0
 62
     7
 48
0.03937
100
AcDbCircle
 10
4.761898
 20
6.144889
 30
0.0
 40
0.2625
210
0.0
220
0.0
230
1.0
  0
CIRCLE
  5
1A9
100
AcDbEntity
  8
0
370
    35
390
0
 62
     7
 48
0.03937
100
AcDbCircle
 10
3.536898
 20
4.919889
 30
0.0
 40
0.2625
210
0.0
220
0.0
230
1.0
  0
CIRCLE
  5
1AA
100
AcDbEntity
  8
0
370
    35
390
0
 62
     7
 48
0.03937
100
AcDbCircle
 10
3.536898
 20
7.369889
 30
0.0
 40
0.2625
210
0.0
220
0.0
230
1.0
  0
CIRCLE
  5
1AB
100
AcDbEntity
  8
0
370
    35
390
0
 62
     7
 48
0.03937
100
AcDbCircle
 10
3.536898
 20
6.144889
 30
0.0
 40
1.708
210
0.0
220
0.0
230
1.0
  0
CIRCLE
  5
1AC
100
AcDbEntity
  8
0
370
    35
390
0
 62
     7
 48
0.03937
100
AcDbCircle
 10
2.311898
 20
6.144889
 30
0.0
 40
0.2625
210
0.0
220
0.0
230
1.0
  0
CIRCLE
  5
1AD
100
AcDbEntity
  8
0
370
    35
390
0
 62
     7
 48
0.03937
100
AcDbCircle
 10
2.670692
 20
5.278683
 30
0.0
 40
0.17325
210
0.0
220
0.0
230
1.0
  0
CIRCLE
  5
1AE
100
AcDbEntity
  8
0
370
    35
390
0
 62
     7
 48
0.03937
100
AcDbCircle
 10
2.670692
 20
5.278683
 30
0.0
 40
0.1365
210
0.0
220
0.0
230
1.0
  0
LINE
  5
1AF
100
AcDbEntity
  8
0
370
    35
390
0
 62
     7
 48
0.00028
100
AcDbLine
 10
2.706214
 20
5.314933
 30
0.0
 11
2.69544
 21
5.311922
 31
0.0
210
0.0
220
0.0
230
1.0
  0
LINE
  5
1B0
100
AcDbEntity
  8
0
370
    35
390
0
 62
     7
 48
0.000028
100
AcDbLine
 10
2.69544
 20
5.311922
 30
0.0
 11
2.694365
 21
5.311591
 31
0.0
210
0.0
220
0.0
230
1.0
  0
LINE
  5
1B1
100
AcDbEntity
  8
0
370
    35
390
0
 62
     7
 48
0.000029
100
AcDbLine
 10
2.694365
 20
5.311591
 30
0.0
 11
2.693262
 21
5.311221
 31
0.0
210
0.0
220
0.0
230
1.0
  0
LINE
  5
1B2
100
AcDbEntity
  8
0
370
    35
390
0
 62
     7
 48
0.00003
100
AcDbLine
 10
2.693262
 20
5.311221
 30
0.0
 11
2.692129
 21
5.310812
 31
0.0
210
0.0
220
0.0
230
1.0
  0
LINE
  5
1B3
100
AcDbEntity
  8
0
370
    35
390
0
 62
     7
 48
0.000031
100
AcDbLine
 10
2.692129
 20
5.310812
 30
0.0
 11
2.690969
 21
5.310363
 31
0.0
210
0.0
220
0.0
230
1.0
  0
LINE
  5
1B4
100
AcDbEntity
  8
0
370
    35
390
0
 62
     7
 48
0.000032
100
AcDbLine
 10
2.690969
 20
5.310363
 30
0.0
 11
2.689779
 21
5.309874
 31
0.0
210
0.0
220
0.0
230
1.0
  0
LINE
  5
1B5
100
AcDbEntity
  8
0
370
    35
390
0
 62
     7
 48
0.000033
100
AcDbLine
 10
2.689779
 20
5.309874
 30
0.0
 11
2.68856
 21
5.309345
 31
0.0
210
0.0
220
0.0
230
1.0
  0
LINE
  5
1B6
100
AcDbEntity
  8
0
370
    35
390
0
 62
     7
 48
0.000034
100
AcDbLine
 10
2.68856
 20
5.309345
 30
0.0
 11
2.687312
 21
5.308777
 31
0.0
210
0.0
220
0.0
230
1.0
  0
LINE
  5
1B7
100
AcDbEntity
  8
0
370
    35
390
0
 62
     7
 48
0.000035
100
AcDbLine
 10
2.687312
 20
5.308777
 30
0.0
 11
2.686035
 21
5.30817
 31
0.0
210
0.0
220
0.0
230
1.0
  0
LINE
  5
1B8
100
AcDbEntity
  8
0
370
    35
390
0
 62
     7
 48
0.000036
100
AcDbLine
 10
2.686035
 20
5.30817
 30
0.0
 11
2.684729
 21
5.307523
 31
0.0
210
0.0
220
0.0
230
1.0
  0
LINE
  5
1B9
100
AcDbEntity
  8
0
370
    35
390
0
 62
     7
 48
0.000038
100
AcDbLine
 10
2.684729
 20
5.307523
 30
0.0
 11
2.683394
 21
5.306836
 31
0.0
210
0.0
220
0.0
230
1.0
  0
LINE
  5
1BA
100
AcDbEntity
  8
0
370
    35
390
0
 62
     7
 48
0.00004
100
AcDbLine
 10
2.683394
 20
5.306836
 30
0.0
 11
2.683394
 21
5.308442
 31
0.0
210
0.0
220
0.0
230
1.0
  0
LINE
  5
1BB
100
AcDbEntity
  8
0
370
    35
390
0
 62
     7
 48
0.000043
100
AcDbLine
 10
2.683394
 20
5.308442
 30
0.0
 11
2.684253
 21
5.309948
 31
0.0
210
0.0
220
0.0
230
1.0
  0
LINE
  5
1BC
100
AcDbEntity
  8
0
370
    35
390
0
 62
     7
 48
0.000041
100
AcDbLine
 10
2.684253
 20
5.309948
 30
0.0
 11
2.685011
 21
5.311407
 31
0.0
210
0.0
220
0.0
230
1.0
  0
LINE
  5
1BD
100
AcDbEntity
  8
0
370
    35
390
0
 62
     7
 48
0.000039
100
AcDbLine
 10
2.685011
 20
5.311407
 30
0.0
 11
2.685669
 21
5.312816
 31
0.0
210
0.0
220
0.0
230
1.0
  0
LINE
  5
1BE
100
AcDbEntity
  8
0
370
    35
390
0
 62
     7
 48
0.000037
100
AcDbLine
 10
2.685669
 20
5.312816
 30
0.0
 11
2.686225
 21
5.314177
 31
0.0
210
0.0
220
0.0
230
1.0
  0
LINE
  5
1BF
100
AcDbEntity
  8
0
370
    35
390
0
 62
     7
 48
0.000035
100
AcDbLine
 10
2.686225
 20
5.314177
 30
0.0
 11
2.68668
 21
5.315488
 31
0.0
210
0.0
220
0.0
230
1.0
  0
LINE
  5
1C0
100
AcDbEntity
  8
0
370
    35
390
0
 62
     7
 48
0.000033
100
AcDbLine
 10
2.68668
 20
5.315488
 30
0.0
 11
2.687033
 21
5.316752
 31
0.0
210
0.0
220
0.0
230
1.0
  0
LINE
  5
1C1
100
AcDbEntity
  8
0
370
    35
390
0
 62
     7
 48
0.000031
100
AcDbLine
 10
2.687033
 20
5.316752
 30
0.0
 11
2.687286
 21
5.317966
 31
0.0
210
0.0
220
0.0
230
1.0
  0
LINE
  5
1C2
100
AcDbEntity
  8
0
370
    35
390
0
 62
     7
 48
0.000029
100
AcDbLine
 10
2.687286
 20
5.317966
 30
0.0
 11
2.687437
 21
5.319132
 31
0.0
210
0.0
220
0.0
230
1.0
  0
LINE
  5
1C3
100
AcDbEntity
  8
0
370
    35
390
0
 62
     7
 48
0.000028
100
AcDbLine
 10
2.687437
 20
5.319132
 30
0.0
 11
2.687488
 21
5.320249
 31
0.0
210
0.0
220
0.0
230
1.0
  0
LINE
  5
1C4
100
AcDbEntity
  8
0
370
    35
390
0
 62
     7
 48
0.000027
100
AcDbLine
 10
2.687488
 20
5.320249
 30
0.0
 11
2.687436
 21
5.321317
 31
0.0
210
0.0
220
0.0
230
1.0
  0
LINE
  5
1C5
100
AcDbEntity
  8
0
370
    35
390
0
 62
     7
 48
0.000027
100
AcDbLine
 10
2.687436
 20
5.321317
 30
0.0
 11
2.687281
 21
5.322368
 31
0.0
210
0.0
220
0.0
230
1.0
  0
LINE
  5
1C6
100
AcDbEntity
  8
0
370
    35
390
0
 62
     7
 48
0.000027
100
AcDbLine
 10
2.687281
 20
5.322368
 30
0.0
 11
2.687018
 21
5.323432
 31
0.0
210
0.0
220
0.0
230
1.0
  0
LINE
  5
1C7
100
AcDbEntity
  8
0
370
    35
390
0
 62
     7
 48
0.000028
100
AcDbLine
 10
2.687018
 20
5.323432
 30
0.0
 11
2.686647
 21
5.324509
 31
0.0
210
0.0
220
0.0
230
1.0
  0
LINE
  5
1C8
100
AcDbEntity
  8
0
370
    35
390
0
 62
     7
 48
0.00003
100
AcDbLine
 10
2.686647
 20
5.324509
 30
0.0
 11
2.686168
 21
5.3256
 31
0.0
210
0.0
220
0.0
230
1.0
  0
LINE
  5
1C9
100
AcDbEntity
  8
0
370
    35
390
0
 62
     7
 48
0.000031
100
AcDbLine
 10
2.686168
 20
5.3256
 30
0.0
 11
2.685582
 21
5.326704
 31
0.0
210
0.0
220
0.0
230
1.0
  0
LINE
  5
1CA
100
AcDbEntity
  8
0
370
    35
390
0
 62
     7
 48
0.000033
100
AcDbLine
 10
2.685582
 20
5.326704
 30
0.0
 11
2.684889
 21
5.327822
 31
0.0
210
0.0
220
0.0
230
1.0
  0
LINE
  5
1CB
100
AcDbEntity
  8
0
370
    35
390
0
 62
     7
 48
0.000035
100
AcDbLine
 10
2.684889
 20
5.327822
 30
0.0
 11
2.684088
 21
5.328953
 31
0.0
210
0.0
220
0.0
230
1.0
  0
LINE
  5
1CC
100
AcDbEntity
  8
0
370
    35
390
0
 62
     7
 48
0.000037
100
AcDbLine
 10
2.684088
 20
5.328953
 30
0.0
 11
2.683178
 21
5.330097
 31
0.0
210
0.0
220
0.0
230
1.0
  0
LINE
  5
1CD
100
AcDbEntity
  8
0
370
    35
390
0
 62
     7
 48
0.000039
100
AcDbLine
 10
2.683178
 20
5.330097
 30
0.0
 11
2.682163
 21
5.331255
 31
0.0
210
0.0
220
0.0
230
1.0
  0
LINE
  5
1CE
100
AcDbEntity
  8
0
370
    35
390
0
 62
     7
 48
0.000041
100
AcDbLine
 10
2.682163
 20
5.331255
 30
0.0
 11
2.681039
 21
5.332426
 31
0.0
210
0.0
220
0.0
230
1.0
  0
LINE
  5
1CF
100
AcDbEntity
  8
0
370
    35
390
0
 62
     7
 48
0.000034
100
AcDbLine
 10
2.681039
 20
5.332426
 30
0.0
 11
2.680067
 21
5.333381
 31
0.0
210
0.0
220
0.0
230
1.0
  0
LINE
  5
1D0
100
AcDbEntity
  8
0
370
    35
390
0
 62
     7
 48
0.000034
100
AcDbLine
 10
2.680067
 20
5.333381
 30
0.0
 11
2.679077
 21
5.334319
 31
0.0
210
0.0
220
0.0
230
1.0
  0
LINE
  5
1D1
100
AcDbEntity
  8
0
370
    35
390
0
 62
     7
 48
0.000034
100
AcDbLine
 10
2.679077
 20
5.334319
 30
0.0
 11
2.678071
 21
5.33524
 31
0.0
210
0.0
220
0.0
230
1.0
  0
LINE
  5
1D2
100
AcDbEntity
  8
0
370
    35
390
0
 62
     7
 48
0.000034
100
AcDbLine
 10
2.678071
 20
5.33524
 30
0.0
 11
2.677047
 21
5.336144
 31
0.0
210
0.0
220
0.0
230
1.0
  0
LINE
  5
1D3
100
AcDbEntity
  8
0
370
    35
390
0
 62
     7
 48
0.000034
100
AcDbLine
 10
2.677047
 20
5.336144
 30
0.0
 11
2.676006
 21
5.33703
 31
0.0
210
0.0
220
0.0
230
1.0
  0
LINE
  5
1D4
100
AcDbEntity
  8
0
370
    35
390
0
 62
     7
 48
0.002052
100
AcDbLine
 10
2.676006
 20
5.33703
 30
0.0
 11
2.617331
 21
5.279639
 31
0.0
210
0.0
220
0.0
230
1.0
  0
LINE
  5
1D5
100
AcDbEntity
  8
0
370
    35
390
0
 62
     7
 48
0.000304
100
AcDbLine
 10
2.617331
 20
5.279639
 30
0.0
 11
2.617812
 21
5.267487
 31
0.0
210
0.0
220
0.0
230
1.0
  0
LINE
  5
1D6
100
AcDbEntity
  8
0
370
    35
390
0
 62
     7
 48
0.000865
100
AcDbLine
 10
2.617812
 20
5.267487
 30
0.0
 11
2.593346
 21
5.291952
 31
0.0
210
0.0
220
0.0
230
1.0
  0
LINE
  5
1D7
100
AcDbEntity
  8
0
370
    35
390
0
 62
     7
 48
0.000345
100
AcDbLine
 10
2.593346
 20
5.291952
 30
0.0
 11
2.607105
 21
5.290722
 31
0.0
210
0.0
220
0.0
230
1.0
  0
LINE
  5
1D8
100
AcDbEntity
  8
0
370
    35
390
0
 62
     7
 48
0.001883
100
AcDbLine
 10
2.607105
 20
5.290722
 30
0.0
 11
2.660373
 21
5.34399
 31
0.0
210
0.0
220
0.0
230
1.0
  0
LINE
  5
1D9
100
AcDbEntity
  8
0
370
    35
390
0
 62
     7
 48
0.000134
100
AcDbLine
 10
2.660373
 20
5.34399
 30
0.0
 11
2.656626
 21
5.347845
 31
0.0
210
0.0
220
0.0
230
1.0
  0
LINE
  5
1DA
100
AcDbEntity
  8
0
370
    35
390
0
 62
     7
 48
0.000038
100
AcDbLine
 10
2.656626
 20
5.347845
 30
0.0
 11
2.655533
 21
5.348893
 31
0.0
210
0.0
220
0.0
230
1.0
  0
LINE
  5
1DB
100
AcDbEntity
  8
0
370
    35
390
0
 62
     7
 48
0.000036
100
AcDbLine
 10
2.655533
 20
5.348893
 30
0.0
 11
2.654461
 21
5.349836
 31
0.0
210
0.0
220
0.0
230
1.0
  0
LINE
  5
1DC
100
AcDbEntity
  8
0
370
    35
390
0
 62
     7
 48
0.000034
100
AcDbLine
 10
2.654461
 20
5.349836
 30
0.0
 11
2.653409
 21
5.350671
 31
0.0
210
0.0
220
0.0
230
1.0
  0
LINE
  5
1DD
100
AcDbEntity
  8
0
370
    35
390
0
 62
     7
 48
0.000032
100
AcDbLine
 10
2.653409
 20
5.350671
 30
0.0
 11
2.652377
 21
5.351399
 31
0.0
210
0.0
220
0.0
230
1.0
  0
LINE
  5
1DE
100
AcDbEntity
  8
0
370
    35
390
0
 62
     7
 48
0.00003
100
AcDbLine
 10
2.652377
 20
5.351399
 30
0.0
 11
2.651366
 21
5.35202
 31
0.0
210
0.0
220
0.0
230
1.0
  0
LINE
  5
1DF
100
AcDbEntity
  8
0
370
    35
390
0
 62
     7
 48
0.000028
100
AcDbLine
 10
2.651366
 20
5.35202
 30
0.0
 11
2.650375
 21
5.352534
 31
0.0
210
0.0
220
0.0
230
1.0
  0
LINE
  5
1E0
100
AcDbEntity
  8
0
370
    35
390
0
 62
     7
 48
0.000026
100
AcDbLine
 10
2.650375
 20
5.352534
 30
0.0
 11
2.649405
 21
5.352941
 31
0.0
210
0.0
220
0.0
230
1.0
  0
LINE
  5
1E1
100
AcDbEntity
  8
0
370
    35
390
0
 62
     7
 48
0.000049
100
AcDbLine
 10
2.649405
 20
5.352941
 30
0.0
 11
2.647525
 21
5.353433
 31
0.0
210
0.0
220
0.0
230
1.0
  0
LINE
  5
1E2
100
AcDbEntity
  8
0
370
    35
390
0
 62
     7
 48
0.000046
100
AcDbLine
 10
2.647525
 20
5.353433
 30
0.0
 11
2.645702
 21
5.3535
 31
0.0
210
0.0
220
0.0
230
1.0
  0
LINE
  5
1E3
100
AcDbEntity
  8
0
370
    35
390
0
 62
     7
 48
0.000049
100
AcDbLine
 10
2.645702
 20
5.3535
 30
0.0
 11
2.643791
 21
5.353148
 31
0.0
210
0.0
220
0.0
230
1.0
  0
LINE
  5
1E4
100
AcDbEntity
  8
0
370
    35
390
0
 62
     7
 48
0.000054
100
AcDbLine
 10
2.643791
 20
5.353148
 30
0.0
 11
2.64177
 21
5.352381
 31
0.0
210
0.0
220
0.0
230
1.0
  0
LINE
  5
1E5
100
AcDbEntity
  8
0
370
    35
390
0
 62
     7
 48
0.00003
100
AcDbLine
 10
2.64177
 20
5.352381
 30
0.0
 11
2.640717
 21
5.351842
 31
0.0
210
0.0
220
0.0
230
1.0
  0
LINE
  5
1E6
100
AcDbEntity
  8
0
370
    35
390
0
 62
     7
 48
0.000031
100
AcDbLine
 10
2.640717
 20
5.351842
 30
0.0
 11
2.639637
 21
5.3512
 31
0.0
210
0.0
220
0.0
230
1.0
  0
LINE
  5
1E7
100
AcDbEntity
  8
0
370
    35
390
0
 62
     7
 48
0.000033
100
AcDbLine
 10
2.639637
 20
5.3512
 30
0.0
 11
2.638529
 21
5.350453
 31
0.0
210
0.0
220
0.0
230
1.0
  0
LINE
  5
1E8
100
AcDbEntity
  8
0
370
    35
390
0
 62
     7
 48
0.000035
100
AcDbLine
 10
2.638529
 20
5.350453
 30
0.0
 11
2.637393
 21
5.349602
 31
0.0
210
0.0
220
0.0
230
1.0
  0
LINE
  5
1E9
100
AcDbEntity
  8
0
370
    35
390
0
 62
     7
 48
0.000038
100
AcDbLine
 10
2.637393
 20
5.349602
 30
0.0
 11
2.636229
 21
5.348648
 31
0.0
210
0.0
220
0.0
230
1.0
  0
LINE
  5
1EA
100
AcDbEntity
  8
0
370
    35
390
0
 62
     7
 48
0.000049
100
AcDbLine
 10
2.636229
 20
5.348648
 30
0.0
 11
2.634837
 21
5.35004
 31
0.0
210
0.0
220
0.0
230
1.0
  0
LINE
  5
1EB
100
AcDbEntity
  8
0
370
    35
390
0
 62
     7
 48
0.000043
100
AcDbLine
 10
2.634837
 20
5.35004
 30
0.0
 11
2.63619
 21
5.351115
 31
0.0
210
0.0
220
0.0
230
1.0
  0
LINE
  5
1EC
100
AcDbEntity
  8
0
370
    35
390
0
 62
     7
 48
0.000041
100
AcDbLine
 10
2.63619
 20
5.351115
 30
0.0
 11
2.637508
 21
5.352075
 31
0.0
210
0.0
220
0.0
230
1.0
  0
LINE
  5
1ED
100
AcDbEntity
  8
0
370
    35
390
0
 62
     7
 48
0.000038
100
AcDbLine
 10
2.637508
 20
5.352075
 30
0.0
 11
2.638792
 21
5.352917
 31
0.0
210
0.0
220
0.0
230
1.0
  0
LINE
  5
1EE
100
AcDbEntity
  8
0
370
    35
390
0
 62
     7
 48
0.000036
100
AcDbLine
 10
2.638792
 20
5.352917
 30
0.0
 11
2.640041
 21
5.353641
 31
0.0
210
0.0
220
0.0
230
1.0
  0
LINE
  5
1EF
100
AcDbEntity
  8
0
370
    35
390
0
 62
     7
 48
0.000034
100
AcDbLine
 10
2.640041
 20
5.353641
 30
0.0
 11
2.641254
 21
5.354249
 31
0.0
210
0.0
220
0.0
230
1.0
  0
LINE
  5
1F0
100
AcDbEntity
  8
0
370
    35
390
0
 62
     7
 48
0.000032
100
AcDbLine
 10
2.641254
 20
5.354249
 30
0.0
 11
2.642433
 21
5.354739
 31
0.0
210
0.0
220
0.0
230
1.0
  0
LINE
  5
1F1
100
AcDbEntity
  8
0
370
    35
390
0
 62
     7
 48
0.00003
100
AcDbLine
 10
2.642433
 20
5.354739
 30
0.0
 11
2.643578
 21
5.355111
 31
0.0
210
0.0
220
0.0
230
1.0
  0
LINE
  5
1F2
100
AcDbEntity
  8
0
370
    35
390
0
 62
     7
 48
0.000028
100
AcDbLine
 10
2.643578
 20
5.355111
 30
0.0
 11
2.644688
 21
5.355368
 31
0.0
210
0.0
220
0.0
230
1.0
  0
LINE
  5
1F3
100
AcDbEntity
  8
0
370
    35
390
0
 62
     7
 48
0.000027
100
AcDbLine
 10
2.644688
 20
5.355368
 30
0.0
 11
2.645762
 21
5.355506
 31
0.0
210
0.0
220
0.0
230
1.0
  0
LINE
  5
1F4
100
AcDbEntity
  8
0
370
    35
390
0
 62
     7
 48
0.000052
100
AcDbLine
 10
2.645762
 20
5.355506
 30
0.0
 11
2.647835
 21
5.355431
 31
0.0
210
0.0
220
0.0
230
1.0
  0
LINE
  5
1F5
100
AcDbEntity
  8
0
370
    35
390
0
 62
     7
 48
0.000027
100
AcDbLine
 10
2.647835
 20
5.355431
 30
0.0
 11
2.648886
 21
5.355215
 31
0.0
210
0.0
220
0.0
230
1.0
  0
LINE
  5
1F6
100
AcDbEntity
  8
0
370
    35
390
0
 62
     7
 48
0.000028
100
AcDbLine
 10
2.648886
 20
5.355215
 30
0.0
 11
2.649959
 21
5.354882
 31
0.0
210
0.0
220
0.0
230
1.0
  0
LINE
  5
1F7
100
AcDbEntity
  8
0
370
    35
390
0
 62
     7
 48
0.00003
100
AcDbLine
 10
2.649959
 20
5.354882
 30
0.0
 11
2.65105
 21
5.354431
 31
0.0
210
0.0
220
0.0
230
1.0
  0
LINE
  5
1F8
100
AcDbEntity
  8
0
370
    35
390
0
 62
     7
 48
0.000031
100
AcDbLine
 10
2.65105
 20
5.354431
 30
0.0
 11
2.652162
 21
5.353861
 31
0.0
210
0.0
220
0.0
230
1.0
  0
LINE
  5
1F9
100
AcDbEntity
  8
0
370
    35
390
0
 62
     7
 48
0.000033
100
AcDbLine
 10
2.652162
 20
5.353861
 30
0.0
 11
2.653294
 21
5.353173
 31
0.0
210
0.0
220
0.0
230
1.0
  0
LINE
  5
1FA
100
AcDbEntity
  8
0
370
    35
390
0
 62
     7
 48
0.000035
100
AcDbLine
 10
2.653294
 20
5.353173
 30
0.0
 11
2.654446
 21
5.352366
 31
0.0
210
0.0
220
0.0
230
1.0
  0
LINE
  5
1FB
100
AcDbEntity
  8
0
370
    35
390
0
 62
     7
 48
0.000037
100
AcDbLine
 10
2.654446
 20
5.352366
 30
0.0
 11
2.655617
 21
5.351441
 31
0.0
210
0.0
220
0.0
230
1.0
  0
LINE
  5
1FC
100
AcDbEntity
  8
0
370
    35
390
0
 62
     7
 48
0.00004
100
AcDbLine
 10
2.655617
 20
5.351441
 30
0.0
 11
2.656808
 21
5.350398
 31
0.0
210
0.0
220
0.0
230
1.0
  0
LINE
  5
1FD
100
AcDbEntity
  8
0
370
    35
390
0
 62
     7
 48
0.000042
100
AcDbLine
 10
2.656808
 20
5.350398
 30
0.0
 11
2.658018
 21
5.349236
 31
0.0
210
0.0
220
0.0
230
1.0
  0
LINE
  5
1FE
100
AcDbEntity
  8
0
370
    35
390
0
 62
     7
 48
0.000114
100
AcDbLine
 10
2.658018
 20
5.349236
 30
0.0
 11
2.661176
 21
5.345971
 31
0.0
210
0.0
220
0.0
230
1.0
  0
LINE
  5
1FF
100
AcDbEntity
  8
0
370
    35
390
0
 62
     7
 48
0.000095
100
AcDbLine
 10
2.661176
 20
5.345971
 30
0.0
 11
2.664388
 21
5.348005
 31
0.0
210
0.0
220
0.0
230
1.0
  0
LINE
  5
200
100
AcDbEntity
  8
0
370
    35
390
0
 62
     7
 48
0.000038
100
AcDbLine
 10
2.664388
 20
5.348005
 30
0.0
 11
2.663423
 21
5.349202
 31
0.0
210
0.0
220
0.0
230
1.0
  0
LINE
  5
201
100
AcDbEntity
  8
0
370
    35
390
0
 62
     7
 48
0.000038
100
AcDbLine
 10
2.663423
 20
5.349202
 30
0.0
 11
2.662452
 21
5.350352
 31
0.0
210
0.0
220
0.0
230
1.0
  0
LINE
  5
202
100
AcDbEntity
  8
0
370
    35
390
0
 62
     7
 48
0.000037
100
AcDbLine
 10
2.662452
 20
5.350352
 30
0.0
 11
2.661478
 21
5.351456
 31
0.0
210
0.0
220
0.0
230
1.0
  0
LINE
  5
203
100
AcDbEntity
  8
0
370
    35
390
0
 62
     7
 48
0.000036
100
AcDbLine
 10
2.661478
 20
5.351456
 30
0.0
 11
2.6605
 21
5.352511
 31
0.0
210
0.0
220
0.0
230
1.0
  0
LINE
  5
204
100
AcDbEntity
  8
0
370
    35
390
0
 62
     7
 48
0.000035
100
AcDbLine
 10
2.6605
 20
5.352511
 30
0.0
 11
2.659517
 21
5.35352
 31
0.0
210
0.0
220
0.0
230
1.0
  0
LINE
  5
205
100
AcDbEntity
  8
0
370
    35
390
0
 62
     7
 48
0.000047
100
AcDbLine
 10
2.659517
 20
5.35352
 30
0.0
 11
2.658146
 21
5.354834
 31
0.0
210
0.0
220
0.0
230
1.0
  0
LINE
  5
206
100
AcDbEntity
  8
0
370
    35
390
0
 62
     7
 48
0.000045
100
AcDbLine
 10
2.658146
 20
5.354834
 30
0.0
 11
2.656796
 21
5.356016
 31
0.0
210
0.0
220
0.0
230
1.0
  0
LINE
  5
207
100
AcDbEntity
  8
0
370
    35
390
0
 62
     7
 48
0.000042
100
AcDbLine
 10
2.656796
 20
5.356016
 30
0.0
 11
2.655467
 21
5.357063
 31
0.0
210
0.0
220
0.0
230
1.0
  0
LINE
  5
208
100
AcDbEntity
  8
0
370
    35
390
0
 62
     7
 48
0.00004
100
AcDbLine
 10
2.655467
 20
5.357063
 30
0.0
 11
2.654158
 21
5.357978
 31
0.0
210
0.0
220
0.0
230
1.0
  0
LINE
  5
209
100
AcDbEntity
  8
0
370
    35
390
0
 62
     7
 48
0.000038
100
AcDbLine
 10
2.654158
 20
5.357978
 30
0.0
 11
2.652872
 21
5.35876
 31
0.0
210
0.0
220
0.0
230
1.0
  0
LINE
  5
20A
100
AcDbEntity
  8
0
370
    35
390
0
 62
     7
 48
0.000036
100
AcDbLine
 10
2.652872
 20
5.35876
 30
0.0
 11
2.651605
 21
5.359407
 31
0.0
210
0.0
220
0.0
230
1.0
  0
LINE
  5
20B
100
AcDbEntity
  8
0
370
    35
390
0
 62
     7
 48
0.000034
100
AcDbLine
 10
2.651605
 20
5.359407
 30
0.0
 11
2.65036
 21
5.359922
 31
0.0
210
0.0
220
0.0
230
1.0
  0
LINE
  5
20C
100
AcDbEntity
  8
0
370
    35
390
0
 62
     7
 48
0.000032
100
AcDbLine
 10
2.65036
 20
5.359922
 30
0.0
 11
2.649135
 21
5.360303
 31
0.0
210
0.0
220
0.0
230
1.0
  0
LINE
  5
20D
100
AcDbEntity
  8
0
370
    35
390
0
 62
     7
 48
0.000031
100
AcDbLine
 10
2.649135
 20
5.360303
 30
0.0
 11
2.647931
 21
5.360552
 31
0.0
210
0.0
220
0.0
230
1.0
  0
LINE
  5
20E
100
AcDbEntity
  8
0
370
    35
390
0
 62
     7
 48
0.00003
100
AcDbLine
 10
2.647931
 20
5.360552
 30
0.0
 11
2.646749
 21
5.360667
 31
0.0
210
0.0
220
0.0
230
1.0
  0
LINE
  5
20F
100
AcDbEntity
  8
0
370
    35
390
0
 62
     7
 48
0.00003
100
AcDbLine
 10
2.646749
 20
5.360667
 30
0.0
 11
2.645564
 21
5.360649
 31
0.0
210
0.0
220
0.0
230
1.0
  0
LINE
  5
210
100
AcDbEntity
  8
0
370
    35
390
0
 62
     7
 48
0.00003
100
AcDbLine
 10
2.645564
 20
5.360649
 30
0.0
 11
2.644357
 21
5.360499
 31
0.0
210
0.0
220
0.0
230
1.0
  0
LINE
  5
211
100
AcDbEntity
  8
0
370
    35
390
0
 62
     7
 48
0.000032
100
AcDbLine
 10
2.644357
 20
5.360499
 30
0.0
 11
2.643128
 21
5.360217
 31
0.0
210
0.0
220
0.0
230
1.0
  0
LINE
  5
212
100
AcDbEntity
  8
0
370
    35
390
0
 62
     7
 48
0.000033
100
AcDbLine
 10
2.643128
 20
5.360217
 30
0.0
 11
2.641874
 21
5.359801
 31
0.0
210
0.0
220
0.0
230
1.0
  0
LINE
  5
213
100
AcDbEntity
  8
0
370
    35
390
0
 62
     7
 48
0.000035
100
AcDbLine
 10
2.641874
 20
5.359801
 30
0.0
 11
2.640599
 21
5.359254
 31
0.0
210
0.0
220
0.0
230
1.0
  0
LINE
  5
214
100
AcDbEntity
  8
0
370
    35
390
0
 62
     7
 48
0.000037
100
AcDbLine
 10
2.640599
 20
5.359254
 30
0.0
 11
2.6393
 21
5.358576
 31
0.0
210
0.0
220
0.0
230
1.0
  0
LINE
  5
215
100
AcDbEntity
  8
0
370
    35
390
0
 62
     7
 48
0.000039
100
AcDbLine
 10
2.6393
 20
5.358576
 30
0.0
 11
2.637977
 21
5.357764
 31
0.0
210
0.0
220
0.0
230
1.0
  0
LINE
  5
216
100
AcDbEntity
  8
0
370
    35
390
0
 62
     7
 48
0.000041
100
AcDbLine
 10
2.637977
 20
5.357764
 30
0.0
 11
2.636633
 21
5.356821
 31
0.0
210
0.0
220
0.0
230
1.0
  0
LINE
  5
217
100
AcDbEntity
  8
0
370
    35
390
0
 62
     7
 48
0.000044
100
AcDbLine
 10
2.636633
 20
5.356821
 30
0.0
 11
2.635264
 21
5.355745
 31
0.0
210
0.0
220
0.0
230
1.0
  0
LINE
  5
218
100
AcDbEntity
  8
0
370
    35
390
0
 62
     7
 48
0.000046
100
AcDbLine
 10
2.635264
 20
5.355745
 30
0.0
 11
2.633874
 21
5.354537
 31
0.0
210
0.0
220
0.0
230
1.0
  0
LINE
  5
219
100
AcDbEntity
  8
0
370
    35
390
0
 62
     7
 48
0.000067
100
AcDbLine
 10
2.633874
 20
5.354537
 30
0.0
 11
2.63425
 21
5.35717
 31
0.0
210
0.0
220
0.0
230
1.0
  0
LINE
  5
21A
100
AcDbEntity
  8
0
370
    35
390
0
 62
     7
 48
0.000058
100
AcDbLine
 10
2.63425
 20
5.35717
 30
0.0
 11
2.635255
 21
5.359245
 31
0.0
210
0.0
220
0.0
230
1.0
  0
LINE
  5
21B
100
AcDbEntity
  8
0
370
    35
390
0
 62
     7
 48
0.000059
100
AcDbLine
 10
2.635255
 20
5.359245
 30
0.0
 11
2.636242
 21
5.361406
 31
0.0
210
0.0
220
0.0
230
1.0
  0
LINE
  5
21C
100
AcDbEntity
  8
0
370
    35
390
0
 62
     7
 48
0.000061
100
AcDbLine
 10
2.636242
 20
5.361406
 30
0.0
 11
2.637214
 21
5.36365
 31
0.0
210
0.0
220
0.0
230
1.0
  0
LINE
  5
21D
100
AcDbEntity
  8
0
370
    35
390
0
 62
     7
 48
0.000063
100
AcDbLine
 10
2.637214
 20
5.36365
 30
0.0
 11
2.63817
 21
5.36598
 31
0.0
210
0.0
220
0.0
230
1.0
  0
LINE
  5
21E
100
AcDbEntity
  8
0
370
    35
390
0
 62
     7
 48
0.000065
100
AcDbLine
 10
2.63817
 20
5.36598
 30
0.0
 11
2.639109
 21
5.368393
 31
0.0
210
0.0
220
0.0
230
1.0
  0
LINE
  5
21F
100
AcDbEntity
  8
0
370
    35
390
0
 62
     7
 48
0.000067
100
AcDbLine
 10
2.639109
 20
5.368393
 30
0.0
 11
2.640032
 21
5.370892
 31
0.0
210
0.0
220
0.0
230
1.0
  0
LINE
  5
220
100
AcDbEntity
  8
0
370
    35
390
0
 62
     7
 48
0.000068
100
AcDbLine
 10
2.640032
 20
5.370892
 30
0.0
 11
2.64094
 21
5.373476
 31
0.0
210
0.0
220
0.0
230
1.0
  0
LINE
  5
221
100
AcDbEntity
  8
0
370
    35
390
0
 62
     7
 48
0.00007
100
AcDbLine
 10
2.64094
 20
5.373476
 30
0.0
 11
2.641831
 21
5.376144
 31
0.0
210
0.0
220
0.0
230
1.0
  0
LINE
  5
222
100
AcDbEntity
  8
0
370
    35
390
0
 62
     7
 48
0.000072
100
AcDbLine
 10
2.641831
 20
5.376144
 30
0.0
 11
2.642706
 21
5.378895
 31
0.0
210
0.0
220
0.0
230
1.0
  0
LINE
  5
223
100
AcDbEntity
  8
0
370
    35
390
0
 62
     7
 48
0.002268
100
AcDbLine
 10
2.642706
 20
5.378895
 30
0.0
 11
2.707379
 21
5.315295
 31
0.0
210
0.0
220
0.0
230
1.0
  0
LINE
  5
224
100
AcDbEntity
  8
0
370
    35
390
0
 62
     7
 48
0.00003
100
AcDbLine
 10
2.707379
 20
5.315295
 30
0.0
 11
2.706214
 21
5.314933
 31
0.0
210
0.0
220
0.0
230
1.0
  0
LINE
  5
225
100
AcDbEntity
  8
0
370
    35
390
0
 62
     7
 48
0.000048
100
AcDbLine
 10
2.705631
 20
5.308287
 30
0.0
 11
2.703753
 21
5.307909
 31
0.0
210
0.0
220
0.0
230
1.0
  0
LINE
  5
226
100
AcDbEntity
  8
0
370
    35
390
0
 62
     7
 48
0.000052
100
AcDbLine
 10
2.703753
 20
5.307909
 30
0.0
 11
2.701743
 21
5.307413
 31
0.0
210
0.0
220
0.0
230
1.0
  0
LINE
  5
227
100
AcDbEntity
  8
0
370
    35
390
0
 62
     7
 48
0.000056
100
AcDbLine
 10
2.701743
 20
5.307413
 30
0.0
 11
2.6996
 21
5.306802
 31
0.0
210
0.0
220
0.0
230
1.0
  0
LINE
  5
228
100
AcDbEntity
  8
0
370
    35
390
0
 62
     7
 48
0.00006
100
AcDbLine
 10
2.6996
 20
5.306802
 30
0.0
 11
2.697327
 21
5.306073
 31
0.0
210
0.0
220
0.0
230
1.0
  0
LINE
  5
229
100
AcDbEntity
  8
0
370
    35
390
0
 62
     7
 48
0.000064
100
AcDbLine
 10
2.697327
 20
5.306073
 30
0.0
 11
2.694921
 21
5.305228
 31
0.0
210
0.0
220
0.0
230
1.0
  0
LINE
  5
22A
100
AcDbEntity
  8
0
370
    35
390
0
 62
     7
 48
0.000068
100
AcDbLine
 10
2.694921
 20
5.305228
 30
0.0
 11
2.692384
 21
5.304266
 31
0.0
210
0.0
220
0.0
230
1.0
  0
LINE
  5
22B
100
AcDbEntity
  8
0
370
    35
390
0
 62
     7
 48
0.000072
100
AcDbLine
 10
2.692384
 20
5.304266
 30
0.0
 11
2.689716
 21
5.303187
 31
0.0
210
0.0
220
0.0
230
1.0
  0
LINE
  5
22C
100
AcDbEntity
  8
0
370
    35
390
0
 62
     7
 48
0.000076
100
AcDbLine
 10
2.689716
 20
5.303187
 30
0.0
 11
2.686915
 21
5.301991
 31
0.0
210
0.0
220
0.0
230
1.0
  0
LINE
  5
22D
100
AcDbEntity
  8
0
370
    35
390
0
 62
     7
 48
0.00008
100
AcDbLine
 10
2.686915
 20
5.301991
 30
0.0
 11
2.683983
 21
5.300679
 31
0.0
210
0.0
220
0.0
230
1.0
  0
LINE
  5
22E
100
AcDbEntity
  8
0
370
    35
390
0
 62
     7
 48
0.000052
100
AcDbLine
 10
2.683983
 20
5.300679
 30
0.0
 11
2.683073
 21
5.302553
 31
0.0
210
0.0
220
0.0
230
1.0
  0
LINE
  5
22F
100
AcDbEntity
  8
0
370
    35
390
0
 62
     7
 48
0.000099
100
AcDbLine
 10
2.683073
 20
5.302553
 30
0.0
 11
2.686654
 21
5.304233
 31
0.0
210
0.0
220
0.0
230
1.0
  0
LINE
  5
230
100
AcDbEntity
  8
0
370
    35
390
0
 62
     7
 48
0.000076
100
AcDbLine
 10
2.686654
 20
5.304233
 30
0.0
 11
2.689452
 21
5.305464
 31
0.0
210
0.0
220
0.0
230
1.0
  0
LINE
  5
231
100
AcDbEntity
  8
0
370
    35
390
0
 62
     7
 48
0.000072
100
AcDbLine
 10
2.689452
 20
5.305464
 30
0.0
 11
2.692111
 21
5.306563
 31
0.0
210
0.0
220
0.0
230
1.0
  0
LINE
  5
232
100
AcDbEntity
  8
0
370
    35
390
0
 62
     7
 48
0.000067
100
AcDbLine
 10
2.692111
 20
5.306563
 30
0.0
 11
2.694629
 21
5.307534
 31
0.0
210
0.0
220
0.0
230
1.0
  0
LINE
  5
233
100
AcDbEntity
  8
0
370
    35
390
0
 62
     7
 48
0.000063
100
AcDbLine
 10
2.694629
 20
5.307534
 30
0.0
 11
2.697006
 21
5.308376
 31
0.0
210
0.0
220
0.0
230
1.0
  0
LINE
  5
234
100
AcDbEntity
  8
0
370
    35
390
0
 62
     7
 48
0.000059
100
AcDbLine
 10
2.697006
 20
5.308376
 30
0.0
 11
2.699243
 21
5.309086
 31
0.0
210
0.0
220
0.0
230
1.0
  0
LINE
  5
235
100
AcDbEntity
  8
0
370
    35
390
0
 62
     7
 48
0.000054
100
AcDbLine
 10
2.699243
 20
5.309086
 30
0.0
 11
2.70134
 21
5.309668
 31
0.0
210
0.0
220
0.0
230
1.0
  0
LINE
  5
236
100
AcDbEntity
  8
0
370
    35
390
0
 62
     7
 48
0.00005
100
AcDbLine
 10
2.70134
 20
5.309668
 30
0.0
 11
2.703297
 21
5.310121
 31
0.0
210
0.0
220
0.0
230
1.0
  0
LINE
  5
237
100
AcDbEntity
  8
0
370
    35
390
0
 62
     7
 48
0.000046
100
AcDbLine
 10
2.703297
 20
5.310121
 30
0.0
 11
2.705114
 21
5.310444
 31
0.0
210
0.0
220
0.0
230
1.0
  0
LINE
  5
238
100
AcDbEntity
  8
0
370
    35
390
0
 62
     7
 48
0.000042
100
AcDbLine
 10
2.705114
 20
5.310444
 30
0.0
 11
2.706789
 21
5.310636
 31
0.0
210
0.0
220
0.0
230
1.0
  0
LINE
  5
239
100
AcDbEntity
  8
0
370
    35
390
0
 62
     7
 48
0.000054
100
AcDbLine
 10
2.706789
 20
5.310636
 30
0.0
 11
2.707378
 21
5.308549
 31
0.0
210
0.0
220
0.0
230
1.0
  0
LINE
  5
23A
100
AcDbEntity
  8
0
370
    35
390
0
 62
     7
 48
0.000044
100
AcDbLine
 10
2.707378
 20
5.308549
 30
0.0
 11
2.705631
 21
5.308287
 31
0.0
210
0.0
220
0.0
230
1.0
  0
LINE
  5
23B
100
AcDbEntity
  8
0
370
    35
390
0
 62
     7
 48
0.000035
100
AcDbLine
 10
2.684403
 20
5.315838
 30
0.0
 11
2.683991
 21
5.31716
 31
0.0
210
0.0
220
0.0
230
1.0
  0
LINE
  5
23C
100
AcDbEntity
  8
0
370
    35
390
0
 62
     7
 48
0.000035
100
AcDbLine
 10
2.683991
 20
5.31716
 30
0.0
 11
2.683499
 21
5.318455
 31
0.0
210
0.0
220
0.0
230
1.0
  0
LINE
  5
23D
100
AcDbEntity
  8
0
370
    35
390
0
 62
     7
 48
0.000035
100
AcDbLine
 10
2.683499
 20
5.318455
 30
0.0
 11
2.682925
 21
5.319726
 31
0.0
210
0.0
220
0.0
230
1.0
  0
LINE
  5
23E
100
AcDbEntity
  8
0
370
    35
390
0
 62
     7
 48
0.000035
100
AcDbLine
 10
2.682925
 20
5.319726
 30
0.0
 11
2.68227
 21
5.320969
 31
0.0
210
0.0
220
0.0
230
1.0
  0
LINE
  5
23F
100
AcDbEntity
  8
0
370
    35
390
0
 62
     7
 48
0.000036
100
AcDbLine
 10
2.68227
 20
5.320969
 30
0.0
 11
2.681533
 21
5.322188
 31
0.0
210
0.0
220
0.0
230
1.0
  0
LINE
  5
240
100
AcDbEntity
  8
0
370
    35
390
0
 62
     7
 48
0.000036
100
AcDbLine
 10
2.681533
 20
5.322188
 30
0.0
 11
2.680715
 21
5.323381
 31
0.0
210
0.0
220
0.0
230
1.0
  0
LINE
  5
241
100
AcDbEntity
  8
0
370
    35
390
0
 62
     7
 48
0.000037
100
AcDbLine
 10
2.680715
 20
5.323381
 30
0.0
 11
2.679816
 21
5.324547
 31
0.0
210
0.0
220
0.0
230
1.0
  0
LINE
  5
242
100
AcDbEntity
  8
0
370
    35
390
0
 62
     7
 48
0.000038
100
AcDbLine
 10
2.679816
 20
5.324547
 30
0.0
 11
2.678835
 21
5.32569
 31
0.0
210
0.0
220
0.0
230
1.0
  0
LINE
  5
243
100
AcDbEntity
  8
0
370
    35
390
0
 62
     7
 48
0.000038
100
AcDbLine
 10
2.678835
 20
5.32569
 30
0.0
 11
2.677773
 21
5.326805
 31
0.0
210
0.0
220
0.0
230
1.0
  0
LINE
  5
244
100
AcDbEntity
  8
0
370
    35
390
0
 62
     7
 48
0.000026
100
AcDbLine
 10
2.677773
 20
5.326805
 30
0.0
 11
2.67701
 21
5.327539
 31
0.0
210
0.0
220
0.0
230
1.0
  0
LINE
  5
245
100
AcDbEntity
  8
0
370
    35
390
0
 62
     7
 48
0.000027
100
AcDbLine
 10
2.67701
 20
5.327539
 30
0.0
 11
2.676199
 21
5.328263
 31
0.0
210
0.0
220
0.0
230
1.0
  0
LINE
  5
246
100
AcDbEntity
  8
0
370
    35
390
0
 62
     7
 48
0.000028
100
AcDbLine
 10
2.676199
 20
5.328263
 30
0.0
 11
2.67534
 21
5.328978
 31
0.0
210
0.0
220
0.0
230
1.0
  0
LINE
  5
247
100
AcDbEntity
  8
0
370
    35
390
0
 62
     7
 48
0.001903
100
AcDbLine
 10
2.67534
 20
5.328978
 30
0.0
 11
2.621452
 21
5.275196
 31
0.0
210
0.0
220
0.0
230
1.0
  0
LINE
  5
248
100
AcDbEntity
  8
0
370
    35
390
0
 62
     7
 48
0.000466
100
AcDbLine
 10
2.621452
 20
5.275196
 30
0.0
 11
2.6199
 21
5.256619
 31
0.0
210
0.0
220
0.0
230
1.0
  0
LINE
  5
249
100
AcDbEntity
  8
0
370
    35
390
0
 62
     7
 48
0.000967
100
AcDbLine
 10
2.6199
 20
5.256619
 30
0.0
 11
2.592543
 21
5.283975
 31
0.0
210
0.0
220
0.0
230
1.0
  0
LINE
  5
24A
100
AcDbEntity
  8
0
370
    35
390
0
 62
     7
 48
0.000067
100
AcDbLine
 10
2.592543
 20
5.283975
 30
0.0
 11
2.592757
 21
5.286653
 31
0.0
210
0.0
220
0.0
230
1.0
  0
LINE
  5
24B
100
AcDbEntity
  8
0
370
    35
390
0
 62
     7
 48
0.000907
100
AcDbLine
 10
2.592757
 20
5.286653
 30
0.0
 11
2.618401
 21
5.261009
 31
0.0
210
0.0
220
0.0
230
1.0
  0
LINE
  5
24C
100
AcDbEntity
  8
0
370
    35
390
0
 62
     7
 48
0.000385
100
AcDbLine
 10
2.618401
 20
5.261009
 30
0.0
 11
2.619419
 21
5.276374
 31
0.0
210
0.0
220
0.0
230
1.0
  0
LINE
  5
24D
100
AcDbEntity
  8
0
370
    35
390
0
 62
     7
 48
0.001972
100
AcDbLine
 10
2.619419
 20
5.276374
 30
0.0
 11
2.675204
 21
5.332159
 31
0.0
210
0.0
220
0.0
230
1.0
  0
LINE
  5
24E
100
AcDbEntity
  8
0
370
    35
390
0
 62
     7
 48
0.000102
100
AcDbLine
 10
2.675204
 20
5.332159
 30
0.0
 11
2.678148
 21
5.329321
 31
0.0
210
0.0
220
0.0
230
1.0
  0
LINE
  5
24F
100
AcDbEntity
  8
0
370
    35
390
0
 62
     7
 48
0.000036
100
AcDbLine
 10
2.678148
 20
5.329321
 30
0.0
 11
2.679147
 21
5.328304
 31
0.0
210
0.0
220
0.0
230
1.0
  0
LINE
  5
250
100
AcDbEntity
  8
0
370
    35
390
0
 62
     7
 48
0.000034
100
AcDbLine
 10
2.679147
 20
5.328304
 30
0.0
 11
2.680071
 21
5.327331
 31
0.0
210
0.0
220
0.0
230
1.0
  0
LINE
  5
251
100
AcDbEntity
  8
0
370
    35
390
0
 62
     7
 48
0.000031
100
AcDbLine
 10
2.680071
 20
5.327331
 30
0.0
 11
2.680917
 21
5.326403
 31
0.0
210
0.0
220
0.0
230
1.0
  0
LINE
  5
252
100
AcDbEntity
  8
0
370
    35
390
0
 62
     7
 48
0.000029
100
AcDbLine
 10
2.680917
 20
5.326403
 30
0.0
 11
2.681685
 21
5.325518
 31
0.0
210
0.0
220
0.0
230
1.0
  0
LINE
  5
253
100
AcDbEntity
  8
0
370
    35
390
0
 62
     7
 48
0.000027
100
AcDbLine
 10
2.681685
 20
5.325518
 30
0.0
 11
2.682377
 21
5.324676
 31
0.0
210
0.0
220
0.0
230
1.0
  0
LINE
  5
254
100
AcDbEntity
  8
0
370
    35
390
0
 62
     7
 48
0.000048
100
AcDbLine
 10
2.682377
 20
5.324676
 30
0.0
 11
2.683529
 21
5.323126
 31
0.0
210
0.0
220
0.0
230
1.0
  0
LINE
  5
255
100
AcDbEntity
  8
0
370
    35
390
0
 62
     7
 48
0.00004
100
AcDbLine
 10
2.683529
 20
5.323126
 30
0.0
 11
2.684373
 21
5.321751
 31
0.0
210
0.0
220
0.0
230
1.0
  0
LINE
  5
256
100
AcDbEntity
  8
0
370
    35
390
0
 62
     7
 48
0.000034
100
AcDbLine
 10
2.684373
 20
5.321751
 30
0.0
 11
2.68492
 21
5.320524
 31
0.0
210
0.0
220
0.0
230
1.0
  0
LINE
  5
257
100
AcDbEntity
  8
0
370
    35
390
0
 62
     7
 48
0.000032
100
AcDbLine
 10
2.68492
 20
5.320524
 30
0.0
 11
2.685246
 21
5.319273
 31
0.0
210
0.0
220
0.0
230
1.0
  0
LINE
  5
258
100
AcDbEntity
  8
0
370
    35
390
0
 62
     7
 48
0.000033
100
AcDbLine
 10
2.685246
 20
5.319273
 30
0.0
 11
2.685361
 21
5.317971
 31
0.0
210
0.0
220
0.0
230
1.0
  0
LINE
  5
259
100
AcDbEntity
  8
0
370
    35
390
0
 62
     7
 48
0.000034
100
AcDbLine
 10
2.685361
 20
5.317971
 30
0.0
 11
2.685268
 21
5.316618
 31
0.0
210
0.0
220
0.0
230
1.0
  0
LINE
  5
25A
100
AcDbEntity
  8
0
370
    35
390
0
 62
     7
 48
0.000036
100
AcDbLine
 10
2.685268
 20
5.316618
 30
0.0
 11
2.684963
 21
5.315214
 31
0.0
210
0.0
220
0.0
230
1.0
  0
LINE
  5
25B
100
AcDbEntity
  8
0
370
    35
390
0
 62
     7
 48
0.000019
100
AcDbLine
 10
2.684963
 20
5.315214
 30
0.0
 11
2.684732
 21
5.314491
 31
0.0
210
0.0
220
0.0
230
1.0
  0
LINE
  5
25C
100
AcDbEntity
  8
0
370
    35
390
0
 62
     7
 48
0.000035
100
AcDbLine
 10
2.684732
 20
5.314491
 30
0.0
 11
2.684403
 21
5.315838
 31
0.0
210
0.0
220
0.0
230
1.0
  0
LINE
  5
25D
100
AcDbEntity
  8
0
370
    35
390
0
 62
     7
 48
0.000038
100
AcDbLine
 10
2.767875
 20
5.254799
 30
0.0
 11
2.76637
 21
5.254584
 31
0.0
210
0.0
220
0.0
230
1.0
  0
LINE
  5
25E
100
AcDbEntity
  8
0
370
    35
390
0
 62
     7
 48
0.000036
100
AcDbLine
 10
2.76637
 20
5.254584
 30
0.0
 11
2.764941
 21
5.254369
 31
0.0
210
0.0
220
0.0
230
1.0
  0
LINE
  5
25F
100
AcDbEntity
  8
0
370
    35
390
0
 62
     7
 48
0.000034
100
AcDbLine
 10
2.764941
 20
5.254369
 30
0.0
 11
2.763588
 21
5.254154
 31
0.0
210
0.0
220
0.0
230
1.0
  0
LINE
  5
260
100
AcDbEntity
  8
0
370
    35
390
0
 62
     7
 48
0.000032
100
AcDbLine
 10
2.763588
 20
5.254154
 30
0.0
 11
2.762311
 21
5.253938
 31
0.0
210
0.0
220
0.0
230
1.0
  0
LINE
  5
261
100
AcDbEntity
  8
0
370
    35
390
0
 62
     7
 48
0.000031
100
AcDbLine
 10
2.762311
 20
5.253938
 30
0.0
 11
2.761109
 21
5.253722
 31
0.0
210
0.0
220
0.0
230
1.0
  0
LINE
  5
262
100
AcDbEntity
  8
0
370
    35
390
0
 62
     7
 48
0.000029
100
AcDbLine
 10
2.761109
 20
5.253722
 30
0.0
 11
2.759982
 21
5.253504
 31
0.0
210
0.0
220
0.0
230
1.0
  0
LINE
  5
263
100
AcDbEntity
  8
0
370
    35
390
0
 62
     7
 48
0.000027
100
AcDbLine
 10
2.759982
 20
5.253504
 30
0.0
 11
2.75893
 21
5.253286
 31
0.0
210
0.0
220
0.0
230
1.0
  0
LINE
  5
264
100
AcDbEntity
  8
0
370
    35
390
0
 62
     7
 48
0.000048
100
AcDbLine
 10
2.75893
 20
5.253286
 30
0.0
 11
2.757055
 21
5.25285
 31
0.0
210
0.0
220
0.0
230
1.0
  0
LINE
  5
265
100
AcDbEntity
  8
0
370
    35
390
0
 62
     7
 48
0.000043
100
AcDbLine
 10
2.757055
 20
5.25285
 30
0.0
 11
2.755405
 21
5.252388
 31
0.0
210
0.0
220
0.0
230
1.0
  0
LINE
  5
266
100
AcDbEntity
  8
0
370
    35
390
0
 62
     7
 48
0.000049
100
AcDbLine
 10
2.755405
 20
5.252388
 30
0.0
 11
2.753525
 21
5.251767
 31
0.0
210
0.0
220
0.0
230
1.0
  0
LINE
  5
267
100
AcDbEntity
  8
0
370
    35
390
0
 62
     7
 48
0.000028
100
AcDbLine
 10
2.753525
 20
5.251767
 30
0.0
 11
2.75247
 21
5.251388
 31
0.0
210
0.0
220
0.0
230
1.0
  0
LINE
  5
268
100
AcDbEntity
  8
0
370
    35
390
0
 62
     7
 48
0.00003
100
AcDbLine
 10
2.75247
 20
5.251388
 30
0.0
 11
2.751338
 21
5.250964
 31
0.0
210
0.0
220
0.0
230
1.0
  0
LINE
  5
269
100
AcDbEntity
  8
0
370
    35
390
0
 62
     7
 48
0.000032
100
AcDbLine
 10
2.751338
 20
5.250964
 30
0.0
 11
2.75013
 21
5.250494
 31
0.0
210
0.0
220
0.0
230
1.0
  0
LINE
  5
26A
100
AcDbEntity
  8
0
370
    35
390
0
 62
     7
 48
0.000035
100
AcDbLine
 10
2.75013
 20
5.250494
 30
0.0
 11
2.748845
 21
5.249979
 31
0.0
210
0.0
220
0.0
230
1.0
  0
LINE
  5
26B
100
AcDbEntity
  8
0
370
    35
390
0
 62
     7
 48
0.000037
100
AcDbLine
 10
2.748845
 20
5.249979
 30
0.0
 11
2.747484
 21
5.249418
 31
0.0
210
0.0
220
0.0
230
1.0
  0
LINE
  5
26C
100
AcDbEntity
  8
0
370
    35
390
0
 62
     7
 48
0.000039
100
AcDbLine
 10
2.747484
 20
5.249418
 30
0.0
 11
2.746047
 21
5.248812
 31
0.0
210
0.0
220
0.0
230
1.0
  0
LINE
  5
26D
100
AcDbEntity
  8
0
370
    35
390
0
 62
     7
 48
0.000041
100
AcDbLine
 10
2.746047
 20
5.248812
 30
0.0
 11
2.744532
 21
5.24816
 31
0.0
210
0.0
220
0.0
230
1.0
  0
LINE
  5
26E
100
AcDbEntity
  8
0
370
    35
390
0
 62
     7
 48
0.000041
100
AcDbLine
 10
2.744532
 20
5.24816
 30
0.0
 11
2.743033
 21
5.247518
 31
0.0
210
0.0
220
0.0
230
1.0
  0
LINE
  5
26F
100
AcDbEntity
  8
0
370
    35
390
0
 62
     7
 48
0.000056
100
AcDbLine
 10
2.743033
 20
5.247518
 30
0.0
 11
2.743733
 21
5.249628
 31
0.0
210
0.0
220
0.0
230
1.0
  0
LINE
  5
270
100
AcDbEntity
  8
0
370
    35
390
0
 62
     7
 48
0.000052
100
AcDbLine
 10
2.743733
 20
5.249628
 30
0.0
 11
2.74433
 21
5.251635
 31
0.0
210
0.0
220
0.0
230
1.0
  0
LINE
  5
271
100
AcDbEntity
  8
0
370
    35
390
0
 62
     7
 48
0.000049
100
AcDbLine
 10
2.74433
 20
5.251635
 30
0.0
 11
2.744827
 21
5.253537
 31
0.0
210
0.0
220
0.0
230
1.0
  0
LINE
  5
272
100
AcDbEntity
  8
0
370
    35
390
0
 62
     7
 48
0.000046
100
AcDbLine
 10
2.744827
 20
5.253537
 30
0.0
 11
2.745223
 21
5.255334
 31
0.0
210
0.0
220
0.0
230
1.0
  0
LINE
  5
273
100
AcDbEntity
  8
0
370
    35
390
0
 62
     7
 48
0.000043
100
AcDbLine
 10
2.745223
 20
5.255334
 30
0.0
 11
2.745517
 21
5.257027
 31
0.0
210
0.0
220
0.0
230
1.0
  0
LINE
  5
274
100
AcDbEntity
  8
0
370
    35
390
0
 62
     7
 48
0.00004
100
AcDbLine
 10
2.745517
 20
5.257027
 30
0.0
 11
2.745709
 21
5.258617
 31
0.0
210
0.0
220
0.0
230
1.0
  0
LINE
  5
275
100
AcDbEntity
  8
0
370
    35
390
0
 62
     7
 48
0.000037
100
AcDbLine
 10
2.745709
 20
5.258617
 30
0.0
 11
2.745801
 21
5.2601
 31
0.0
210
0.0
220
0.0
230
1.0
  0
LINE
  5
276
100
AcDbEntity
  8
0
370
    35
390
0
 62
     7
 48
0.000035
100
AcDbLine
 10
2.745801
 20
5.2601
 30
0.0
 11
2.745792
 21
5.26148
 31
0.0
210
0.0
220
0.0
230
1.0
  0
LINE
  5
277
100
AcDbEntity
  8
0
370
    35
390
0
 62
     7
 48
0.000032
100
AcDbLine
 10
2.745792
 20
5.26148
 30
0.0
 11
2.745681
 21
5.262755
 31
0.0
210
0.0
220
0.0
230
1.0
  0
LINE
  5
278
100
AcDbEntity
  8
0
370
    35
390
0
 62
     7
 48
0.00003
100
AcDbLine
 10
2.745681
 20
5.262755
 30
0.0
 11
2.74547
 21
5.263927
 31
0.0
210
0.0
220
0.0
230
1.0
  0
LINE
  5
279
100
AcDbEntity
  8
0
370
    35
390
0
 62
     7
 48
0.00003
100
AcDbLine
 10
2.74547
 20
5.263927
 30
0.0
 11
2.745138
 21
5.265071
 31
0.0
210
0.0
220
0.0
230
1.0
  0
LINE
  5
27A
100
AcDbEntity
  8
0
370
    35
390
0
 62
     7
 48
0.000032
100
AcDbLine
 10
2.745138
 20
5.265071
 30
0.0
 11
2.74467
 21
5.266268
 31
0.0
210
0.0
220
0.0
230
1.0
  0
LINE
  5
27B
100
AcDbEntity
  8
0
370
    35
390
0
 62
     7
 48
0.000035
100
AcDbLine
 10
2.74467
 20
5.266268
 30
0.0
 11
2.744063
 21
5.267516
 31
0.0
210
0.0
220
0.0
230
1.0
  0
LINE
  5
27C
100
AcDbEntity
  8
0
370
    35
390
0
 62
     7
 48
0.000037
100
AcDbLine
 10
2.744063
 20
5.267516
 30
0.0
 11
2.743319
 21
5.268817
 31
0.0
210
0.0
220
0.0
230
1.0
  0
LINE
  5
27D
100
AcDbEntity
  8
0
370
    35
390
0
 62
     7
 48
0.00004
100
AcDbLine
 10
2.743319
 20
5.268817
 30
0.0
 11
2.742438
 21
5.270171
 31
0.0
210
0.0
220
0.0
230
1.0
  0
LINE
  5
27E
100
AcDbEntity
  8
0
370
    35
390
0
 62
     7
 48
0.000043
100
AcDbLine
 10
2.742438
 20
5.270171
 30
0.0
 11
2.741419
 21
5.271575
 31
0.0
210
0.0
220
0.0
230
1.0
  0
LINE
  5
27F
100
AcDbEntity
  8
0
370
    35
390
0
 62
     7
 48
0.000047
100
AcDbLine
 10
2.741419
 20
5.271575
 30
0.0
 11
2.740262
 21
5.273031
 31
0.0
210
0.0
220
0.0
230
1.0
  0
LINE
  5
280
100
AcDbEntity
  8
0
370
    35
390
0
 62
     7
 48
0.00005
100
AcDbLine
 10
2.740262
 20
5.273031
 30
0.0
 11
2.738968
 21
5.274539
 31
0.0
210
0.0
220
0.0
230
1.0
  0
LINE
  5
281
100
AcDbEntity
  8
0
370
    35
390
0
 62
     7
 48
0.000053
100
AcDbLine
 10
2.738968
 20
5.274539
 30
0.0
 11
2.737536
 21
5.2761
 31
0.0
210
0.0
220
0.0
230
1.0
  0
LINE
  5
282
100
AcDbEntity
  8
0
370
    35
390
0
 62
     7
 48
0.000056
100
AcDbLine
 10
2.737536
 20
5.2761
 30
0.0
 11
2.735967
 21
5.277713
 31
0.0
210
0.0
220
0.0
230
1.0
  0
LINE
  5
283
100
AcDbEntity
  8
0
370
    35
390
0
 62
     7
 48
0.000108
100
AcDbLine
 10
2.735967
 20
5.277713
 30
0.0
 11
2.732862
 21
5.280711
 31
0.0
210
0.0
220
0.0
230
1.0
  0
LINE
  5
284
100
AcDbEntity
  8
0
370
    35
390
0
 62
     7
 48
0.000184
100
AcDbLine
 10
2.732862
 20
5.280711
 30
0.0
 11
2.727722
 21
5.285957
 31
0.0
210
0.0
220
0.0
230
1.0
  0
LINE
  5
285
100
AcDbEntity
  8
0
370
    35
390
0
 62
     7
 48
0.00007
100
AcDbLine
 10
2.727722
 20
5.285957
 30
0.0
 11
2.725795
 21
5.287991
 31
0.0
210
0.0
220
0.0
230
1.0
  0
LINE
  5
286
100
AcDbEntity
  8
0
370
    35
390
0
 62
     7
 48
0.000886
100
AcDbLine
 10
2.725795
 20
5.287991
 30
0.0
 11
2.70074
 21
5.262936
 31
0.0
210
0.0
220
0.0
230
1.0
  0
LINE
  5
287
100
AcDbEntity
  8
0
370
    35
390
0
 62
     7
 48
0.000115
100
AcDbLine
 10
2.70074
 20
5.262936
 30
0.0
 11
2.704006
 21
5.25967
 31
0.0
210
0.0
220
0.0
230
1.0
  0
LINE
  5
288
100
AcDbEntity
  8
0
370
    35
390
0
 62
     7
 48
0.000782
100
AcDbLine
 10
2.704006
 20
5.25967
 30
0.0
 11
2.726116
 21
5.281781
 31
0.0
210
0.0
220
0.0
230
1.0
  0
LINE
  5
289
100
AcDbEntity
  8
0
370
    35
390
0
 62
     7
 48
0.000055
100
AcDbLine
 10
2.726116
 20
5.281781
 30
0.0
 11
2.727722
 21
5.280282
 31
0.0
210
0.0
220
0.0
230
1.0
  0
LINE
  5
28A
100
AcDbEntity
  8
0
370
    35
390
0
 62
     7
 48
0.000048
100
AcDbLine
 10
2.727722
 20
5.280282
 30
0.0
 11
2.729125
 21
5.278995
 31
0.0
210
0.0
220
0.0
230
1.0
  0
LINE
  5
28B
100
AcDbEntity
  8
0
370
    35
390
0
 62
     7
 48
0.000049
100
AcDbLine
 10
2.729125
 20
5.278995
 30
0.0
 11
2.730549
 21
5.277661
 31
0.0
210
0.0
220
0.0
230
1.0
  0
LINE
  5
28C
100
AcDbEntity
  8
0
370
    35
390
0
 62
     7
 48
0.00005
100
AcDbLine
 10
2.730549
 20
5.277661
 30
0.0
 11
2.731994
 21
5.27628
 31
0.0
210
0.0
220
0.0
230
1.0
  0
LINE
  5
28D
100
AcDbEntity
  8
0
370
    35
390
0
 62
     7
 48
0.000051
100
AcDbLine
 10
2.731994
 20
5.27628
 30
0.0
 11
2.733462
 21
5.274851
 31
0.0
210
0.0
220
0.0
230
1.0
  0
LINE
  5
28E
100
AcDbEntity
  8
0
370
    35
390
0
 62
     7
 48
0.000052
100
AcDbLine
 10
2.733462
 20
5.274851
 30
0.0
 11
2.734949
 21
5.273375
 31
0.0
210
0.0
220
0.0
230
1.0
  0
LINE
  5
28F
100
AcDbEntity
  8
0
370
    35
390
0
 62
     7
 48
0.000074
100
AcDbLine
 10
2.734949
 20
5.273375
 30
0.0
 11
2.736995
 21
5.271217
 31
0.0
210
0.0
220
0.0
230
1.0
  0
LINE
  5
290
100
AcDbEntity
  8
0
370
    35
390
0
 62
     7
 48
0.000069
100
AcDbLine
 10
2.736995
 20
5.271217
 30
0.0
 11
2.738763
 21
5.269108
 31
0.0
210
0.0
220
0.0
230
1.0
  0
LINE
  5
291
100
AcDbEntity
  8
0
370
    35
390
0
 62
     7
 48
0.000064
100
AcDbLine
 10
2.738763
 20
5.269108
 30
0.0
 11
2.740255
 21
5.267049
 31
0.0
210
0.0
220
0.0
230
1.0
  0
LINE
  5
292
100
AcDbEntity
  8
0
370
    35
390
0
 62
     7
 48
0.000059
100
AcDbLine
 10
2.740255
 20
5.267049
 30
0.0
 11
2.741468
 21
5.265042
 31
0.0
210
0.0
220
0.0
230
1.0
  0
LINE
  5
293
100
AcDbEntity
  8
0
370
    35
390
0
 62
     7
 48
0.000054
100
AcDbLine
 10
2.741468
 20
5.265042
 30
0.0
 11
2.742405
 21
5.263083
 31
0.0
210
0.0
220
0.0
230
1.0
  0
LINE
  5
294
100
AcDbEntity
  8
0
370
    35
390
0
 62
     7
 48
0.00005
100
AcDbLine
 10
2.742405
 20
5.263083
 30
0.0
 11
2.743064
 21
5.261176
 31
0.0
210
0.0
220
0.0
230
1.0
  0
LINE
  5
295
100
AcDbEntity
  8
0
370
    35
390
0
 62
     7
 48
0.000047
100
AcDbLine
 10
2.743064
 20
5.261176
 30
0.0
 11
2.743445
 21
5.259319
 31
0.0
210
0.0
220
0.0
230
1.0
  0
LINE
  5
296
100
AcDbEntity
  8
0
370
    35
390
0
 62
     7
 48
0.000045
100
AcDbLine
 10
2.743445
 20
5.259319
 30
0.0
 11
2.743549
 21
5.257513
 31
0.0
210
0.0
220
0.0
230
1.0
  0
LINE
  5
297
100
AcDbEntity
  8
0
370
    35
390
0
 62
     7
 48
0.000044
100
AcDbLine
 10
2.743549
 20
5.257513
 30
0.0
 11
2.743376
 21
5.255755
 31
0.0
210
0.0
220
0.0
230
1.0
  0
LINE
  5
298
100
AcDbEntity
  8
0
370
    35
390
0
 62
     7
 48
0.000044
100
AcDbLine
 10
2.743376
 20
5.255755
 30
0.0
 11
2.742926
 21
5.254049
 31
0.0
210
0.0
220
0.0
230
1.0
  0
LINE
  5
299
100
AcDbEntity
  8
0
370
    35
390
0
 62
     7
 48
0.00005
100
AcDbLine
 10
2.742926
 20
5.254049
 30
0.0
 11
2.7428
 21
5.256058
 31
0.0
210
0.0
220
0.0
230
1.0
  0
LINE
  5
29A
100
AcDbEntity
  8
0
370
    35
390
0
 62
     7
 48
0.000048
100
AcDbLine
 10
2.7428
 20
5.256058
 30
0.0
 11
2.742507
 21
5.257973
 31
0.0
210
0.0
220
0.0
230
1.0
  0
LINE
  5
29B
100
AcDbEntity
  8
0
370
    35
390
0
 62
     7
 48
0.000047
100
AcDbLine
 10
2.742507
 20
5.257973
 30
0.0
 11
2.742046
 21
5.259793
 31
0.0
210
0.0
220
0.0
230
1.0
  0
LINE
  5
29C
100
AcDbEntity
  8
0
370
    35
390
0
 62
     7
 48
0.000046
100
AcDbLine
 10
2.742046
 20
5.259793
 30
0.0
 11
2.741419
 21
5.261519
 31
0.0
210
0.0
220
0.0
230
1.0
  0
LINE
  5
29D
100
AcDbEntity
  8
0
370
    35
390
0
 62
     7
 48
0.000045
100
AcDbLine
 10
2.741419
 20
5.261519
 30
0.0
 11
2.740624
 21
5.263151
 31
0.0
210
0.0
220
0.0
230
1.0
  0
LINE
  5
29E
100
AcDbEntity
  8
0
370
    35
390
0
 62
     7
 48
0.00005
100
AcDbLine
 10
2.740624
 20
5.263151
 30
0.0
 11
2.739577
 21
5.264833
 31
0.0
210
0.0
220
0.0
230
1.0
  0
LINE
  5
29F
100
AcDbEntity
  8
0
370
    35
390
0
 62
     7
 48
0.000028
100
AcDbLine
 10
2.739577
 20
5.264833
 30
0.0
 11
2.738927
 21
5.265749
 31
0.0
210
0.0
220
0.0
230
1.0
  0
LINE
  5
2A0
100
AcDbEntity
  8
0
370
    35
390
0
 62
     7
 48
0.00003
100
AcDbLine
 10
2.738927
 20
5.265749
 30
0.0
 11
2.738192
 21
5.266713
 31
0.0
210
0.0
220
0.0
230
1.0
  0
LINE
  5
2A1
100
AcDbEntity
  8
0
370
    35
390
0
 62
     7
 48
0.000033
100
AcDbLine
 10
2.738192
 20
5.266713
 30
0.0
 11
2.737372
 21
5.267727
 31
0.0
210
0.0
220
0.0
230
1.0
  0
LINE
  5
2A2
100
AcDbEntity
  8
0
370
    35
390
0
 62
     7
 48
0.000035
100
AcDbLine
 10
2.737372
 20
5.267727
 30
0.0
 11
2.736468
 21
5.268791
 31
0.0
210
0.0
220
0.0
230
1.0
  0
LINE
  5
2A3
100
AcDbEntity
  8
0
370
    35
390
0
 62
     7
 48
0.000037
100
AcDbLine
 10
2.736468
 20
5.268791
 30
0.0
 11
2.73548
 21
5.269903
 31
0.0
210
0.0
220
0.0
230
1.0
  0
LINE
  5
2A4
100
AcDbEntity
  8
0
370
    35
390
0
 62
     7
 48
0.00004
100
AcDbLine
 10
2.73548
 20
5.269903
 30
0.0
 11
2.734406
 21
5.271065
 31
0.0
210
0.0
220
0.0
230
1.0
  0
LINE
  5
2A5
100
AcDbEntity
  8
0
370
    35
390
0
 62
     7
 48
0.000042
100
AcDbLine
 10
2.734406
 20
5.271065
 30
0.0
 11
2.733248
 21
5.272276
 31
0.0
210
0.0
220
0.0
230
1.0
  0
LINE
  5
2A6
100
AcDbEntity
  8
0
370
    35
390
0
 62
     7
 48
0.000044
100
AcDbLine
 10
2.733248
 20
5.272276
 30
0.0
 11
2.732006
 21
5.273536
 31
0.0
210
0.0
220
0.0
230
1.0
  0
LINE
  5
2A7
100
AcDbEntity
  8
0
370
    35
390
0
 62
     7
 48
0.000034
100
AcDbLine
 10
2.732006
 20
5.273536
 30
0.0
 11
2.731028
 21
5.274491
 31
0.0
210
0.0
220
0.0
230
1.0
  0
LINE
  5
2A8
100
AcDbEntity
  8
0
370
    35
390
0
 62
     7
 48
0.000037
100
AcDbLine
 10
2.731028
 20
5.274491
 30
0.0
 11
2.729941
 21
5.275515
 31
0.0
210
0.0
220
0.0
230
1.0
  0
LINE
  5
2A9
100
AcDbEntity
  8
0
370
    35
390
0
 62
     7
 48
0.000041
100
AcDbLine
 10
2.729941
 20
5.275515
 30
0.0
 11
2.728742
 21
5.276607
 31
0.0
210
0.0
220
0.0
230
1.0
  0
LINE
  5
2AA
100
AcDbEntity
  8
0
370
    35
390
0
 62
     7
 48
0.000044
100
AcDbLine
 10
2.728742
 20
5.276607
 30
0.0
 11
2.727431
 21
5.277768
 31
0.0
210
0.0
220
0.0
230
1.0
  0
LINE
  5
2AB
100
AcDbEntity
  8
0
370
    35
390
0
 62
     7
 48
0.000047
100
AcDbLine
 10
2.727431
 20
5.277768
 30
0.0
 11
2.726009
 21
5.278997
 31
0.0
210
0.0
220
0.0
230
1.0
  0
LINE
  5
2AC
100
AcDbEntity
  8
0
370
    35
390
0
 62
     7
 48
0.000731
100
AcDbLine
 10
2.726009
 20
5.278997
 30
0.0
 11
2.705344
 21
5.258332
 31
0.0
210
0.0
220
0.0
230
1.0
  0
LINE
  5
2AD
100
AcDbEntity
  8
0
370
    35
390
0
 62
     7
 48
0.000286
100
AcDbLine
 10
2.705344
 20
5.258332
 30
0.0
 11
2.713428
 21
5.250248
 31
0.0
210
0.0
220
0.0
230
1.0
  0
LINE
  5
2AE
100
AcDbEntity
  8
0
370
    35
390
0
 62
     7
 48
0.000441
100
AcDbLine
 10
2.713428
 20
5.250248
 30
0.0
 11
2.731041
 21
5.25073
 31
0.0
210
0.0
220
0.0
230
1.0
  0
LINE
  5
2AF
100
AcDbEntity
  8
0
370
    35
390
0
 62
     7
 48
0.000793
100
AcDbLine
 10
2.731041
 20
5.25073
 30
0.0
 11
2.708609
 21
5.228298
 31
0.0
210
0.0
220
0.0
230
1.0
  0
LINE
  5
2B0
100
AcDbEntity
  8
0
370
    35
390
0
 62
     7
 48
0.000447
100
AcDbLine
 10
2.708609
 20
5.228298
 30
0.0
 11
2.708502
 21
5.24618
 31
0.0
210
0.0
220
0.0
230
1.0
  0
LINE
  5
2B1
100
AcDbEntity
  8
0
370
    35
390
0
 62
     7
 48
0.000433
100
AcDbLine
 10
2.708502
 20
5.24618
 30
0.0
 11
2.696243
 21
5.258439
 31
0.0
210
0.0
220
0.0
230
1.0
  0
LINE
  5
2B2
100
AcDbEntity
  8
0
370
    35
390
0
 62
     7
 48
0.000954
100
AcDbLine
 10
2.696243
 20
5.258439
 30
0.0
 11
2.66926
 21
5.231457
 31
0.0
210
0.0
220
0.0
230
1.0
  0
LINE
  5
2B3
100
AcDbEntity
  8
0
370
    35
390
0
 62
     7
 48
0.000345
100
AcDbLine
 10
2.66926
 20
5.231457
 30
0.0
 11
2.669154
 21
5.217645
 31
0.0
210
0.0
220
0.0
230
1.0
  0
LINE
  5
2B4
100
AcDbEntity
  8
0
370
    35
390
0
 62
     7
 48
0.000929
100
AcDbLine
 10
2.669154
 20
5.217645
 30
0.0
 11
2.642868
 21
5.243931
 31
0.0
210
0.0
220
0.0
230
1.0
  0
LINE
  5
2B5
100
AcDbEntity
  8
0
370
    35
390
0
 62
     7
 48
0.000395
100
AcDbLine
 10
2.642868
 20
5.243931
 30
0.0
 11
2.658553
 21
5.242164
 31
0.0
210
0.0
220
0.0
230
1.0
  0
LINE
  5
2B6
100
AcDbEntity
  8
0
370
    35
390
0
 62
     7
 48
0.000814
100
AcDbLine
 10
2.658553
 20
5.242164
 30
0.0
 11
2.681574
 21
5.265184
 31
0.0
210
0.0
220
0.0
230
1.0
  0
LINE
  5
2B7
100
AcDbEntity
  8
0
370
    35
390
0
 62
     7
 48
0.000029
100
AcDbLine
 10
2.681574
 20
5.265184
 30
0.0
 11
2.680728
 21
5.265968
 31
0.0
210
0.0
220
0.0
230
1.0
  0
LINE
  5
2B8
100
AcDbEntity
  8
0
370
    35
390
0
 62
     7
 48
0.000028
100
AcDbLine
 10
2.680728
 20
5.265968
 30
0.0
 11
2.679842
 21
5.266669
 31
0.0
210
0.0
220
0.0
230
1.0
  0
LINE
  5
2B9
100
AcDbEntity
  8
0
370
    35
390
0
 62
     7
 48
0.000028
100
AcDbLine
 10
2.679842
 20
5.266669
 30
0.0
 11
2.678913
 21
5.267287
 31
0.0
210
0.0
220
0.0
230
1.0
  0
LINE
  5
2BA
100
AcDbEntity
  8
0
370
    35
390
0
 62
     7
 48
0.000028
100
AcDbLine
 10
2.678913
 20
5.267287
 30
0.0
 11
2.677942
 21
5.267823
 31
0.0
210
0.0
220
0.0
230
1.0
  0
LINE
  5
2BB
100
AcDbEntity
  8
0
370
    35
390
0
 62
     7
 48
0.000028
100
AcDbLine
 10
2.677942
 20
5.267823
 30
0.0
 11
2.67693
 21
5.268277
 31
0.0
210
0.0
220
0.0
230
1.0
  0
LINE
  5
2BC
100
AcDbEntity
  8
0
370
    35
390
0
 62
     7
 48
0.000028
100
AcDbLine
 10
2.67693
 20
5.268277
 30
0.0
 11
2.675876
 21
5.268647
 31
0.0
210
0.0
220
0.0
230
1.0
  0
LINE
  5
2BD
100
AcDbEntity
  8
0
370
    35
390
0
 62
     7
 48
0.000028
100
AcDbLine
 10
2.675876
 20
5.268647
 30
0.0
 11
2.67478
 21
5.268936
 31
0.0
210
0.0
220
0.0
230
1.0
  0
LINE
  5
2BE
100
AcDbEntity
  8
0
370
    35
390
0
 62
     7
 48
0.000029
100
AcDbLine
 10
2.67478
 20
5.268936
 30
0.0
 11
2.673642
 21
5.269142
 31
0.0
210
0.0
220
0.0
230
1.0
  0
LINE
  5
2BF
100
AcDbEntity
  8
0
370
    35
390
0
 62
     7
 48
0.00003
100
AcDbLine
 10
2.673642
 20
5.269142
 30
0.0
 11
2.672463
 21
5.269266
 31
0.0
210
0.0
220
0.0
230
1.0
  0
LINE
  5
2C0
100
AcDbEntity
  8
0
370
    35
390
0
 62
     7
 48
0.000031
100
AcDbLine
 10
2.672463
 20
5.269266
 30
0.0
 11
2.671241
 21
5.269307
 31
0.0
210
0.0
220
0.0
230
1.0
  0
LINE
  5
2C1
100
AcDbEntity
  8
0
370
    35
390
0
 62
     7
 48
0.000054
100
AcDbLine
 10
2.671241
 20
5.269307
 30
0.0
 11
2.671348
 21
5.271449
 31
0.0
210
0.0
220
0.0
230
1.0
  0
LINE
  5
2C2
100
AcDbEntity
  8
0
370
    35
390
0
 62
     7
 48
0.000032
100
AcDbLine
 10
2.671348
 20
5.271449
 30
0.0
 11
2.672641
 21
5.271458
 31
0.0
210
0.0
220
0.0
230
1.0
  0
LINE
  5
2C3
100
AcDbEntity
  8
0
370
    35
390
0
 62
     7
 48
0.000032
100
AcDbLine
 10
2.672641
 20
5.271458
 30
0.0
 11
2.673906
 21
5.271359
 31
0.0
210
0.0
220
0.0
230
1.0
  0
LINE
  5
2C4
100
AcDbEntity
  8
0
370
    35
390
0
 62
     7
 48
0.000031
100
AcDbLine
 10
2.673906
 20
5.271359
 30
0.0
 11
2.675142
 21
5.27115
 31
0.0
210
0.0
220
0.0
230
1.0
  0
LINE
  5
2C5
100
AcDbEntity
  8
0
370
    35
390
0
 62
     7
 48
0.000031
100
AcDbLine
 10
2.675142
 20
5.27115
 30
0.0
 11
2.676351
 21
5.270832
 31
0.0
210
0.0
220
0.0
230
1.0
  0
LINE
  5
2C6
100
AcDbEntity
  8
0
370
    35
390
0
 62
     7
 48
0.000031
100
AcDbLine
 10
2.676351
 20
5.270832
 30
0.0
 11
2.677532
 21
5.270404
 31
0.0
210
0.0
220
0.0
230
1.0
  0
LINE
  5
2C7
100
AcDbEntity
  8
0
370
    35
390
0
 62
     7
 48
0.000032
100
AcDbLine
 10
2.677532
 20
5.270404
 30
0.0
 11
2.678685
 21
5.269869
 31
0.0
210
0.0
220
0.0
230
1.0
  0
LINE
  5
2C8
100
AcDbEntity
  8
0
370
    35
390
0
 62
     7
 48
0.000032
100
AcDbLine
 10
2.678685
 20
5.269869
 30
0.0
 11
2.67981
 21
5.269223
 31
0.0
210
0.0
220
0.0
230
1.0
  0
LINE
  5
2C9
100
AcDbEntity
  8
0
370
    35
390
0
 62
     7
 48
0.000033
100
AcDbLine
 10
2.67981
 20
5.269223
 30
0.0
 11
2.680908
 21
5.268467
 31
0.0
210
0.0
220
0.0
230
1.0
  0
LINE
  5
2CA
100
AcDbEntity
  8
0
370
    35
390
0
 62
     7
 48
0.000034
100
AcDbLine
 10
2.680908
 20
5.268467
 30
0.0
 11
2.681978
 21
5.267603
 31
0.0
210
0.0
220
0.0
230
1.0
  0
LINE
  5
2CB
100
AcDbEntity
  8
0
370
    35
390
0
 62
     7
 48
0.000036
100
AcDbLine
 10
2.681978
 20
5.267603
 30
0.0
 11
2.683019
 21
5.26663
 31
0.0
210
0.0
220
0.0
230
1.0
  0
LINE
  5
2CC
100
AcDbEntity
  8
0
370
    35
390
0
 62
     7
 48
0.000089
100
AcDbLine
 10
2.683019
 20
5.26663
 30
0.0
 11
2.685536
 21
5.269146
 31
0.0
210
0.0
220
0.0
230
1.0
  0
LINE
  5
2CD
100
AcDbEntity
  8
0
370
    35
390
0
 62
     7
 48
0.000028
100
AcDbLine
 10
2.685536
 20
5.269146
 30
0.0
 11
2.684807
 21
5.270011
 31
0.0
210
0.0
220
0.0
230
1.0
  0
LINE
  5
2CE
100
AcDbEntity
  8
0
370
    35
390
0
 62
     7
 48
0.000029
100
AcDbLine
 10
2.684807
 20
5.270011
 30
0.0
 11
2.684037
 21
5.270859
 31
0.0
210
0.0
220
0.0
230
1.0
  0
LINE
  5
2CF
100
AcDbEntity
  8
0
370
    35
390
0
 62
     7
 48
0.000035
100
AcDbLine
 10
2.684037
 20
5.270859
 30
0.0
 11
2.683013
 21
5.271801
 31
0.0
210
0.0
220
0.0
230
1.0
  0
LINE
  5
2D0
100
AcDbEntity
  8
0
370
    35
390
0
 62
     7
 48
0.000034
100
AcDbLine
 10
2.683013
 20
5.271801
 30
0.0
 11
2.681935
 21
5.272635
 31
0.0
210
0.0
220
0.0
230
1.0
  0
LINE
  5
2D1
100
AcDbEntity
  8
0
370
    35
390
0
 62
     7
 48
0.000034
100
AcDbLine
 10
2.681935
 20
5.272635
 30
0.0
 11
2.680803
 21
5.27336
 31
0.0
210
0.0
220
0.0
230
1.0
  0
LINE
  5
2D2
100
AcDbEntity
  8
0
370
    35
390
0
 62
     7
 48
0.000033
100
AcDbLine
 10
2.680803
 20
5.27336
 30
0.0
 11
2.679617
 21
5.273978
 31
0.0
210
0.0
220
0.0
230
1.0
  0
LINE
  5
2D3
100
AcDbEntity
  8
0
370
    35
390
0
 62
     7
 48
0.000034
100
AcDbLine
 10
2.679617
 20
5.273978
 30
0.0
 11
2.678375
 21
5.274487
 31
0.0
210
0.0
220
0.0
230
1.0
  0
LINE
  5
2D4
100
AcDbEntity
  8
0
370
    35
390
0
 62
     7
 48
0.000034
100
AcDbLine
 10
2.678375
 20
5.274487
 30
0.0
 11
2.677079
 21
5.274888
 31
0.0
210
0.0
220
0.0
230
1.0
  0
LINE
  5
2D5
100
AcDbEntity
  8
0
370
    35
390
0
 62
     7
 48
0.000035
100
AcDbLine
 10
2.677079
 20
5.274888
 30
0.0
 11
2.675728
 21
5.27518
 31
0.0
210
0.0
220
0.0
230
1.0
  0
LINE
  5
2D6
100
AcDbEntity
  8
0
370
    35
390
0
 62
     7
 48
0.000035
100
AcDbLine
 10
2.675728
 20
5.27518
 30
0.0
 11
2.674323
 21
5.275365
 31
0.0
210
0.0
220
0.0
230
1.0
  0
LINE
  5
2D7
100
AcDbEntity
  8
0
370
    35
390
0
 62
     7
 48
0.000037
100
AcDbLine
 10
2.674323
 20
5.275365
 30
0.0
 11
2.672863
 21
5.275442
 31
0.0
210
0.0
220
0.0
230
1.0
  0
LINE
  5
2D8
100
AcDbEntity
  8
0
370
    35
390
0
 62
     7
 48
0.000038
100
AcDbLine
 10
2.672863
 20
5.275442
 30
0.0
 11
2.671349
 21
5.27541
 31
0.0
210
0.0
220
0.0
230
1.0
  0
LINE
  5
2D9
100
AcDbEntity
  8
0
370
    35
390
0
 62
     7
 48
0.000033
100
AcDbLine
 10
2.671349
 20
5.27541
 30
0.0
 11
2.671831
 21
5.276641
 31
0.0
210
0.0
220
0.0
230
1.0
  0
LINE
  5
2DA
100
AcDbEntity
  8
0
370
    35
390
0
 62
     7
 48
0.000051
100
AcDbLine
 10
2.671831
 20
5.276641
 30
0.0
 11
2.673699
 21
5.277431
 31
0.0
210
0.0
220
0.0
230
1.0
  0
LINE
  5
2DB
100
AcDbEntity
  8
0
370
    35
390
0
 62
     7
 48
0.000048
100
AcDbLine
 10
2.673699
 20
5.277431
 30
0.0
 11
2.675556
 21
5.277978
 31
0.0
210
0.0
220
0.0
230
1.0
  0
LINE
  5
2DC
100
AcDbEntity
  8
0
370
    35
390
0
 62
     7
 48
0.000047
100
AcDbLine
 10
2.675556
 20
5.277978
 30
0.0
 11
2.677403
 21
5.278284
 31
0.0
210
0.0
220
0.0
230
1.0
  0
LINE
  5
2DD
100
AcDbEntity
  8
0
370
    35
390
0
 62
     7
 48
0.000046
100
AcDbLine
 10
2.677403
 20
5.278284
 30
0.0
 11
2.67924
 21
5.278346
 31
0.0
210
0.0
220
0.0
230
1.0
  0
LINE
  5
2DE
100
AcDbEntity
  8
0
370
    35
390
0
 62
     7
 48
0.000046
100
AcDbLine
 10
2.67924
 20
5.278346
 30
0.0
 11
2.681066
 21
5.278167
 31
0.0
210
0.0
220
0.0
230
1.0
  0
LINE
  5
2DF
100
AcDbEntity
  8
0
370
    35
390
0
 62
     7
 48
0.000047
100
AcDbLine
 10
2.681066
 20
5.278167
 30
0.0
 11
2.68288
 21
5.277746
 31
0.0
210
0.0
220
0.0
230
1.0
  0
LINE
  5
2E0
100
AcDbEntity
  8
0
370
    35
390
0
 62
     7
 48
0.000048
100
AcDbLine
 10
2.68288
 20
5.277746
 30
0.0
 11
2.684684
 21
5.277084
 31
0.0
210
0.0
220
0.0
230
1.0
  0
LINE
  5
2E1
100
AcDbEntity
  8
0
370
    35
390
0
 62
     7
 48
0.00005
100
AcDbLine
 10
2.684684
 20
5.277084
 30
0.0
 11
2.686478
 21
5.276178
 31
0.0
210
0.0
220
0.0
230
1.0
  0
LINE
  5
2E2
100
AcDbEntity
  8
0
370
    35
390
0
 62
     7
 48
0.000053
100
AcDbLine
 10
2.686478
 20
5.276178
 30
0.0
 11
2.68826
 21
5.275032
 31
0.0
210
0.0
220
0.0
230
1.0
  0
LINE
  5
2E3
100
AcDbEntity
  8
0
370
    35
390
0
 62
     7
 48
0.000056
100
AcDbLine
 10
2.68826
 20
5.275032
 30
0.0
 11
2.690033
 21
5.273643
 31
0.0
210
0.0
220
0.0
230
1.0
  0
LINE
  5
2E4
100
AcDbEntity
  8
0
370
    35
390
0
 62
     7
 48
0.000799
100
AcDbLine
 10
2.690033
 20
5.273643
 30
0.0
 11
2.712625
 21
5.296236
 31
0.0
210
0.0
220
0.0
230
1.0
  0
LINE
  5
2E5
100
AcDbEntity
  8
0
370
    35
390
0
 62
     7
 48
0.000353
100
AcDbLine
 10
2.712625
 20
5.296236
 30
0.0
 11
2.712304
 21
5.31037
 31
0.0
210
0.0
220
0.0
230
1.0
  0
LINE
  5
2E6
100
AcDbEntity
  8
0
370
    35
390
0
 62
     7
 48
0.001965
100
AcDbLine
 10
2.712304
 20
5.31037
 30
0.0
 11
2.767875
 21
5.254799
 31
0.0
210
0.0
220
0.0
230
1.0
  0
LINE
  5
2E7
100
AcDbEntity
  8
0
370
    35
390
0
 62
     7
 48
0.000078
100
AcDbLine
 10
2.76543
 20
5.247166
 30
0.0
 11
2.762326
 21
5.246783
 31
0.0
210
0.0
220
0.0
230
1.0
  0
LINE
  5
2E8
100
AcDbEntity
  8
0
370
    35
390
0
 62
     7
 48
0.000075
100
AcDbLine
 10
2.762326
 20
5.246783
 30
0.0
 11
2.759365
 21
5.246318
 31
0.0
210
0.0
220
0.0
230
1.0
  0
LINE
  5
2E9
100
AcDbEntity
  8
0
370
    35
390
0
 62
     7
 48
0.000072
100
AcDbLine
 10
2.759365
 20
5.246318
 30
0.0
 11
2.756548
 21
5.245768
 31
0.0
210
0.0
220
0.0
230
1.0
  0
LINE
  5
2EA
100
AcDbEntity
  8
0
370
    35
390
0
 62
     7
 48
0.000069
100
AcDbLine
 10
2.756548
 20
5.245768
 30
0.0
 11
2.753875
 21
5.245135
 31
0.0
210
0.0
220
0.0
230
1.0
  0
LINE
  5
2EB
100
AcDbEntity
  8
0
370
    35
390
0
 62
     7
 48
0.000066
100
AcDbLine
 10
2.753875
 20
5.245135
 30
0.0
 11
2.751344
 21
5.244419
 31
0.0
210
0.0
220
0.0
230
1.0
  0
LINE
  5
2EC
100
AcDbEntity
  8
0
370
    35
390
0
 62
     7
 48
0.000063
100
AcDbLine
 10
2.751344
 20
5.244419
 30
0.0
 11
2.748957
 21
5.24362
 31
0.0
210
0.0
220
0.0
230
1.0
  0
LINE
  5
2ED
100
AcDbEntity
  8
0
370
    35
390
0
 62
     7
 48
0.00006
100
AcDbLine
 10
2.748957
 20
5.24362
 30
0.0
 11
2.746715
 21
5.242736
 31
0.0
210
0.0
220
0.0
230
1.0
  0
LINE
  5
2EE
100
AcDbEntity
  8
0
370
    35
390
0
 62
     7
 48
0.000058
100
AcDbLine
 10
2.746715
 20
5.242736
 30
0.0
 11
2.744615
 21
5.241769
 31
0.0
210
0.0
220
0.0
230
1.0
  0
LINE
  5
2EF
100
AcDbEntity
  8
0
370
    35
390
0
 62
     7
 48
0.000056
100
AcDbLine
 10
2.744615
 20
5.241769
 30
0.0
 11
2.742658
 21
5.240718
 31
0.0
210
0.0
220
0.0
230
1.0
  0
LINE
  5
2F0
100
AcDbEntity
  8
0
370
    35
390
0
 62
     7
 48
0.000048
100
AcDbLine
 10
2.742658
 20
5.240718
 30
0.0
 11
2.742284
 21
5.242592
 31
0.0
210
0.0
220
0.0
230
1.0
  0
LINE
  5
2F1
100
AcDbEntity
  8
0
370
    35
390
0
 62
     7
 48
0.000062
100
AcDbLine
 10
2.742284
 20
5.242592
 30
0.0
 11
2.744427
 21
5.243807
 31
0.0
210
0.0
220
0.0
230
1.0
  0
LINE
  5
2F2
100
AcDbEntity
  8
0
370
    35
390
0
 62
     7
 48
0.000063
100
AcDbLine
 10
2.744427
 20
5.243807
 30
0.0
 11
2.746678
 21
5.244901
 31
0.0
210
0.0
220
0.0
230
1.0
  0
LINE
  5
2F3
100
AcDbEntity
  8
0
370
    35
390
0
 62
     7
 48
0.000064
100
AcDbLine
 10
2.746678
 20
5.244901
 30
0.0
 11
2.749039
 21
5.245875
 31
0.0
210
0.0
220
0.0
230
1.0
  0
LINE
  5
2F4
100
AcDbEntity
  8
0
370
    35
390
0
 62
     7
 48
0.000065
100
AcDbLine
 10
2.749039
 20
5.245875
 30
0.0
 11
2.751509
 21
5.24673
 31
0.0
210
0.0
220
0.0
230
1.0
  0
LINE
  5
2F5
100
AcDbEntity
  8
0
370
    35
390
0
 62
     7
 48
0.000067
100
AcDbLine
 10
2.751509
 20
5.24673
 30
0.0
 11
2.754089
 21
5.247465
 31
0.0
210
0.0
220
0.0
230
1.0
  0
LINE
  5
2F6
100
AcDbEntity
  8
0
370
    35
390
0
 62
     7
 48
0.000069
100
AcDbLine
 10
2.754089
 20
5.247465
 30
0.0
 11
2.756777
 21
5.248079
 31
0.0
210
0.0
220
0.0
230
1.0
  0
LINE
  5
2F7
100
AcDbEntity
  8
0
370
    35
390
0
 62
     7
 48
0.000071
100
AcDbLine
 10
2.756777
 20
5.248079
 30
0.0
 11
2.759575
 21
5.248573
 31
0.0
210
0.0
220
0.0
230
1.0
  0
LINE
  5
2F8
100
AcDbEntity
  8
0
370
    35
390
0
 62
     7
 48
0.000073
100
AcDbLine
 10
2.759575
 20
5.248573
 30
0.0
 11
2.762482
 21
5.248949
 31
0.0
210
0.0
220
0.0
230
1.0
  0
LINE
  5
2F9
100
AcDbEntity
  8
0
370
    35
390
0
 62
     7
 48
0.000076
100
AcDbLine
 10
2.762482
 20
5.248949
 30
0.0
 11
2.765498
 21
5.249203
 31
0.0
210
0.0
220
0.0
230
1.0
  0
LINE
  5
2FA
100
AcDbEntity
  8
0
370
    35
390
0
 62
     7
 48
0.000078
100
AcDbLine
 10
2.765498
 20
5.249203
 30
0.0
 11
2.768624
 21
5.249338
 31
0.0
210
0.0
220
0.0
230
1.0
  0
LINE
  5
2FB
100
AcDbEntity
  8
0
370
    35
390
0
 62
     7
 48
0.000047
100
AcDbLine
 10
2.768624
 20
5.249338
 30
0.0
 11
2.768677
 21
5.247464
 31
0.0
210
0.0
220
0.0
230
1.0
  0
LINE
  5
2FC
100
AcDbEntity
  8
0
370
    35
390
0
 62
     7
 48
0.000082
100
AcDbLine
 10
2.768677
 20
5.247464
 30
0.0
 11
2.76543
 21
5.247166
 31
0.0
210
0.0
220
0.0
230
1.0
  0
LINE
  5
2FD
100
AcDbEntity
  8
0
370
    35
390
0
 62
     7
 48
0.000057
100
AcDbLine
 10
2.709948
 20
5.22182
 30
0.0
 11
2.709359
 21
5.224016
 31
0.0
210
0.0
220
0.0
230
1.0
  0
LINE
  5
2FE
100
AcDbEntity
  8
0
370
    35
390
0
 62
     7
 48
0.000818
100
AcDbLine
 10
2.709359
 20
5.224016
 30
0.0
 11
2.732487
 21
5.247143
 31
0.0
210
0.0
220
0.0
230
1.0
  0
LINE
  5
2FF
100
AcDbEntity
  8
0
370
    35
390
0
 62
     7
 48
0.000057
100
AcDbLine
 10
2.732487
 20
5.247143
 30
0.0
 11
2.733075
 21
5.244948
 31
0.0
210
0.0
220
0.0
230
1.0
  0
LINE
  5
300
100
AcDbEntity
  8
0
370
    35
390
0
 62
     7
 48
0.000818
100
AcDbLine
 10
2.733075
 20
5.244948
 30
0.0
 11
2.709948
 21
5.22182
 31
0.0
210
0.0
220
0.0
230
1.0
  0
LINE
  5
301
100
AcDbEntity
  8
0
370
    35
390
0
 62
     7
 48
0.00081
100
AcDbLine
 10
2.69635
 20
5.249338
 30
0.0
 11
2.673436
 21
5.226425
 31
0.0
210
0.0
220
0.0
230
1.0
  0
LINE
  5
302
100
AcDbEntity
  8
0
370
    35
390
0
 62
     7
 48
0.00053
100
AcDbLine
 10
2.673436
 20
5.226425
 30
0.0
 11
2.671188
 21
5.205331
 31
0.0
210
0.0
220
0.0
230
1.0
  0
LINE
  5
303
100
AcDbEntity
  8
0
370
    35
390
0
 62
     7
 48
0.001096
100
AcDbLine
 10
2.671188
 20
5.205331
 30
0.0
 11
2.64019
 21
5.236329
 31
0.0
210
0.0
220
0.0
230
1.0
  0
LINE
  5
304
100
AcDbEntity
  8
0
370
    35
390
0
 62
     7
 48
0.00007
100
AcDbLine
 10
2.64019
 20
5.236329
 30
0.0
 11
2.640297
 21
5.239112
 31
0.0
210
0.0
220
0.0
230
1.0
  0
LINE
  5
305
100
AcDbEntity
  8
0
370
    35
390
0
 62
     7
 48
0.001037
100
AcDbLine
 10
2.640297
 20
5.239112
 30
0.0
 11
2.669635
 21
5.209774
 31
0.0
210
0.0
220
0.0
230
1.0
  0
LINE
  5
306
100
AcDbEntity
  8
0
370
    35
390
0
 62
     7
 48
0.000436
100
AcDbLine
 10
2.669635
 20
5.209774
 30
0.0
 11
2.671456
 21
5.22712
 31
0.0
210
0.0
220
0.0
230
1.0
  0
LINE
  5
307
100
AcDbEntity
  8
0
370
    35
390
0
 62
     7
 48
0.000884
100
AcDbLine
 10
2.671456
 20
5.22712
 30
0.0
 11
2.696457
 21
5.252122
 31
0.0
210
0.0
220
0.0
230
1.0
  0
LINE
  5
308
100
AcDbEntity
  8
0
370
    35
390
0
 62
     7
 48
0.00038
100
AcDbLine
 10
2.696457
 20
5.252122
 30
0.0
 11
2.707218
 21
5.241361
 31
0.0
210
0.0
220
0.0
230
1.0
  0
LINE
  5
309
100
AcDbEntity
  8
0
370
    35
390
0
 62
     7
 48
0.000075
100
AcDbLine
 10
2.707218
 20
5.241361
 30
0.0
 11
2.707325
 21
5.238363
 31
0.0
210
0.0
220
0.0
230
1.0
  0
LINE
  5
30A
100
AcDbEntity
  8
0
370
    35
390
0
 62
     7
 48
0.000388
100
AcDbLine
 10
2.707325
 20
5.238363
 30
0.0
 11
2.69635
 21
5.249338
 31
0.0
210
0.0
220
0.0
230
1.0
  0
CIRCLE
  5
30B
100
AcDbEntity
  8
0
370
    35
390
0
 62
     7
 48
0.03937
100
AcDbCircle
 10
2.780205
 20
5.388196
 30
0.0
 40
0.0105
210
0.0
220
0.0
230
1.0
  0
CIRCLE
  5
30C
100
AcDbEntity
  8
0
370
    35
390
0
 62
     7
 48
0.03937
100
AcDbCircle
 10
2.780205
 20
5.16917
 30
0.0
 40
0.0105
210
0.0
220
0.0
230
1.0
  0
CIRCLE
  5
30D
100
AcDbEntity
  8
0
370
    35
390
0
 62
     7
 48
0.03937
100
AcDbCircle
 10
2.825567
 20
5.278683
 30
0.0
 40
0.0105
210
0.0
220
0.0
230
1.0
  0
CIRCLE
  5
30E
100
AcDbEntity
  8
0
370
    35
390
0
 62
     7
 48
0.03937
100
AcDbCircle
 10
2.561179
 20
5.16917
 30
0.0
 40
0.0105
210
0.0
220
0.0
230
1.0
  0
CIRCLE
  5
30F
100
AcDbEntity
  8
0
370
    35
390
0
 62
     7
 48
0.03937
100
AcDbCircle
 10
2.670692
 20
5.123808
 30
0.0
 40
0.0105
210
0.0
220
0.0
230
1.0
  0
CIRCLE
  5
310
100
AcDbEntity
  8
0
370
    35
390
0
 62
     7
 48
0.03937
100
AcDbCircle
 10
2.561179
 20
5.388196
 30
0.0
 40
0.0105
210
0.0
220
0.0
230
1.0
  0
CIRCLE
  5
311
100
AcDbEntity
  8
0
370
    35
390
0
 62
     7
 48
0.03937
100
AcDbCircle
 10
2.670692
 20
5.433558
 30
0.0
 40
0.0105
210
0.0
220
0.0
230
1.0
  0
CIRCLE
  5
312
100
AcDbEntity
  8
0
370
    35
390
0
 62
     7
 48
0.03937
100
AcDbCircle
 10
2.515817
 20
5.278683
 30
0.0
 40
0.0105
210
0.0
220
0.0
230
1.0
  0
LINE
  5
313
100
AcDbEntity
  8
0
370
    13
390
0
  6
DASHDOT
 62
     7
 48
0.00896
100
AcDbLine
 10
4.236898
 20
1.975011
 30
0.0
 11
4.236898
 21
2.333392
 31
0.0
210
0.0
220
0.0
230
1.0
  0
LINE
  5
314
100
AcDbEntity
  8
0
370
    13
390
0
  6
DASHDOT
 62
     7
 48
0.00896
100
AcDbLine
 10
2.836898
 20
1.975011
 30
0.0
 11
2.836898
 21
2.333392
 31
0.0
210
0.0
220
0.0
230
1.0
  0
LINE
  5
315
100
AcDbEntity
  8
0
370
    35
390
0
 62
     7
 48
0.005513
100
AcDbLine
 10
2.049398
 20
2.697969
 30
0.0
 11
1.828898
 21
2.697969
 31
0.0
210
0.0
220
0.0
230
1.0
  0
LINE
  5
316
100
AcDbEntity
  8
0
370
    35
390
0
 62
     7
 48
0.01085
100
AcDbLine
 10
2.049398
 20
2.697969
 30
0.0
 11
2.049398
 21
2.263969
 31
0.0
210
0.0
220
0.0
230
1.0
  0
LINE
  5
317
100
AcDbEntity
  8
0
370
    35
390
0
 62
     7
 48
0.005513
100
AcDbLine
 10
2.049398
 20
2.263969
 30
0.0
 11
1.828898
 21
2.263969
 31
0.0
210
0.0
220
0.0
230
1.0
  0
LINE
  5
318
100
AcDbEntity
  8
0
370
    35
390
0
 62
     7
 48
0.01085
100
AcDbLine
 10
1.828898
 20
2.697969
 30
0.0
 11
1.828898
 21
2.263969
 31
0.0
210
0.0
220
0.0
230
1.0
  0
LINE
  5
319
100
AcDbEntity
  8
0
370
    35
390
0
 62
     7
 48
0.009709
100
AcDbLine
 10
2.049398
 20
2.697969
 30
0.0
 11
2.437747
 21
2.697969
 31
0.0
210
0.0
220
0.0
230
1.0
  0
LINE
  5
31A
100
AcDbEntity
  8
0
370
    35
390
0
 62
     7
 48
0.003416
100
AcDbLine
 10
2.437747
 20
2.697969
 30
0.0
 11
2.574398
 21
2.697969
 31
0.0
210
0.0
220
0.0
230
1.0
  0
LINE
  5
31B
100
AcDbEntity
  8
0
370
    35
390
0
 62
     7
 48
0.03937
100
AcDbLine
 10
4.499398
 20
2.697969
 30
0.0
 11
2.574398
 21
2.697969
 31
0.0
210
0.0
220
0.0
230
1.0
  0
LINE
  5
31C
100
AcDbEntity
  8
0
370
    35
390
0
 62
     7
 48
0.009709
100
AcDbLine
 10
4.499398
 20
2.697969
 30
0.0
 11
4.887747
 21
2.697969
 31
0.0
210
0.0
220
0.0
230
1.0
  0
LINE
  5
31D
100
AcDbEntity
  8
0
370
    35
390
0
 62
     7
 48
0.003416
100
AcDbLine
 10
4.887747
 20
2.697969
 30
0.0
 11
5.024398
 21
2.697969
 31
0.0
210
0.0
220
0.0
230
1.0
  0
LINE
  5
31E
100
AcDbEntity
  8
0
370
    35
390
0
 62
     7
 48
0.005513
100
AcDbLine
 10
5.244898
 20
2.697969
 30
0.0
 11
5.024398
 21
2.697969
 31
0.0
210
0.0
220
0.0
230
1.0
  0
LINE
  5
31F
100
AcDbEntity
  8
0
370
    35
390
0
 62
     7
 48
0.005513
100
AcDbLine
 10
5.244898
 20
2.263969
 30
0.0
 11
5.024398
 21
2.263969
 31
0.0
210
0.0
220
0.0
230
1.0
  0
LINE
  5
320
100
AcDbEntity
  8
0
370
    35
390
0
 62
     7
 48
0.003416
100
AcDbLine
 10
4.887747
 20
2.263969
 30
0.0
 11
5.024398
 21
2.263969
 31
0.0
210
0.0
220
0.0
230
1.0
  0
LINE
  5
321
100
AcDbEntity
  8
0
370
    35
390
0
 62
     7
 48
0.009709
100
AcDbLine
 10
4.499398
 20
2.263969
 30
0.0
 11
4.887747
 21
2.263969
 31
0.0
210
0.0
220
0.0
230
1.0
  0
LINE
  5
322
100
AcDbEntity
  8
0
370
    35
390
0
 62
     7
 48
0.003416
100
AcDbLine
 10
2.437747
 20
2.263969
 30
0.0
 11
2.574398
 21
2.263969
 31
0.0
210
0.0
220
0.0
230
1.0
  0
LINE
  5
323
100
AcDbEntity
  8
0
370
    35
390
0
 62
     7
 48
0.009709
100
AcDbLine
 10
2.049398
 20
2.263969
 30
0.0
 11
2.437747
 21
2.263969
 31
0.0
210
0.0
220
0.0
230
1.0
  0
LINE
  5
324
100
AcDbEntity
  8
0
370
    35
390
0
 62
     7
 48
0.01085
100
AcDbLine
 10
5.244898
 20
2.697969
 30
0.0
 11
5.244898
 21
2.263969
 31
0.0
210
0.0
220
0.0
230
1.0
  0
LINE
  5
325
100
AcDbEntity
  8
0
370
    35
390
0
 62
     7
 48
0.01085
100
AcDbLine
 10
5.024398
 20
2.697969
 30
0.0
 11
5.024398
 21
2.263969
 31
0.0
210
0.0
220
0.0
230
1.0
  0
LINE
  5
326
100
AcDbEntity
  8
0
370
    35
390
0
 62
     7
 48
0.01085
100
AcDbLine
 10
4.499398
 20
2.697969
 30
0.0
 11
4.499398
 21
2.263969
 31
0.0
210
0.0
220
0.0
230
1.0
  0
LINE
  5
327
100
AcDbEntity
  8
0
370
    35
390
0
 62
     7
 48
0.01085
100
AcDbLine
 10
2.574398
 20
2.697969
 30
0.0
 11
2.574398
 21
2.263969
 31
0.0
210
0.0
220
0.0
230
1.0
  0
LINE
  5
328
100
AcDbEntity
  8
0
370
    35
390
0
 62
     7
 48
0.004375
100
AcDbLine
 10
4.499398
 20
2.263969
 30
0.0
 11
4.499398
 21
2.088969
 31
0.0
210
0.0
220
0.0
230
1.0
  0
LINE
  5
329
100
AcDbEntity
  8
0
370
    35
390
0
 62
     7
 48
0.004375
100
AcDbLine
 10
2.574398
 20
2.263969
 30
0.0
 11
2.574398
 21
2.088969
 31
0.0
210
0.0
220
0.0
230
1.0
  0
LINE
  5
32A
100
AcDbEntity
  8
0
370
    35
390
0
 62
     7
 48
0.003554
100
AcDbLine
 10
4.499398
 20
2.088969
 30
0.0
 11
4.357228
 21
2.088969
 31
0.0
210
0.0
220
0.0
230
1.0
  0
LINE
  5
32B
100
AcDbEntity
  8
0
370
    35
390
0
 62
     7
 48
0.006017
100
AcDbLine
 10
4.116568
 20
2.088969
 30
0.0
 11
4.357228
 21
2.088969
 31
0.0
210
0.0
220
0.0
230
1.0
  0
LINE
  5
32C
100
AcDbEntity
  8
0
370
    35
390
0
 62
     7
 48
0.006017
100
AcDbLine
 10
2.716568
 20
2.088969
 30
0.0
 11
2.957228
 21
2.088969
 31
0.0
210
0.0
220
0.0
230
1.0
  0
LINE
  5
32D
100
AcDbEntity
  8
0
370
    35
390
0
 62
     7
 48
0.003554
100
AcDbLine
 10
2.716568
 20
2.088969
 30
0.0
 11
2.574398
 21
2.088969
 31
0.0
210
0.0
220
0.0
230
1.0
  0
LINE
  5
32E
100
AcDbEntity
  8
0
370
    35
390
0
 62
     7
 48
0.00439
100
AcDbLine
 10
4.288611
 20
2.250619
 30
0.0
 11
4.357228
 21
2.088969
 31
0.0
210
0.0
220
0.0
230
1.0
  0
LINE
  5
32F
100
AcDbEntity
  8
0
370
    35
390
0
 62
     7
 48
0.00439
100
AcDbLine
 10
2.785185
 20
2.250619
 30
0.0
 11
2.716568
 21
2.088969
 31
0.0
210
0.0
220
0.0
230
1.0
  0
POLYLINE
  5
330
100
AcDbEntity
  8
0
370
    35
390
0
 62
     7
 48
0.03937
100
AcDb2dPolyline
 66
     1
 10
0.0
 20
0.0
 30
0.0
 71
     2
  0
VERTEX
  5
331
100
AcDbEntity
  8
0
370
     0
390
0
100
AcDbVertex
100
AcDb2dVertex
 10
4.288611
 20
2.250619
 30
0.0
 42
0.300965
  0
VERTEX
  5
332
100
AcDbEntity
  8
0
370
     0
390
0
100
AcDbVertex
100
AcDb2dVertex
 10
4.268443
 20
2.263969
 30
0.0
  0
SEQEND
  5
333
100
AcDbEntity
  8
0
370
     0
390
0
  0
POLYLINE
  5
334
100
AcDbEntity
  8
0
370
    35
390
0
 62
     7
 48
0.03937
100
AcDb2dPolyline
 66
     1
 10
0.0
 20
0.0
 30
0.0
 71
     2
  0
VERTEX
  5
335
100
AcDbEntity
  8
0
370
     0
390
0
100
AcDbVertex
100
AcDb2dVertex
 10
2.805353
 20
2.263969
 30
0.0
 42
0.300965
  0
VERTEX
  5
336
100
AcDbEntity
  8
0
370
     0
390
0
100
AcDbVertex
100
AcDb2dVertex
 10
2.785185
 20
2.250619
 30
0.0
  0
SEQEND
  5
337
100
AcDbEntity
  8
0
370
     0
390
0
  0
LINE
  5
338
100
AcDbEntity
  8
0
370
    35
390
0
 62
     7
 48
0.001577
100
AcDbLine
 10
4.268443
 20
2.263969
 30
0.0
 11
4.205353
 21
2.263969
 31
0.0
210
0.0
220
0.0
230
1.0
  0
LINE
  5
339
100
AcDbEntity
  8
0
370
    35
390
0
 62
     7
 48
0.001577
100
AcDbLine
 10
2.868443
 20
2.263969
 30
0.0
 11
2.805353
 21
2.263969
 31
0.0
210
0.0
220
0.0
230
1.0
  0
POLYLINE
  5
33A
100
AcDbEntity
  8
0
370
    35
390
0
 62
     7
 48
0.03937
100
AcDb2dPolyline
 66
     1
 10
0.0
 20
0.0
 30
0.0
 71
     2
  0
VERTEX
  5
33B
100
AcDbEntity
  8
0
370
     0
390
0
100
AcDbVertex
100
AcDb2dVertex
 10
4.205353
 20
2.263969
 30
0.0
 42
0.300965
  0
VERTEX
  5
33C
100
AcDbEntity
  8
0
370
     0
390
0
100
AcDbVertex
100
AcDb2dVertex
 10
4.185185
 20
2.250619
 30
0.0
  0
SEQEND
  5
33D
100
AcDbEntity
  8
0
370
     0
390
0
  0
POLYLINE
  5
33E
100
AcDbEntity
  8
0
370
    35
390
0
 62
     7
 48
0.03937
100
AcDb2dPolyline
 66
     1
 10
0.0
 20
0.0
 30
0.0
 71
     2
  0
VERTEX
  5
33F
100
AcDbEntity
  8
0
370
     0
390
0
100
AcDbVertex
100
AcDb2dVertex
 10
2.888611
 20
2.250619
 30
0.0
 42
0.300965
  0
VERTEX
  5
340
100
AcDbEntity
  8
0
370
     0
390
0
100
AcDbVertex
100
AcDb2dVertex
 10
2.868443
 20
2.263969
 30
0.0
  0
SEQEND
  5
341
100
AcDbEntity
  8
0
370
     0
390
0
  0
LINE
  5
342
100
AcDbEntity
  8
0
370
    35
390
0
 62
     7
 48
0.00439
100
AcDbLine
 10
4.116568
 20
2.088969
 30
0.0
 11
4.185185
 21
2.250619
 31
0.0
210
0.0
220
0.0
230
1.0
  0
LINE
  5
343
100
AcDbEntity
  8
0
370
    35
390
0
 62
     7
 48
0.00439
100
AcDbLine
 10
2.957228
 20
2.088969
 30
0.0
 11
2.888611
 21
2.250619
 31
0.0
210
0.0
220
0.0
230
1.0
  0
LINE
  5
344
100
AcDbEntity
  8
0
370
    35
390
0
 62
     7
 48
0.03937
100
AcDbLine
 10
4.116568
 20
2.088969
 30
0.0
 11
2.957228
 21
2.088969
 31
0.0
210
0.0
220
0.0
230
1.0
  0
ELLIPSE
  5
345
100
AcDbEntity
  8
0
370
    35
390
0
 62
     7
 48
0.03937
100
AcDbEllipse
 10
7.96524
 20
5.463016
 30
0.0
 11
-0.2132560697799298
 21
0.5390168435259753
 31
0.0
210
0.0
220
0.0
230
1.0
 40
0.701593
 41
0.4311681605480541
 42
2.7104197994809995
  0
ELLIPSE
  5
346
100
AcDbEntity
  8
0
370
    35
390
0
 62
     7
 48
0.03937
100
AcDbEllipse
 10
7.96524
 20
5.463016
 30
0.0
 11
-0.2132560697799298
 21
0.5390168435259753
 31
0.0
210
0.0
220
0.0
230
1.0
 40
0.701593
 41
2.710419799481
 42
3.649991868768327
  0
ELLIPSE
  5
347
100
AcDbEntity
  8
0
370
    35
390
0
 62
     7
 48
0.03937
100
AcDbEllipse
 10
7.96524
 20
5.463016
 30
0.0
 11
-0.2132560697799298
 21
0.5390168435259756
 31
0.0
210
0.0
220
0.0
230
1.0
 40
0.701593
 41
3.649991868768327
 42
6.7143534677276406
  0
ELLIPSE
  5
348
100
AcDbEntity
  8
0
370
    35
390
0
 62
     7
 48
0.03937
100
AcDbEllipse
 10
7.96524
 20
5.463016
 30
0.0
 11
-0.3540962395210764
 21
0.8949983816546506
 31
0.0
210
0.0
220
0.0
230
1.0
 40
0.701593
 41
6.2831754005750149
 42
9.4247680541648045
  0
ELLIPSE
  5
349
100
AcDbEntity
  8
0
370
    35
390
0
 62
     7
 48
0.03937
100
AcDbEllipse
 10
7.96524
 20
5.463016
 30
0.0
 11
-0.3540962395210764
 21
0.8949983816546506
 31
0.0
210
0.0
220
0.0
230
1.0
 40
0.701593
 41
3.1415827469852227
 42
4.6499918687683257
  0
ELLIPSE
  5
34A
100
AcDbEntity
  8
0
370
    35
390
0
 62
     7
 48
0.03937
100
AcDbEllipse
 10
7.96524
 20
5.463016
 30
0.0
 11
-0.3540962395210764
 21
0.8949983816546506
 31
0.0
210
0.0
220
0.0
230
1.0
 40
0.701593
 41
4.6499918687683257
 42
6.2831754005750149
  0
ELLIPSE
  5
34B
100
AcDbEntity
  8
0
370
    35
390
0
 62
     7
 48
0.03937
100
AcDbEllipse
 10
7.96524
 20
5.463016
 30
0.0
 11
-0.3017930058870905
 21
0.7627989843353348
 31
0.0
210
0.0
220
0.0
230
1.0
 40
0.701593
 41
3.5727608141378444
 42
5.8520124530707935
  0
ELLIPSE
  5
34C
100
AcDbEntity
  8
0
370
    35
390
0
 62
     7
 48
0.03937
100
AcDbEllipse
 10
7.96524
 20
5.463016
 30
0.0
 11
-0.3017930058870905
 21
0.7627989843353348
 31
0.0
210
0.0
220
0.0
230
1.0
 40
0.701593
 41
5.8520124530707935
 42
6.7915845223581206
  0
ELLIPSE
  5
34D
100
AcDbEntity
  8
0
370
    35
390
0
 62
     7
 48
0.03937
100
AcDbEllipse
 10
7.96524
 20
5.463016
 30
0.0
 11
-0.3017930058870906
 21
0.7627989843353348
 31
0.0
210
0.0
220
0.0
230
1.0
 40
0.701593
 41
0.5083992151785342
 42
3.5727608141378444
  0
ELLIPSE
  5
34E
100
AcDbEntity
  8
0
370
    35
390
0
 62
     7
 48
0.03937
100
AcDbEllipse
 10
9.285156
 20
5.282773
 30
0.0
 11
-0.0965717016875686
 21
0.2440904677239947
 31
0.0
210
0.0
220
0.0
230
1.0
 40
0.701593
 41
0.9965660390074995
 42
2.1450266399827025
  0
ELLIPSE
  5
34F
100
AcDbEntity
  8
0
370
    35
390
0
 62
     7
 48
0.03937
100
AcDbEllipse
 10
8.997585
 20
5.168999
 30
0.0
 11
-0.0965717016875685
 21
0.2440904677239947
 31
0.0
210
0.0
220
0.0
230
1.0
 40
0.701593
 41
6.2831851094377962
 42
9.4248777554521226
  0
ELLIPSE
  5
350
100
AcDbEntity
  8
0
370
    35
390
0
 62
     7
 48
0.03937
100
AcDbEllipse
 10
8.997585
 20
5.168999
 30
0.0
 11
-0.0965717016875685
 21
0.2440904677239947
 31
0.0
210
0.0
220
0.0
230
1.0
 40
0.701593
 41
3.1416924482725364
 42
6.2831851094377926
  0
ELLIPSE
  5
351
100
AcDbEntity
  8
0
370
    35
390
0
 62
     7
 48
0.03937
100
AcDbEllipse
 10
8.413643
 20
6.754908
 30
0.0
 11
-0.0965717016875665
 21
0.2440904677239955
 31
0.0
210
0.0
220
0.0
230
1.0
 40
0.701593
 41
0.9965660390075003
 42
2.1450261189221371
  0
ELLIPSE
  5
352
100
AcDbEntity
  8
0
370
    35
390
0
 62
     7
 48
0.03937
100
AcDbEllipse
 10
8.126073
 20
6.641134
 30
0.0
 11
-0.0965717016875666
 21
0.2440904677239955
 31
0.0
210
0.0
220
0.0
230
1.0
 40
0.701593
 41
6.2831692437214599
 42
9.4247778709181702
  0
ELLIPSE
  5
353
100
AcDbEntity
  8
0
370
    35
390
0
 62
     7
 48
0.03937
100
AcDbEllipse
 10
8.126073
 20
6.641134
 30
0.0
 11
-0.0965717016875666
 21
0.2440904677239955
 31
0.0
210
0.0
220
0.0
230
1.0
 40
0.701593
 41
3.1415925637385871
 42
4.6499918687683284
  0
ELLIPSE
  5
354
100
AcDbEntity
  8
0
370
    35
390
0
 62
     7
 48
0.03937
100
AcDbEllipse
 10
8.126073
 20
6.641134
 30
0.0
 11
-0.0965717016875666
 21
0.2440904677239955
 31
0.0
210
0.0
220
0.0
230
1.0
 40
0.701593
 41
4.6499918687683284
 42
6.2831692437214599
  0
ELLIPSE
  5
355
100
AcDbEntity
  8
0
370
    35
390
0
 62
     7
 48
0.03937
100
AcDbEllipse
 10
8.323888
 20
4.490426
 30
0.0
 11
-0.0965717016875665
 21
0.2440904677239955
 31
0.0
210
0.0
220
0.0
230
1.0
 40
0.701593
 41
1.126013930575207
 42
1.5083992151785339
  0
ELLIPSE
  5
356
100
AcDbEntity
  8
0
370
    35
390
0
 62
     7
 48
0.03937
100
AcDbEllipse
 10
8.036318
 20
4.376652
 30
0.0
 11
-0.0965717016875666
 21
0.2440904677239955
 31
0.0
210
0.0
220
0.0
230
1.0
 40
0.701593
 41
0.3086873524592855
 42
1.5083992151785339
  0
ELLIPSE
  5
357
100
AcDbEntity
  8
0
370
    35
390
0
 62
     7
 48
0.03937
100
AcDbEllipse
 10
8.036318
 20
4.376652
 30
0.0
 11
-0.0965717016875666
 21
0.2440904677239955
 31
0.0
210
0.0
220
0.0
230
1.0
 40
0.701593
 41
3.141576590131665
 42
5.114229971868788
  0
ELLIPSE
  5
358
100
AcDbEntity
  8
0
370
    35
390
0
 62
     7
 48
0.03937
100
AcDbEllipse
 10
8.323888
 20
4.490426
 30
0.0
 11
-0.0965717016875665
 21
0.2440904677239955
 31
0.0
210
0.0
220
0.0
230
1.0
 40
0.701593
 41
1.5083992151785339
 42
2.1450266399827016
  0
ELLIPSE
  5
359
100
AcDbEntity
  8
0
370
    35
390
0
 62
     7
 48
0.03937
100
AcDbEllipse
 10
8.036318
 20
4.376652
 30
0.0
 11
-0.0965717016875666
 21
0.2440904677239955
 31
0.0
210
0.0
220
0.0
230
1.0
 40
0.701593
 41
1.5083992151785333
 42
3.141576590131665
  0
ELLIPSE
  5
35A
100
AcDbEntity
  8
0
370
    35
390
0
 62
     7
 48
0.03937
100
AcDbEllipse
 10
8.081196
 20
5.508893
 30
0.0
 11
-0.6283598723137656
 21
1.5882153099907981
 31
0.0
210
0.0
220
0.0
230
1.0
 40
0.701593
 41
3.141582746985224
 42
6.2831754005750167
  0
ELLIPSE
  5
35B
100
AcDbEntity
  8
0
370
    35
390
0
 62
     7
 48
0.03937
100
AcDbEllipse
 10
8.081196
 20
5.508893
 30
0.0
 11
-0.6283598723137656
 21
1.5882153099907981
 31
0.0
210
0.0
220
0.0
230
1.0
 40
0.701593
 41
6.2831754005750167
 42
7.791584522358117
  0
ELLIPSE
  5
35C
100
AcDbEntity
  8
0
370
    35
390
0
 62
     7
 48
0.03937
100
AcDbEllipse
 10
8.081196
 20
5.508893
 30
0.0
 11
-0.6283598723137656
 21
1.5882153099907981
 31
0.0
210
0.0
220
0.0
230
1.0
 40
0.701593
 41
1.5083992151785341
 42
3.141582746985224
  0
ELLIPSE
  5
35D
100
AcDbEntity
  8
0
370
    35
390
0
 62
     7
 48
0.03937
100
AcDbEllipse
 10
8.081196
 20
5.508893
 30
0.0
 11
-0.3540962395210769
 21
0.8949983816546506
 31
0.0
210
0.0
220
0.0
230
1.0
 40
0.701593
 41
3.1415783926513572
 42
4.1499918687683257
  0
ELLIPSE
  5
35E
100
AcDbEntity
  8
0
370
    35
390
0
 62
     7
 48
0.03937
100
AcDbEllipse
 10
7.164806
 20
5.848787
 30
0.0
 11
-0.0965717016875662
 21
0.2440904677239957
 31
0.0
210
0.0
220
0.0
230
1.0
 40
0.701593
 41
5.0613764943567308
 42
6.2832851018623295
  0
ELLIPSE
  5
35F
100
AcDbEntity
  8
0
370
    35
390
0
 62
     7
 48
0.03937
100
AcDbEllipse
 10
7.164806
 20
5.848787
 30
0.0
 11
-0.0965717016875662
 21
0.2440904677239957
 31
0.0
210
0.0
220
0.0
230
1.0
 40
0.701593
 41
0.0000997946827427
 42
3.0626794896798852
  0
ELLIPSE
  5
360
100
AcDbEntity
  8
0
370
    35
390
0
 62
     7
 48
0.03937
100
AcDbEllipse
 10
8.081196
 20
5.508893
 30
0.0
 11
-0.3540962395210769
 21
0.8949983816546506
 31
0.0
210
0.0
220
0.0
230
1.0
 40
0.701593
 41
4.1499918687683257
 42
6.2831710462411481
  0
ELLIPSE
  5
361
100
AcDbEntity
  8
0
370
    35
390
0
 62
     7
 48
0.03937
100
AcDbEllipse
 10
8.368766
 20
5.622667
 30
0.0
 11
-0.6283598723137644
 21
1.5882153099907983
 31
0.0
210
0.0
220
0.0
230
1.0
 40
0.701593
 41
3.141582746985224
 42
4.6499918687683266
  0
ELLIPSE
  5
362
100
AcDbEntity
  8
0
370
    35
390
0
 62
     7
 48
0.03937
100
AcDbEllipse
 10
8.368766
 20
5.622667
 30
0.0
 11
-0.6283598723137644
 21
1.5882153099907983
 31
0.0
210
0.0
220
0.0
230
1.0
 40
0.701593
 41
4.6499918687683266
 42
6.2831754005750167
  0
ELLIPSE
  5
363
100
AcDbEntity
  8
0
370
    35
390
0
 62
     7
 48
0.03937
100
AcDbEllipse
 10
7.452376
 20
5.962561
 30
0.0
 11
-0.096571701687566
 21
0.2440904677239957
 31
0.0
210
0.0
220
0.0
230
1.0
 40
0.701593
 41
0.9965649862941438
 42
1.4587823871576109
  0
ELLIPSE
  5
364
100
AcDbEntity
  8
0
370
    13
390
0
 62
     7
 48
0.03937
100
AcDbEllipse
 10
8.07235
 20
5.505393
 30
0.0
 11
0.27654944113973
 21
-0.6989944389195461
 31
0.0
210
0.0
220
0.0
230
1.0
 40
0.701593
 41
2.8076189581848312
 42
6.6171590474314357
  0
ELLIPSE
  5
365
100
AcDbEntity
  8
0
370
    13
390
0
 62
     7
 48
0.03937
100
AcDbEllipse
 10
8.081196
 20
5.508893
 30
0.0
 11
0.2691296951679182
 21
-0.6802406090397321
 31
0.0
210
0.0
220
0.0
230
1.0
 40
0.701593
 41
2.7209459999030012
 42
4.2329666854267298
  0
ELLIPSE
  5
366
100
AcDbEntity
  8
0
370
    13
390
0
 62
     7
 48
0.03937
100
AcDbEllipse
 10
8.081196
 20
5.508893
 30
0.0
 11
0.2691296951679182
 21
-0.6802406090397321
 31
0.0
210
0.0
220
0.0
230
1.0
 40
0.701593
 41
5.1918109171662499
 42
6.703832117092297
  0
ELLIPSE
  5
367
100
AcDbEntity
  8
0
370
    13
390
0
 62
     7
 48
0.03937
100
AcDbEllipse
 10
8.081196
 20
5.508893
 30
0.0
 11
0.2459193804991028
 21
-0.6215752188215777
 31
0.0
210
0.0
220
0.0
230
1.0
 40
0.701593
 41
5.6433392837062462
 42
7.2421519474847429
  0
ELLIPSE
  5
368
100
AcDbEntity
  8
0
370
    13
390
0
 62
     7
 48
0.03937
100
AcDbEllipse
 10
8.081196
 20
5.508893
 30
0.0
 11
0.2459193804991028
 21
-0.6215752188215777
 31
0.0
210
0.0
220
0.0
230
1.0
 40
0.701593
 41
2.1826254990784295
 42
3.7814386049728714
  0
ELLIPSE
  5
369
100
AcDbEntity
  8
0
370
    13
390
0
 62
     7
 48
0.03937
100
AcDbEllipse
 10
8.07235
 20
5.505393
 30
0.0
 11
0.238499634527291
 21
-0.6028213889417637
 31
0.0
210
0.0
220
0.0
230
1.0
 40
0.701593
 41
5.852012453070798
 42
9.8559461213174302
  0
LINE
  5
36A
100
AcDbEntity
  8
0
370
    35
390
0
 62
     7
 48
0.003117
100
AcDbLine
 10
8.435283
 20
4.613891
 30
0.0
 11
8.31933
 21
4.568015
 31
0.0
210
0.0
220
0.0
230
1.0
  0
LINE
  5
36B
100
AcDbEntity
  8
0
370
    35
390
0
 62
     7
 48
0.003118
100
AcDbLine
 10
7.727108
 20
6.403895
 30
0.0
 11
7.61115
 21
6.358017
 31
0.0
210
0.0
220
0.0
230
1.0
  0
LINE
  5
36C
100
AcDbEntity
  8
0
370
    35
390
0
 62
     7
 48
0.007731
100
AcDbLine
 10
8.997115
 20
4.034447
 30
0.0
 11
8.709544
 21
3.920673
 31
0.0
210
0.0
220
0.0
230
1.0
  0
LINE
  5
36D
100
AcDbEntity
  8
0
370
    35
390
0
 62
     7
 48
0.007731
100
AcDbLine
 10
7.740417
 20
7.210887
 30
0.0
 11
7.452847
 21
7.097113
 31
0.0
210
0.0
220
0.0
230
1.0
  0
LINE
  5
36E
100
AcDbEntity
  8
0
370
    35
390
0
 62
     7
 48
0.002842
100
AcDbLine
 10
8.000927
 20
4.910801
 30
0.0
 11
8.112262
 21
4.887811
 31
0.0
210
0.0
220
0.0
230
1.0
  0
LINE
  5
36F
100
AcDbEntity
  8
0
370
    35
390
0
 62
     7
 48
0.002842
100
AcDbLine
 10
7.613452
 20
5.890171
 30
0.0
 11
7.678921
 21
5.983111
 31
0.0
210
0.0
220
0.0
230
1.0
  0
INSERT
  5
5DC
100
AcDbEntity
  8
0
370
     0
390
0
100
AcDbBlockReference
  2
BLOCK1
 10
0.0
 20
0.0
 30
0.0
210
0.0
220
0.0
230
1.0
  0
INSERT
  5
5DD
100
AcDbEntity
  8
0
370
     0
390
0
100
AcDbBlockReference
  2
BLOCK2
 10
0.0
 20
0.0
 30
0.0
210
0.0
220
0.0
230
1.0
  0
INSERT
  5
5DE
100
AcDbEntity
  8
0
370
     0
390
0
100
AcDbBlockReference
  2
BLOCK3
 10
0.0
 20
0.0
 30
0.0
210
0.0
220
0.0
230
1.0
  0
INSERT
  5
5DF
100
AcDbEntity
  8
0
370
     0
390
0
100
AcDbBlockReference
  2
BLOCK4
 10
0.0
 20
0.0
 30
0.0
210
0.0
220
0.0
230
1.0
  0
INSERT
  5
5E0
100
AcDbEntity
  8
0
370
     0
390
0
100
AcDbBlockReference
  2
BLOCK5
 10
0.0
 20
0.0
 30
0.0
210
0.0
220
0.0
230
1.0
  0
INSERT
  5
5E1
100
AcDbEntity
  8
0
370
     0
390
0
100
AcDbBlockReference
  2
BLOCK6
 10
0.0
 20
0.0
 30
0.0
210
0.0
220
0.0
230
1.0
  0
INSERT
  5
5E2
100
AcDbEntity
  8
0
370
     0
390
0
100
AcDbBlockReference
  2
BLOCK7
 10
3.536898
 20
6.144889
 30
0.0
 41
0.7
 42
0.7
 43
0.7
210
0.0
220
0.0
230
1.0
  0
INSERT
  5
5E3
100
AcDbEntity
  8
0
370
     0
390
0
100
AcDbBlockReference
  2
BLOCK8
 10
3.536898
 20
6.144889
 30
0.0
 41
0.7
 42
0.7
 43
0.7
210
0.0
220
0.0
230
1.0
  0
INSERT
  5
5E4
100
AcDbEntity
  8
0
370
     0
390
0
100
AcDbBlockReference
  2
BLOCK9
 10
3.536898
 20
6.144889
 30
0.0
 41
0.7
 42
0.7
 43
0.7
210
0.0
220
0.0
230
1.0
  0
INSERT
  5
5E5
100
AcDbEntity
  8
0
370
     0
390
0
100
AcDbBlockReference
  2
BLOCK10
 10
3.536898
 20
6.144889
 30
0.0
 41
0.7
 42
0.7
 43
0.7
210
0.0
220
0.0
230
1.0
  0
INSERT
  5
5E6
100
AcDbEntity
  8
0
370
     0
390
0
100
AcDbBlockReference
  2
BLOCK11
 10
3.536898
 20
6.144889
 30
0.0
 41
0.7
 42
0.7
 43
0.7
210
0.0
220
0.0
230
1.0
  0
INSERT
  5
5E7
100
AcDbEntity
  8
0
370
     0
390
0
100
AcDbBlockReference
  2
BLOCK12
 10
3.536898
 20
6.144889
 30
0.0
 41
0.7
 42
0.7
 43
0.7
210
0.0
220
0.0
230
1.0
  0
INSERT
  5
5E8
100
AcDbEntity
  8
0
370
     0
390
0
100
AcDbBlockReference
  2
BLOCK13
 10
3.536898
 20
6.144889
 30
0.0
 41
0.7
 42
0.7
 43
0.7
210
0.0
220
0.0
230
1.0
  0
INSERT
  5
5E9
100
AcDbEntity
  8
0
370
     0
390
0
100
AcDbBlockReference
  2
BLOCK14
 10
3.536898
 20
6.144889
 30
0.0
 41
0.7
 42
0.7
 43
0.7
210
0.0
220
0.0
230
1.0
  0
INSERT
  5
5EA
100
AcDbEntity
  8
0
370
     0
390
0
100
AcDbBlockReference
  2
BLOCK15
 10
3.536898
 20
2.263969
 30
0.0
 41
0.7
 42
0.7
 43
0.7
210
0.0
220
0.0
230
1.0
  0
INSERT
  5
5EB
100
AcDbEntity
  8
0
370
     0
390
0
100
AcDbBlockReference
  2
BLOCK16
 10
3.536898
 20
2.263969
 30
0.0
 41
0.7
 42
0.7
 43
0.7
210
0.0
220
0.0
230
1.0
  0
INSERT
  5
5EC
100
AcDbEntity
  8
0
370
     0
390
0
100
AcDbBlockReference
  2
BLOCK17
 10
3.536898
 20
2.263969
 30
0.0
 41
0.7
 42
0.7
 43
0.7
210
0.0
220
0.0
230
1.0
  0
INSERT
  5
5ED
100
AcDbEntity
  8
0
370
     0
390
0
100
AcDbBlockReference
  2
BLOCK18
 10
3.536898
 20
2.263969
 30
0.0
 41
0.7
 42
0.7
 43
0.7
210
0.0
220
0.0
230
1.0
  0
INSERT
  5
5EE
100
AcDbEntity
  8
0
370
     0
390
0
100
AcDbBlockReference
  2
BLOCK19
 10
3.536898
 20
2.263969
 30
0.0
 41
0.7
 42
0.7
 43
0.7
210
0.0
220
0.0
230
1.0
  0
INSERT
  5
5EF
100
AcDbEntity
  8
0
370
     0
390
0
100
AcDbBlockReference
  2
BLOCK20
 10
3.536898
 20
2.263969
 30
0.0
 41
0.7
 42
0.7
 43
0.7
210
0.0
220
0.0
230
1.0
  0
INSERT
  5
5F0
100
AcDbEntity
  8
0
370
     0
390
0
100
AcDbBlockReference
  2
BLOCK21
 10
3.536898
 20
2.263969
 30
0.0
 41
0.7
 42
0.7
 43
0.7
210
0.0
220
0.0
230
1.0
  0
INSERT
  5
5F1
100
AcDbEntity
  8
0
370
     0
390
0
100
AcDbBlockReference
  2
BLOCK22
 10
3.536898
 20
2.263969
 30
0.0
 41
0.7
 42
0.7
 43
0.7
210
0.0
220
0.0
230
1.0
  0
INSERT
  5
5F2
100
AcDbEntity
  8
0
370
     0
390
0
100
AcDbBlockReference
  2
BLOCK23
 10
3.536898
 20
2.263969
 30
0.0
 41
0.7
 42
0.7
 43
0.7
210
0.0
220
0.0
230
1.0
  0
INSERT
  5
5F3
100
AcDbEntity
  8
0
370
     0
390
0
100
AcDbBlockReference
  2
BLOCK24
 10
3.536898
 20
2.263969
 30
0.0
 41
0.7
 42
0.7
 43
0.7
210
0.0
220
0.0
230
1.0
  0
ENDSEC
  0
SECTION
  2
OBJECTS
  0
DICTIONARY
  5
19
100
AcDbDictionary
280
     0
281
     1
  3
ACAD_GROUP
350
1A
  3
ACAD_MLINESTYLE
350
1B
  3
ACAD_LAYOUT
350
1E
  3
ACAD_PLOTSETTINGS
350
22
  3
ACAD_PLOTSTYLENAME
350
1F
  3
ACAD_WIPEOUT_VARS
350
23
  0
DICTIONARY
  5
1A
102
{ACAD_REACTORS
330
19
102
}
100
AcDbDictionary
280
     0
281
     1
  0
DICTIONARY
  5
1B
102
{ACAD_REACTORS
330
19
102
}
100
AcDbDictionary
280
     0
281
     1
  3
Standard
350
1C
  0
MLINESTYLE
  5
1C
102
{ACAD_REACTORS
330
1B
102
}
100
AcDbMlineStyle
  2
Standard
 70
     0
  3

 62
     0
 51
90.0
 52
90.0
 71
     2
 49
0.5
 62
   256
  6
ByLayer
 49
-0.5
 62
   256
  6
ByLayer
  0
ACDBDICTIONARYWDFLT
  5
1F
102
{ACAD_REACTORS
330
19
102
}
100
AcDbDictionary
281
     1
  3
Normal
350
1D
100
AcDbDictionaryWithDefault
340
1D
  0
ACDBPLACEHOLDER
  5
1D
102
{ACAD_REACTORS
330
1F
102
}
  0
LAYOUT
  5
20
102
{ACAD_REACTORS
330
1E
102
}
100
AcDbPlotSettings
  1

  2

  4

  6

 40
0.0
 41
0.0
 42
0.0
 43
0.0
 44
0.0
 45
0.0
 46
0.0
 47
0.0
 48
0.0
 49
0.0
140
0.0
141
0.0
142
1.0
143
1.0
 70
  1024
 72
     0
 73
     0
 74
     0
  7

 75
     0
147
1.0
148
0.0
149
0.0
100
AcDbLayout
  1
Model
 70
     0
 71
     0
 10
0.0
 20
0.0
 11
0.0
 21
0.0
 12
0.0
 22
0.0
 32
0.0
 14
0.0
 24
0.0
 34
0.0
 15
0.0
 25
0.0
 35
0.0
146
0.0
 13
0.0
 23
0.0
 33
0.0
 16
0.0
 26
0.0
 36
0.0
 17
0.0
 27
0.0
 37
0.0
 76
     0
330
A
331
0
345
0
346
0
  0
LAYOUT
  5
21
102
{ACAD_REACTORS
330
1E
102
}
100
AcDbPlotSettings
  1

  2

  4

  6

 40
0.0
 41
0.0
 42
0.0
 43
0.0
 44
0.0
 45
0.0
 46
0.0
 47
0.0
 48
0.0
 49
0.0
140
0.0
141
0.0
142
1.0
143
1.0
 70
     0
 72
     0
 73
     0
 74
     0
  7

 75
     0
147
1.0
148
0.0
149
0.0
100
AcDbLayout
  1
Layout1
 70
     0
 71
     0
 10
0.0
 20
0.0
 11
0.0
 21
0.0
 12
0.0
 22
0.0
 32
0.0
 14
0.0
 24
0.0
 34
0.0
 15
0.0
 25
0.0
 35
0.0
146
0.0
 13
0.0
 23
0.0
 33
0.0
 16
0.0
 26
0.0
 36
0.0
 17
0.0
 27
0.0
 37
0.0
 76
     0
330
B
331
0
345
0
346
0
  0
DICTIONARY
  5
1E
102
{ACAD_REACTORS
330
19
102
}
100
AcDbDictionary
280
     0
281
     1
  3
Layout1
350
21
  3
Model
350
20
  0
DICTIONARY
  5
22
102
{ACAD_REACTORS
330
19
102
}
100
AcDbDictionary
280
     0
281
     1
  0
WIPEOUTVARIABLES
  5
23
100
AcDbWipeoutVariables
 70
     1
  0
ENDSEC
  0
EOF
