  0
SECTION
  2
HEADER
  9
$ACADVER
  1
AC1015
  9
$ACADMAINTVER
 70
     6
  9
$DWGCODEPAGE
  3
ANSI_1252
  9
$INSBASE
 10
0.0
 20
0.0
 30
0.0
  9
$EXTMIN
 10
0.0
 20
0.0
 30
0.0
  9
$EXTMAX
 10
164.367813
 20
1.781222
 30
2.0
  9
$LIMMIN
 10
0.0
 20
0.0
  9
$LIMMAX
 10
17.0
 20
11.0
  9
$ORTHOMODE
 70
     0
  9
$REGENMODE
 70
     1
  9
$FILLMODE
 70
     1
  9
$QTEXTMODE
 70
     0
  9
$MIRRTEXT
 70
     1
  9
$LTSCALE
 40
1.0
  9
$ATTMODE
 70
     1
  9
$TEXTSIZE
 40
0.2
  9
$TRACEWID
 40
0.05
  9
$TEXTSTYLE
  7
STANDARD
  9
$CLAYER
  8
0
  9
$CELTYPE
  6
ByLayer
  9
$CECOLOR
 62
   256
  9
$CELTSCALE
 40
1.0
  9
$DISPSILH
 70
     0
  9
$DIMSCALE
 40
1.0
  9
$DIMASZ
 40
0.18
  9
$DIMEXO
 40
0.0625
  9
$DIMDLI
 40
0.38
  9
$DIMRND
 40
0.0
  9
$DIMDLE
 40
0.0
  9
$DIMEXE
 40
0.18
  9
$DIMTP
 40
0.0
  9
$DIMTM
 40
0.0
  9
$DIMTXT
 40
0.18
  9
$DIMCEN
 40
0.09
  9
$DIMTSZ
 40
0.0
  9
$DIMTOL
 70
     0
  9
$DIMLIM
 70
     0
  9
$DIMTIH
 70
     1
  9
$DIMTOH
 70
     1
  9
$DIMSE1
 70
     0
  9
$DIMSE2
 70
     0
  9
$DIMTAD
 70
     0
  9
$DIMZIN
 70
     0
  9
$DIMBLK
  1

  9
$DIMASO
 70
     1
  9
$DIMSHO
 70
     1
  9
$DIMPOST
  1

  9
$DIMAPOST
  1

  9
$DIMALT
 70
     0
  9
$DIMALTD
 70
     2
  9
$DIMALTF
 40
25.4
  9
$DIMLFAC
 40
1.0
  9
$DIMTOFL
 70
     0
  9
$DIMTVP
 40
0.0
  9
$DIMTIX
 70
     0
  9
$DIMSOXD
 70
     0
  9
$DIMSAH
 70
     0
  9
$DIMBLK1
  1

  9
$DIMBLK2
  1

  9
$DIMSTYLE
  2
STANDARD
  9
$DIMCLRD
 70
     0
  9
$DIMCLRE
 70
     0
  9
$DIMCLRT
 70
     0
  9
$DIMTFAC
 40
1.0
  9
$DIMGAP
 40
0.09
  9
$DIMJUST
 70
     0
  9
$DIMSD1
 70
     0
  9
$DIMSD2
 70
     0
  9
$DIMTOLJ
 70
     1
  9
$DIMTZIN
 70
     0
  9
$DIMALTZ
 70
     0
  9
$DIMALTTZ
 70
     0
  9
$DIMUPT
 70
     0
  9
$DIMDEC
 70
     4
  9
$DIMTDEC
 70
     4
  9
$DIMALTU
 70
     2
  9
$DIMALTTD
 70
     2
  9
$DIMTXSTY
  7
STANDARD
  9
$DIMAUNIT
 70
     0
  9
$DIMADEC
 70
     0
  9
$DIMALTRND
 40
0.0
  9
$DIMAZIN
 70
     0
  9
$DIMDSEP
 70
    46
  9
$DIMATFIT
 70
     0
  9
$DIMFRAC
 70
     0
  9
$DIMLDRBLK
  1

  9
$DIMLUNIT
 70
     2
  9
$DIMLWD
 70
    -2
  9
$DIMLWE
 70
    -2
  9
$DIMTMOVE
 70
     0
  9
$LUNITS
 70
     2
  9
$LUPREC
 70
     4
  9
$SKETCHINC
 40
0.1
  9
$FILLETRAD
 40
0.125
  9
$AUNITS
 70
     0
  9
$AUPREC
 70
     0
  9
$MENU
  1
.
  9
$ELEVATION
 40
0.0
  9
$PELEVATION
 40
0.0
  9
$THICKNESS
 40
0.0
  9
$LIMCHECK
 70
     0
  9
$CHAMFERA
 40
0.125
  9
$CHAMFERB
 40
0.125
  9
$CHAMFERC
 40
0.0
  9
$CHAMFERD
 40
0.0
  9
$SKPOLY
 70
     0
  9
$TDCREATE
 40
0.000000000
  9
$TDUCREATE
 40
0.000000000
  9
$TDUPDATE
 40
0.000000000
  9
$TDUUPDATE
 40
0.000000000
  9
$TDINDWG
 40
0.0000000000
  9
$TDUSRTIMER
 40
0.0000000000
  9
$USRTIMER
 70
     1
  9
$ANGBASE
 50
0.0
  9
$ANGDIR
 70
     0
  9
$PDMODE
 70
     0
  9
$PDSIZE
 40
0.0
  9
$PLINEWID
 40
0.0
  9
$SPLFRAME
 70
     0
  9
$SPLINETYPE
 70
     6
  9
$SPLINESEGS
 70
     8
  9
$HANDSEED
  5
589
  9
$SURFTAB1
 70
     6
  9
$SURFTAB2
 70
     6
  9
$SURFTYPE
 70
     6
  9
$SURFU
 70
     6
  9
$SURFV
 70
     6
  9
$UCSBASE
  2

  9
$UCSNAME
  2

  9
$UCSORG
 10
0.0
 20
0.0
 30
0.0
  9
$UCSXDIR
 10
1.0
 20
0.0
 30
0.0
  9
$UCSYDIR
 10
0.0
 20
1.0
 30
0.0
  9
$UCSORTHOREF
  2

  9
$UCSORTHOVIEW
 70
     1
  9
$UCSORGTOP
 10
0.0
 20
0.0
 30
0.0
  9
$UCSORGBOTTOM
 10
0.0
 20
0.0
 30
0.0
  9
$UCSORGLEFT
 10
0.0
 20
0.0
 30
0.0
  9
$UCSORGRIGHT
 10
0.0
 20
0.0
 30
0.0
  9
$UCSORGFRONT
 10
0.0
 20
0.0
 30
0.0
  9
$UCSORGBACK
 10
0.0
 20
0.0
 30
0.0
  9
$PUCSBASE
  2

  9
$PUCSNAME
  2

  9
$PUCSORG
 10
0.0
 20
0.0
 30
0.0
  9
$PUCSXDIR
 10
1.0
 20
0.0
 30
0.0
  9
$PUCSYDIR
 10
0.0
 20
1.0
 30
0.0
  9
$PUCSORTHOREF
  2

  9
$PUCSORTHOVIEW
 70
     0
  9
$PUCSORGTOP
 10
0.0
 20
0.0
 30
0.0
  9
$PUCSORGBOTTOM
 10
0.0
 20
0.0
 30
0.0
  9
$PUCSORGLEFT
 10
0.0
 20
0.0
 30
0.0
  9
$PUCSORGRIGHT
 10
0.0
 20
0.0
 30
0.0
  9
$PUCSORGFRONT
 10
0.0
 20
0.0
 30
0.0
  9
$PUCSORGBACK
 10
0.0
 20
0.0
 30
0.0
  9
$USERI1
 70
     0
  9
$USERI2
 70
     0
  9
$USERI3
 70
     0
  9
$USERI4
 70
     0
  9
$USERI5
 70
     0
  9
$USERR1
 40
0.0
  9
$USERR2
 40
0.0
  9
$USERR3
 40
0.0
  9
$USERR4
 40
0.0
  9
$USERR5
 40
0.0
  9
$WORLDVIEW
 70
     1
  9
$SHADEDGE
 70
     3
  9
$SHADEDIF
 70
    70
  9
$TILEMODE
 70
     1
  9
$MAXACTVP
 70
    48
  9
$PINSBASE
 10
0.0
 20
0.0
 30
0.0
  9
$PLIMCHECK
 70
     0
  9
$PEXTMIN
 10
0.0
 20
0.0
 30
0.0
  9
$PEXTMAX
 10
164.367813
 20
1.781222
 30
2.0
  9
$PLIMMIN
 10
0.0
 20
0.0
  9
$PLIMMAX
 10
12.0
 20
9.0
  9
$UNITMODE
 70
     0
  9
$VISRETAIN
 70
     0
  9
$PLINEGEN
 70
     0
  9
$PSLTSCALE
 70
     1
  9
$TREEDEPTH
 70
  3020
  9
$CMLSTYLE
  2
Standard
  9
$CMLJUST
 70
     0
  9
$CMLSCALE
 40
1.0
  9
$PROXYGRAPHICS
 70
     1
  9
$MEASUREMENT
 70
     0
  9
$CELWEIGHT
370
    -1
  9
$ENDCAPS
280
     0
  9
$JOINSTYLE
280
     0
  9
$LWDISPLAY
290
     0
  9
$INSUNITS
 70
     0
  9
$HYPERLINKBASE
  1

  9
$STYLESHEET
  1

  9
$XEDIT
290
     1
  9
$CEPSNTYPE
380
     0
  9
$PSTYLEMODE
290
     0
  9
$FINGERPRINTGUID
  2

  9
$VERSIONGUID
  2

  9
$EXTNAMES
290
     0
  9
$PSVPSCALE
 40
0.0
  0
ENDSEC
  0
SECTION
  2
CLASSES
  0
CLASS
  1
LWPOLYLINE
  2
AcDbPolyline
  3
AutoCAD 2000
 90
        0
280
     0
281
     1
  0
CLASS
  1
IMAGE
  2
AcDbRasterImage
  3
ISM
 90
      127
280
     0
281
     1
  0
CLASS
  1
OLE2FRAME
  2
AcDbOle2Frame
  3
AutoCAD 2000
 90
        0
280
     0
281
     1
  0
CLASS
  1
HATCH
  2
AcDbHatch
  3
AutoCAD 2000
 90
        0
280
     0
281
     1
  0
CLASS
  1
DICTIONARYVAR
  2
AcDbDictionaryVar
  3
AutoCAD 2000
 90
        0
280
     0
281
     0
  0
CLASS
  1
RASTERVARIABLES
  2
AcDbRasterVariables
  3
ISM
 90
        0
280
     0
281
     0
  0
CLASS
  1
IMAGEDEF
  2
AcDbRasterImageDef
  3
ISM
 90
        0
280
     0
281
     0
  0
CLASS
  1
IMAGEDEF_REACTOR
  2
AcDbRasterImageDefReactor
  3
ISM
 90
        1
280
     0
281
     0
  0
CLASS
  1
IDBUFFER
  2
AcDbIdBuffer
  3
AutoCAD 2000
 90
        0
280
     0
281
     0
  0
CLASS
  1
SPATIAL_FILTER
  2
AcDbSpatialFilter
  3
AutoCAD 2000
 90
        0
280
     0
281
     0
  0
CLASS
  1
XRECORD
  2
AcDbXrecord
  3
AutoCAD 2000
 90
        0
280
     0
281
     0
  0
CLASS
  1
SORTENTSTABLE
  2
AcDbSortentsTable
  3
AutoCAD 2000
 90
        0
280
     0
281
     0
  0
CLASS
  1
LAYER_INDEX
  2
AcDbLayerIndex
  3
AutoCAD 2000
 90
        0
280
     0
281
     0
  0
CLASS
  1
SPATIAL_INDEX
  2
AcDbSpatialIndex
  3
AutoCAD 2000
 90
        0
280
     0
281
     0
  0
CLASS
  1
OBJECT_PTR
  2
CAseDLPNTableRecord
  3
"ASE-LPNTableRecord"
 90
        1
280
     0
281
     0
  0
CLASS
  1
LAYOUT
  2
AcDbLayout
  3
AutoCAD 2000
 90
        0
280
     0
281
     0
  0
CLASS
  1
PLOTSETTINGS
  2
AcDbPlotSettings
  3
AutoCAD 2000
 90
        0
280
     0
281
     0
  0
CLASS
  1
ACDBDICTIONARYWDFLT
  2
AcDbDictionaryWithDefault
  3
AutoCAD 2000
 90
        0
280
     0
281
     0
  0
CLASS
  1
ACDBPLACEHOLDER
  2
AcDbPlaceHolder
  3
AutoCAD 2000
 90
        0
280
     0
281
     0
  0
CLASS
  1
VBA_PROJECT
  2
AcDbVbaProject
  3
acadvba
 90
        0
280
     0
281
     0
  0
CLASS
  1
WIPEOUT
  2
AcDbWipeout
  3
WipeOut|AutoCAD Express Tool|expresstools@autodesk.com
 90
      127
280
     0
281
     1
  0
CLASS
  1
WIPEOUTVARIABLES
  2
AcDbWipeoutVariables
  3
WipeOut|AutoCAD Express Tool|expresstools@autodesk.com
 90
        0
280
     0
281
     0
  0
CLASS
  1
RTEXT
  2
RText
  3
RText|AutoCAD Express Tool|expresstools@autodesk.com
 90
        0
280
     0
281
     1
  0
CLASS
  1
ARCALIGNEDTEXT
  2
AcDbArcAlignedText
  3
ATEXT|AutoCAD Express Tool|expresstools@autodesk.com
 90
        0
280
     0
281
     1
  0
ENDSEC
  0
SECTION
  2
TABLES
  0
TABLE
  2
VPORT
  5
7
100
AcDbSymbolTable
 70
     1
  0
VPORT
  5
15
100
AcDbSymbolTableRecord
100
AcDbViewportTableRecord
  2
*ACTIVE
 70
     0
 10
0.0
 20
0.0
 11
1.0
 21
1.0
 12
6.591288
 22
4.579184
 13
0.0
 23
0.0
 14
1.0
 24
1.0
 15
0.0
 25
0.0
 16
0.0
 26
0.0
 36
1.0
 17
0.0
 27
0.0
 37
0.0
 40
9.158369
 41
0.688564
 42
50.0
 43
0.0
 44
0.0
 50
0.0
 51
0.0
 71
     0
 72
   100
 73
     1
 74
     1
 75
     0
 76
     0
 77
     0
 78
     0
281
     0
 65
     0
110
0.0
120
0.0
130
0.0
111
1.0
121
0.0
131
0.0
112
0.0
122
1.0
132
0.0
345
0
346
0
 79
     0
146
0.0
  0
ENDTAB
  0
TABLE
  2
LTYPE
  5
4
100
AcDbSymbolTable
 70
     4
  0
LTYPE
  5
11
100
AcDbSymbolTableRecord
100
AcDbLinetypeTableRecord
  2
ByBlock
 70
    64
  3

 72
    65
 73
     0
 40
0.0
  0
LTYPE
  5
12
100
AcDbSymbolTableRecord
100
AcDbLinetypeTableRecord
  2
ByLayer
 70
    64
  3

 72
    65
 73
     0
 40
0.0
  0
LTYPE
  5
13
100
AcDbSymbolTableRecord
100
AcDbLinetypeTableRecord
  2
Continuous
 70
    64
  3
Solid line
 72
    65
 73
     0
 40
0.0
  0
LTYPE
  5
24
100
AcDbSymbolTableRecord
100
AcDbLinetypeTableRecord
  2
DASHDOT
 70
     0
  3
 __ . __ . __ . __ . __ . __ . __ . 
 72
    65
 73
     4
 40
18.5
 49
12.0
 74
     0
 49
-3.0
 74
     0
 49
0.5
 74
     0
 49
-3.0
 74
     0
  0
ENDTAB
  0
TABLE
  2
LAYER
  5
2
100
AcDbSymbolTable
 70
     2
  0
LAYER
  5
14
100
AcDbSymbolTableRecord
100
AcDbLayerTableRecord
  2
0
 70
     0
 62
     7
  6
Continuous
290
     1
370
    13
390
1D
  0
LAYER
  5
25
100
AcDbSymbolTableRecord
100
AcDbLayerTableRecord
  2
1
 70
     0
 62
     7
  6
Continuous
290
     1
370
    13
390
1D
  0
ENDTAB
  0
TABLE
  2
STYLE
  5
3
100
AcDbSymbolTable
 70
     2
  0
STYLE
  5
17
100
AcDbSymbolTableRecord
100
AcDbTextStyleTableRecord
  2
STANDARD
 70
     0
 40
0.0
 41
1.0
 50
0.0
 71
     0
 42
0.0
  3
isocp.shx
  4

  0
STYLE
  5
26
100
AcDbSymbolTableRecord
100
AcDbTextStyleTableRecord
  2
GDT
 70
     0
 40
0.0
 41
1.0
 50
0.0
 71
     0
 42
0.0
  3
gdt.shx
  4

  0
ENDTAB
  0
TABLE
  2
VIEW
  5
5
100
AcDbSymbolTable
 70
     0
  0
ENDTAB
  0
TABLE
  2
UCS
  5
6
100
AcDbSymbolTable
 70
     0
  0
ENDTAB
  0
TABLE
  2
APPID
  5
8
100
AcDbSymbolTable
 70
     1
  0
APPID
  5
16
100
AcDbSymbolTableRecord
100
AcDbRegAppTableRecord
  2
ACAD
 70
     0
  0
ENDTAB
  0
TABLE
  2
DIMSTYLE
  5
9
100
AcDbSymbolTable
 70
     1
100
AcDbDimStyleTable
 71
     0
  0
DIMSTYLE
105
18
100
AcDbSymbolTableRecord
100
AcDbDimStyleTableRecord
  2
STANDARD
 70
     0
  3

  4

 40
1.0
 41
0.18
 42
0.0625
 43
0.38
 44
0.18
 45
0.0
 46
0.0
 47
0.0
 48
0.0
 71
     0
 72
     0
 73
     1
 74
     1
 75
     0
 76
     0
 77
     0
 78
     0
 79
     0
140
0.18
141
0.09
142
0.0
143
25.4
144
1.0
145
0.0
146
1.0
147
0.09
148
0.0
170
     0
171
     2
172
     0
173
     0
174
     0
175
     0
176
     0
177
     0
178
     0
179
     0
271
     4
272
     4
273
     2
274
     2
275
     0
276
     0
277
     2
278
    46
279
     0
280
     0
281
     0
282
     0
283
     1
284
     0
285
     0
286
     0
288
     0
289
     0
340
0
341
0
342
0
343
0
344
0
371
    -2
372
    -2
  0
ENDTAB
  0
TABLE
  2
BLOCK_RECORD
  5
1
100
AcDbSymbolTable
 70
    19
  0
BLOCK_RECORD
  5
A
100
AcDbSymbolTableRecord
100
AcDbBlockTableRecord
  2
*MODEL_SPACE
340
20
  0
BLOCK_RECORD
  5
B
100
AcDbSymbolTableRecord
100
AcDbBlockTableRecord
  2
*PAPER_SPACE
340
21
  0
BLOCK_RECORD
  5
3B3
100
AcDbSymbolTableRecord
100
AcDbBlockTableRecord
  2
BLOCK1
340
0
102
{BLKREFS
331
576
102
}
  0
BLOCK_RECORD
  5
3B4
100
AcDbSymbolTableRecord
100
AcDbBlockTableRecord
  2
BLOCK2
340
0
102
{BLKREFS
331
577
102
}
  0
BLOCK_RECORD
  5
3B5
100
AcDbSymbolTableRecord
100
AcDbBlockTableRecord
  2
BLOCK3
340
0
102
{BLKREFS
331
578
102
}
  0
BLOCK_RECORD
  5
3B6
100
AcDbSymbolTableRecord
100
AcDbBlockTableRecord
  2
BLOCK4
340
0
102
{BLKREFS
331
579
102
}
  0
BLOCK_RECORD
  5
3B7
100
AcDbSymbolTableRecord
100
AcDbBlockTableRecord
  2
BLOCK5
340
0
102
{BLKREFS
331
57A
102
}
  0
BLOCK_RECORD
  5
3B8
100
AcDbSymbolTableRecord
100
AcDbBlockTableRecord
  2
BLOCK6
340
0
102
{BLKREFS
331
57B
102
}
  0
BLOCK_RECORD
  5
3B9
100
AcDbSymbolTableRecord
100
AcDbBlockTableRecord
  2
BLOCK7
340
0
102
{BLKREFS
331
57C
102
}
  0
BLOCK_RECORD
  5
3BA
100
AcDbSymbolTableRecord
100
AcDbBlockTableRecord
  2
BLOCK8
340
0
102
{BLKREFS
331
57D
102
}
  0
BLOCK_RECORD
  5
3BB
100
AcDbSymbolTableRecord
100
AcDbBlockTableRecord
  2
BLOCK9
340
0
102
{BLKREFS
331
57E
102
}
  0
BLOCK_RECORD
  5
3BC
100
AcDbSymbolTableRecord
100
AcDbBlockTableRecord
  2
BLOCK10
340
0
102
{BLKREFS
331
57F
102
}
  0
BLOCK_RECORD
  5
3BD
100
AcDbSymbolTableRecord
100
AcDbBlockTableRecord
  2
BLOCK11
340
0
102
{BLKREFS
331
580
102
}
  0
BLOCK_RECORD
  5
3BE
100
AcDbSymbolTableRecord
100
AcDbBlockTableRecord
  2
BLOCK12
340
0
102
{BLKREFS
331
581
102
}
  0
BLOCK_RECORD
  5
3BF
100
AcDbSymbolTableRecord
100
AcDbBlockTableRecord
  2
BLOCK13
340
0
102
{BLKREFS
331
582
102
}
  0
BLOCK_RECORD
  5
3C0
100
AcDbSymbolTableRecord
100
AcDbBlockTableRecord
  2
BLOCK14
340
0
102
{BLKREFS
331
583
102
}
  0
BLOCK_RECORD
  5
3C1
100
AcDbSymbolTableRecord
100
AcDbBlockTableRecord
  2
BLOCK15
340
0
102
{BLKREFS
331
584
102
}
  0
BLOCK_RECORD
  5
3C2
100
AcDbSymbolTableRecord
100
AcDbBlockTableRecord
  2
BLOCK16
340
0
102
{BLKREFS
331
585
102
}
  0
BLOCK_RECORD
  5
3C3
100
AcDbSymbolTableRecord
100
AcDbBlockTableRecord
  2
BLOCK17
340
0
102
{BLKREFS
331
586
102
}
  0
BLOCK_RECORD
  5
3C4
100
AcDbSymbolTableRecord
100
AcDbBlockTableRecord
  2
BLOCK18
340
0
102
{BLKREFS
331
587
102
}
  0
BLOCK_RECORD
  5
3C5
100
AcDbSymbolTableRecord
100
AcDbBlockTableRecord
  2
BLOCK19
340
0
102
{BLKREFS
331
588
102
}
  0
ENDTAB
  0
ENDSEC
  0
SECTION
  2
BLOCKS
  0
BLOCK
  5
D
100
AcDbEntity
  8
0
390
0
100
AcDbBlockBegin
  2
*MODEL_SPACE
 70
     0
 10
0.0
 20
0.0
 30
0.0
  3
*MODEL_SPACE
  1

  0
ENDBLK
  5
E
100
AcDbEntity
  8
0
390
0
100
AcDbBlockEnd
  0
BLOCK
  5
F
100
AcDbEntity
 67
     1
  8
0
390
0
100
AcDbBlockBegin
  2
*PAPER_SPACE
 70
     0
 10
0.0
 20
0.0
 30
0.0
  3
*PAPER_SPACE
  1

  0
ENDBLK
  5
10
100
AcDbEntity
 67
     1
  8
0
390
0
100
AcDbBlockEnd
  0
BLOCK
  5
3C6
100
AcDbEntity
  8
0
370
     0
390
0
100
AcDbBlockBegin
  2
BLOCK1
 70
     0
 10
0.0
 20
0.0
 30
0.0
  3
BLOCK1
  1

  0
TEXT
  5
3C7
100
AcDbEntity
  8
0
370
    13
390
0
 62
     7
 48
0.03937
100
AcDbText
 10
8.745479
 20
1.043156
 30
0.0
 40
0.098425
  1
SIZE 
 72
     5
 11
9.119436
 21
1.043156
 31
0.0
100
AcDbText
  0
TEXT
  5
3C8
100
AcDbEntity
  8
0
370
    13
390
0
 62
     7
 48
0.03937
100
AcDbText
 10
9.120936
 20
1.043156
 30
0.0
 40
0.098425
  1
1
 72
     5
 11
9.192053
 21
1.043156
 31
0.0
100
AcDbText
  0
TEXT
  5
3C9
100
AcDbEntity
  8
0
370
    13
390
0
 62
     7
 48
0.03937
100
AcDbText
 10
9.193553
 20
1.043156
 30
0.0
 40
0.098425
  1
 INCH ID
 72
     5
 11
9.824899
 21
1.043156
 31
0.0
100
AcDbText
  0
ENDBLK
  5
3CA
100
AcDbEntity
  8
0
390
0
100
AcDbBlockEnd
  0
BLOCK
  5
3CB
100
AcDbEntity
  8
0
370
     0
390
0
100
AcDbBlockBegin
  2
BLOCK2
 70
     0
 10
0.0
 20
0.0
 30
0.0
  3
BLOCK2
  1

  0
TEXT
  5
3CC
100
AcDbEntity
  8
0
370
    13
390
0
 62
     7
 48
0.03937
100
AcDbText
 10
10.093103
 20
0.689966
 30
0.0
 40
0.06
  1
PO Box 2889
 72
     5
 11
10.730818
 21
0.689966
 31
0.0
100
AcDbText
  0
TEXT
  5
3CD
100
AcDbEntity
  8
0
370
    13
390
0
 62
     7
 48
0.03937
100
AcDbText
 10
9.686702
 20
0.589966
 30
0.0
 40
0.06
  1
Pearland, TX 77588
 72
     5
 11
10.730818
 21
0.589966
 31
0.0
100
AcDbText
  0
TEXT
  5
3CE
100
AcDbEntity
  8
0
370
    13
390
0
 62
     7
 48
0.03937
100
AcDbText
 10
9.802816
 20
0.489966
 30
0.0
 40
0.06
  1
PH: 800-826-3801
 72
     5
 11
10.730818
 21
0.489966
 31
0.0
100
AcDbText
  0
TEXT
  5
3CF
100
AcDbEntity
  8
0
370
    13
390
0
 62
     7
 48
0.03937
100
AcDbText
 10
9.744759
 20
0.389966
 30
0.0
 40
0.06
  1
FAX: 281-484-8730
 72
     5
 11
10.730818
 21
0.389966
 31
0.0
100
AcDbText
  0
TEXT
  5
3D0
100
AcDbEntity
  8
0
370
    13
390
0
 62
     7
 48
0.03937
100
AcDbText
 10
9.628644
 20
0.289966
 30
0.0
 40
0.06
  1
www.texasflange.com
 72
     5
 11
10.730818
 21
0.289966
 31
0.0
100
AcDbText
  0
ENDBLK
  5
3D1
100
AcDbEntity
  8
0
390
0
100
AcDbBlockEnd
  0
BLOCK
  5
3D2
100
AcDbEntity
  8
0
370
     0
390
0
100
AcDbBlockBegin
  2
BLOCK3
 70
     0
 10
0.0
 20
0.0
 30
0.0
  3
BLOCK3
  1

  0
TEXT
  5
3D3
100
AcDbEntity
  8
0
370
    13
390
0
 62
     7
 48
0.03937
100
AcDbText
 10
8.289209
 20
0.587871
 30
0.0
 40
0.2
  1
Texas
 72
     5
 11
9.383692
 21
0.587871
 31
0.0
100
AcDbText
  0
TEXT
  5
3D4
100
AcDbEntity
  8
0
370
    13
390
0
 62
     7
 48
0.03937
100
AcDbText
 10
8.289209
 20
0.327871
 30
0.0
 40
0.2
  1
Flange
 72
     5
 11
9.608945
 21
0.327871
 31
0.0
100
AcDbText
  0
ENDBLK
  5
3D5
100
AcDbEntity
  8
0
390
0
100
AcDbBlockEnd
  0
BLOCK
  5
3D6
100
AcDbEntity
  8
0
370
     0
390
0
100
AcDbBlockBegin
  2
BLOCK4
 70
     0
 10
0.0
 20
0.0
 30
0.0
  3
BLOCK4
  1

  0
LINE
  5
3D7
100
AcDbEntity
  8
0
370
     5
390
0
 62
     7
 48
0.00324
100
AcDbLine
 10
8.029831
 20
0.605292
 30
0.0
 11
7.900255
 21
0.604209
 31
0.0
210
0.0
220
0.0
230
1.0
  0
LINE
  5
3D8
100
AcDbEntity
  8
0
370
     5
390
0
 62
     7
 48
0.000103
100
AcDbLine
 10
7.900255
 20
0.604209
 30
0.0
 11
7.902151
 21
0.600546
 31
0.0
210
0.0
220
0.0
230
1.0
  0
LINE
  5
3D9
100
AcDbEntity
  8
0
370
     5
390
0
 62
     7
 48
0.0001
100
AcDbLine
 10
7.902151
 20
0.600546
 30
0.0
 11
7.903945
 21
0.596951
 31
0.0
210
0.0
220
0.0
230
1.0
  0
LINE
  5
3DA
100
AcDbEntity
  8
0
370
     5
390
0
 62
     7
 48
0.000098
100
AcDbLine
 10
7.903945
 20
0.596951
 30
0.0
 11
7.905638
 21
0.593424
 31
0.0
210
0.0
220
0.0
230
1.0
  0
LINE
  5
3DB
100
AcDbEntity
  8
0
370
     5
390
0
 62
     7
 48
0.000095
100
AcDbLine
 10
7.905638
 20
0.593424
 30
0.0
 11
7.907229
 21
0.589967
 31
0.0
210
0.0
220
0.0
230
1.0
  0
LINE
  5
3DC
100
AcDbEntity
  8
0
370
     5
390
0
 62
     7
 48
0.000093
100
AcDbLine
 10
7.907229
 20
0.589967
 30
0.0
 11
7.908719
 21
0.58658
 31
0.0
210
0.0
220
0.0
230
1.0
  0
LINE
  5
3DD
100
AcDbEntity
  8
0
370
     5
390
0
 62
     7
 48
0.00009
100
AcDbLine
 10
7.908719
 20
0.58658
 30
0.0
 11
7.910106
 21
0.583262
 31
0.0
210
0.0
220
0.0
230
1.0
  0
LINE
  5
3DE
100
AcDbEntity
  8
0
370
     5
390
0
 62
     7
 48
0.000087
100
AcDbLine
 10
7.910106
 20
0.583262
 30
0.0
 11
7.911392
 21
0.580013
 31
0.0
210
0.0
220
0.0
230
1.0
  0
LINE
  5
3DF
100
AcDbEntity
  8
0
370
     5
390
0
 62
     7
 48
0.000085
100
AcDbLine
 10
7.911392
 20
0.580013
 30
0.0
 11
7.912577
 21
0.576833
 31
0.0
210
0.0
220
0.0
230
1.0
  0
LINE
  5
3E0
100
AcDbEntity
  8
0
370
     5
390
0
 62
     7
 48
0.000082
100
AcDbLine
 10
7.912577
 20
0.576833
 30
0.0
 11
7.913659
 21
0.573722
 31
0.0
210
0.0
220
0.0
230
1.0
  0
LINE
  5
3E1
100
AcDbEntity
  8
0
370
     5
390
0
 62
     7
 48
0.000095
100
AcDbLine
 10
7.913659
 20
0.573722
 30
0.0
 11
7.915938
 21
0.570681
 31
0.0
210
0.0
220
0.0
230
1.0
  0
LINE
  5
3E2
100
AcDbEntity
  8
0
370
     5
390
0
 62
     7
 48
0.000066
100
AcDbLine
 10
7.915938
 20
0.570681
 30
0.0
 11
7.916123
 21
0.573306
 31
0.0
210
0.0
220
0.0
230
1.0
  0
LINE
  5
3E3
100
AcDbEntity
  8
0
370
     5
390
0
 62
     7
 48
0.000062
100
AcDbLine
 10
7.916123
 20
0.573306
 30
0.0
 11
7.916418
 21
0.575775
 31
0.0
210
0.0
220
0.0
230
1.0
  0
LINE
  5
3E4
100
AcDbEntity
  8
0
370
     5
390
0
 62
     7
 48
0.000059
100
AcDbLine
 10
7.916418
 20
0.575775
 30
0.0
 11
7.916824
 21
0.578087
 31
0.0
210
0.0
220
0.0
230
1.0
  0
LINE
  5
3E5
100
AcDbEntity
  8
0
370
     5
390
0
 62
     7
 48
0.000055
100
AcDbLine
 10
7.916824
 20
0.578087
 30
0.0
 11
7.917339
 21
0.580242
 31
0.0
210
0.0
220
0.0
230
1.0
  0
LINE
  5
3E6
100
AcDbEntity
  8
0
370
     5
390
0
 62
     7
 48
0.000052
100
AcDbLine
 10
7.917339
 20
0.580242
 30
0.0
 11
7.917966
 21
0.58224
 31
0.0
210
0.0
220
0.0
230
1.0
  0
LINE
  5
3E7
100
AcDbEntity
  8
0
370
     5
390
0
 62
     7
 48
0.00005
100
AcDbLine
 10
7.917966
 20
0.58224
 30
0.0
 11
7.918703
 21
0.584081
 31
0.0
210
0.0
220
0.0
230
1.0
  0
LINE
  5
3E8
100
AcDbEntity
  8
0
370
     5
390
0
 62
     7
 48
0.000047
100
AcDbLine
 10
7.918703
 20
0.584081
 30
0.0
 11
7.919549
 21
0.585767
 31
0.0
210
0.0
220
0.0
230
1.0
  0
LINE
  5
3E9
100
AcDbEntity
  8
0
370
     5
390
0
 62
     7
 48
0.000045
100
AcDbLine
 10
7.919549
 20
0.585767
 30
0.0
 11
7.920506
 21
0.587294
 31
0.0
210
0.0
220
0.0
230
1.0
  0
LINE
  5
3EA
100
AcDbEntity
  8
0
370
     5
390
0
 62
     7
 48
0.000043
100
AcDbLine
 10
7.920506
 20
0.587294
 30
0.0
 11
7.921574
 21
0.588665
 31
0.0
210
0.0
220
0.0
230
1.0
  0
LINE
  5
3EB
100
AcDbEntity
  8
0
370
     5
390
0
 62
     7
 48
0.000042
100
AcDbLine
 10
7.921574
 20
0.588665
 30
0.0
 11
7.922751
 21
0.58988
 31
0.0
210
0.0
220
0.0
230
1.0
  0
LINE
  5
3EC
100
AcDbEntity
  8
0
370
     5
390
0
 62
     7
 48
0.000042
100
AcDbLine
 10
7.922751
 20
0.58988
 30
0.0
 11
7.924063
 21
0.590958
 31
0.0
210
0.0
220
0.0
230
1.0
  0
LINE
  5
3ED
100
AcDbEntity
  8
0
370
     5
390
0
 62
     7
 48
0.000044
100
AcDbLine
 10
7.924063
 20
0.590958
 30
0.0
 11
7.92553
 21
0.591923
 31
0.0
210
0.0
220
0.0
230
1.0
  0
LINE
  5
3EE
100
AcDbEntity
  8
0
370
     5
390
0
 62
     7
 48
0.000046
100
AcDbLine
 10
7.92553
 20
0.591923
 30
0.0
 11
7.927152
 21
0.592775
 31
0.0
210
0.0
220
0.0
230
1.0
  0
LINE
  5
3EF
100
AcDbEntity
  8
0
370
     5
390
0
 62
     7
 48
0.000048
100
AcDbLine
 10
7.927152
 20
0.592775
 30
0.0
 11
7.92893
 21
0.593513
 31
0.0
210
0.0
220
0.0
230
1.0
  0
LINE
  5
3F0
100
AcDbEntity
  8
0
370
     5
390
0
 62
     7
 48
0.000051
100
AcDbLine
 10
7.92893
 20
0.593513
 30
0.0
 11
7.930864
 21
0.594138
 31
0.0
210
0.0
220
0.0
230
1.0
  0
LINE
  5
3F1
100
AcDbEntity
  8
0
370
     5
390
0
 62
     7
 48
0.000054
100
AcDbLine
 10
7.930864
 20
0.594138
 30
0.0
 11
7.932953
 21
0.594648
 31
0.0
210
0.0
220
0.0
230
1.0
  0
LINE
  5
3F2
100
AcDbEntity
  8
0
370
     5
390
0
 62
     7
 48
0.000057
100
AcDbLine
 10
7.932953
 20
0.594648
 30
0.0
 11
7.9352
 21
0.595046
 31
0.0
210
0.0
220
0.0
230
1.0
  0
LINE
  5
3F3
100
AcDbEntity
  8
0
370
     5
390
0
 62
     7
 48
0.00006
100
AcDbLine
 10
7.9352
 20
0.595046
 30
0.0
 11
7.9376
 21
0.595331
 31
0.0
210
0.0
220
0.0
230
1.0
  0
LINE
  5
3F4
100
AcDbEntity
  8
0
370
     5
390
0
 62
     7
 48
0.000064
100
AcDbLine
 10
7.9376
 20
0.595331
 30
0.0
 11
7.940158
 21
0.5955
 31
0.0
210
0.0
220
0.0
230
1.0
  0
LINE
  5
3F5
100
AcDbEntity
  8
0
370
     5
390
0
 62
     7
 48
0.000068
100
AcDbLine
 10
7.940158
 20
0.5955
 30
0.0
 11
7.94287
 21
0.595557
 31
0.0
210
0.0
220
0.0
230
1.0
  0
LINE
  5
3F6
100
AcDbEntity
  8
0
370
     5
390
0
 62
     7
 48
0.00005
100
AcDbLine
 10
7.94287
 20
0.595557
 30
0.0
 11
7.944881
 21
0.595532
 31
0.0
210
0.0
220
0.0
230
1.0
  0
LINE
  5
3F7
100
AcDbEntity
  8
0
370
     5
390
0
 62
     7
 48
0.000051
100
AcDbLine
 10
7.944881
 20
0.595532
 30
0.0
 11
7.946936
 21
0.595454
 31
0.0
210
0.0
220
0.0
230
1.0
  0
LINE
  5
3F8
100
AcDbEntity
  8
0
370
     5
390
0
 62
     7
 48
0.000053
100
AcDbLine
 10
7.946936
 20
0.595454
 30
0.0
 11
7.949034
 21
0.595323
 31
0.0
210
0.0
220
0.0
230
1.0
  0
LINE
  5
3F9
100
AcDbEntity
  8
0
370
     5
390
0
 62
     7
 48
0.000054
100
AcDbLine
 10
7.949034
 20
0.595323
 30
0.0
 11
7.951177
 21
0.595142
 31
0.0
210
0.0
220
0.0
230
1.0
  0
LINE
  5
3FA
100
AcDbEntity
  8
0
370
     5
390
0
 62
     7
 48
0.000055
100
AcDbLine
 10
7.951177
 20
0.595142
 30
0.0
 11
7.953361
 21
0.594908
 31
0.0
210
0.0
220
0.0
230
1.0
  0
LINE
  5
3FB
100
AcDbEntity
  8
0
370
     5
390
0
 62
     7
 48
0.000136
100
AcDbLine
 10
7.953361
 20
0.594908
 30
0.0
 11
7.952171
 21
0.589608
 31
0.0
210
0.0
220
0.0
230
1.0
  0
LINE
  5
3FC
100
AcDbEntity
  8
0
370
     5
390
0
 62
     7
 48
0.000162
100
AcDbLine
 10
7.952171
 20
0.589608
 30
0.0
 11
7.945682
 21
0.589716
 31
0.0
210
0.0
220
0.0
230
1.0
  0
LINE
  5
3FD
100
AcDbEntity
  8
0
370
     5
390
0
 62
     7
 48
0.00006
100
AcDbLine
 10
7.945682
 20
0.589716
 30
0.0
 11
7.943286
 21
0.589667
 31
0.0
210
0.0
220
0.0
230
1.0
  0
LINE
  5
3FE
100
AcDbEntity
  8
0
370
     5
390
0
 62
     7
 48
0.000057
100
AcDbLine
 10
7.943286
 20
0.589667
 30
0.0
 11
7.941029
 21
0.589518
 31
0.0
210
0.0
220
0.0
230
1.0
  0
LINE
  5
3FF
100
AcDbEntity
  8
0
370
     5
390
0
 62
     7
 48
0.000053
100
AcDbLine
 10
7.941029
 20
0.589518
 30
0.0
 11
7.938912
 21
0.589269
 31
0.0
210
0.0
220
0.0
230
1.0
  0
LINE
  5
400
100
AcDbEntity
  8
0
370
     5
390
0
 62
     7
 48
0.00005
100
AcDbLine
 10
7.938912
 20
0.589269
 30
0.0
 11
7.936934
 21
0.588921
 31
0.0
210
0.0
220
0.0
230
1.0
  0
LINE
  5
401
100
AcDbEntity
  8
0
370
     5
390
0
 62
     7
 48
0.000047
100
AcDbLine
 10
7.936934
 20
0.588921
 30
0.0
 11
7.935095
 21
0.588473
 31
0.0
210
0.0
220
0.0
230
1.0
  0
LINE
  5
402
100
AcDbEntity
  8
0
370
     5
390
0
 62
     7
 48
0.000045
100
AcDbLine
 10
7.935095
 20
0.588473
 30
0.0
 11
7.933397
 21
0.587925
 31
0.0
210
0.0
220
0.0
230
1.0
  0
LINE
  5
403
100
AcDbEntity
  8
0
370
     5
390
0
 62
     7
 48
0.000042
100
AcDbLine
 10
7.933397
 20
0.587925
 30
0.0
 11
7.931839
 21
0.587279
 31
0.0
210
0.0
220
0.0
230
1.0
  0
LINE
  5
404
100
AcDbEntity
  8
0
370
     5
390
0
 62
     7
 48
0.00004
100
AcDbLine
 10
7.931839
 20
0.587279
 30
0.0
 11
7.930418
 21
0.586532
 31
0.0
210
0.0
220
0.0
230
1.0
  0
LINE
  5
405
100
AcDbEntity
  8
0
370
     5
390
0
 62
     7
 48
0.000038
100
AcDbLine
 10
7.930418
 20
0.586532
 30
0.0
 11
7.929138
 21
0.585687
 31
0.0
210
0.0
220
0.0
230
1.0
  0
LINE
  5
406
100
AcDbEntity
  8
0
370
     5
390
0
 62
     7
 48
0.000074
100
AcDbLine
 10
7.929138
 20
0.585687
 30
0.0
 11
7.926968
 21
0.58367
 31
0.0
210
0.0
220
0.0
230
1.0
  0
LINE
  5
407
100
AcDbEntity
  8
0
370
     5
390
0
 62
     7
 48
0.000039
100
AcDbLine
 10
7.926968
 20
0.58367
 30
0.0
 11
7.926023
 21
0.582444
 31
0.0
210
0.0
220
0.0
230
1.0
  0
LINE
  5
408
100
AcDbEntity
  8
0
370
     5
390
0
 62
     7
 48
0.000041
100
AcDbLine
 10
7.926023
 20
0.582444
 30
0.0
 11
7.92516
 21
0.581064
 31
0.0
210
0.0
220
0.0
230
1.0
  0
LINE
  5
409
100
AcDbEntity
  8
0
370
     5
390
0
 62
     7
 48
0.000043
100
AcDbLine
 10
7.92516
 20
0.581064
 30
0.0
 11
7.924381
 21
0.579533
 31
0.0
210
0.0
220
0.0
230
1.0
  0
LINE
  5
40A
100
AcDbEntity
  8
0
370
     5
390
0
 62
     7
 48
0.000046
100
AcDbLine
 10
7.924381
 20
0.579533
 30
0.0
 11
7.923684
 21
0.577847
 31
0.0
210
0.0
220
0.0
230
1.0
  0
LINE
  5
40B
100
AcDbEntity
  8
0
370
     5
390
0
 62
     7
 48
0.000048
100
AcDbLine
 10
7.923684
 20
0.577847
 30
0.0
 11
7.923073
 21
0.576006
 31
0.0
210
0.0
220
0.0
230
1.0
  0
LINE
  5
40C
100
AcDbEntity
  8
0
370
     5
390
0
 62
     7
 48
0.000052
100
AcDbLine
 10
7.923073
 20
0.576006
 30
0.0
 11
7.922543
 21
0.574013
 31
0.0
210
0.0
220
0.0
230
1.0
  0
LINE
  5
40D
100
AcDbEntity
  8
0
370
     5
390
0
 62
     7
 48
0.000055
100
AcDbLine
 10
7.922543
 20
0.574013
 30
0.0
 11
7.922096
 21
0.571866
 31
0.0
210
0.0
220
0.0
230
1.0
  0
LINE
  5
40E
100
AcDbEntity
  8
0
370
     5
390
0
 62
     7
 48
0.000058
100
AcDbLine
 10
7.922096
 20
0.571866
 30
0.0
 11
7.921734
 21
0.569565
 31
0.0
210
0.0
220
0.0
230
1.0
  0
LINE
  5
40F
100
AcDbEntity
  8
0
370
     5
390
0
 62
     7
 48
0.000062
100
AcDbLine
 10
7.921734
 20
0.569565
 30
0.0
 11
7.921454
 21
0.567111
 31
0.0
210
0.0
220
0.0
230
1.0
  0
LINE
  5
410
100
AcDbEntity
  8
0
370
     5
390
0
 62
     7
 48
0.00007
100
AcDbLine
 10
7.921454
 20
0.567111
 30
0.0
 11
7.924266
 21
0.567111
 31
0.0
210
0.0
220
0.0
230
1.0
  0
LINE
  5
411
100
AcDbEntity
  8
0
370
     5
390
0
 62
     7
 48
0.000054
100
AcDbLine
 10
7.924266
 20
0.567111
 30
0.0
 11
7.924478
 21
0.569252
 31
0.0
210
0.0
220
0.0
230
1.0
  0
LINE
  5
412
100
AcDbEntity
  8
0
370
     5
390
0
 62
     7
 48
0.000051
100
AcDbLine
 10
7.924478
 20
0.569252
 30
0.0
 11
7.924766
 21
0.571259
 31
0.0
210
0.0
220
0.0
230
1.0
  0
LINE
  5
413
100
AcDbEntity
  8
0
370
     5
390
0
 62
     7
 48
0.000048
100
AcDbLine
 10
7.924766
 20
0.571259
 30
0.0
 11
7.92513
 21
0.573132
 31
0.0
210
0.0
220
0.0
230
1.0
  0
LINE
  5
414
100
AcDbEntity
  8
0
370
     5
390
0
 62
     7
 48
0.000045
100
AcDbLine
 10
7.92513
 20
0.573132
 30
0.0
 11
7.925573
 21
0.574872
 31
0.0
210
0.0
220
0.0
230
1.0
  0
LINE
  5
415
100
AcDbEntity
  8
0
370
     5
390
0
 62
     7
 48
0.000042
100
AcDbLine
 10
7.925573
 20
0.574872
 30
0.0
 11
7.926092
 21
0.57648
 31
0.0
210
0.0
220
0.0
230
1.0
  0
LINE
  5
416
100
AcDbEntity
  8
0
370
     5
390
0
 62
     7
 48
0.000077
100
AcDbLine
 10
7.926092
 20
0.57648
 30
0.0
 11
7.92736
 21
0.579297
 31
0.0
210
0.0
220
0.0
230
1.0
  0
LINE
  5
417
100
AcDbEntity
  8
0
370
     5
390
0
 62
     7
 48
0.000069
100
AcDbLine
 10
7.92736
 20
0.579297
 30
0.0
 11
7.928935
 21
0.581582
 31
0.0
210
0.0
220
0.0
230
1.0
  0
LINE
  5
418
100
AcDbEntity
  8
0
370
     5
390
0
 62
     7
 48
0.000065
100
AcDbLine
 10
7.928935
 20
0.581582
 30
0.0
 11
7.930843
 21
0.583356
 31
0.0
210
0.0
220
0.0
230
1.0
  0
LINE
  5
419
100
AcDbEntity
  8
0
370
     5
390
0
 62
     7
 48
0.000069
100
AcDbLine
 10
7.930843
 20
0.583356
 30
0.0
 11
7.93324
 21
0.584759
 31
0.0
210
0.0
220
0.0
230
1.0
  0
LINE
  5
41A
100
AcDbEntity
  8
0
370
     5
390
0
 62
     7
 48
0.000038
100
AcDbLine
 10
7.93324
 20
0.584759
 30
0.0
 11
7.93463
 21
0.585327
 31
0.0
210
0.0
220
0.0
230
1.0
  0
LINE
  5
41B
100
AcDbEntity
  8
0
370
     5
390
0
 62
     7
 48
0.00004
100
AcDbLine
 10
7.93463
 20
0.585327
 30
0.0
 11
7.936151
 21
0.585809
 31
0.0
210
0.0
220
0.0
230
1.0
  0
LINE
  5
41C
100
AcDbEntity
  8
0
370
     5
390
0
 62
     7
 48
0.000042
100
AcDbLine
 10
7.936151
 20
0.585809
 30
0.0
 11
7.937799
 21
0.586203
 31
0.0
210
0.0
220
0.0
230
1.0
  0
LINE
  5
41D
100
AcDbEntity
  8
0
370
     5
390
0
 62
     7
 48
0.000045
100
AcDbLine
 10
7.937799
 20
0.586203
 30
0.0
 11
7.939577
 21
0.586511
 31
0.0
210
0.0
220
0.0
230
1.0
  0
LINE
  5
41E
100
AcDbEntity
  8
0
370
     5
390
0
 62
     7
 48
0.000048
100
AcDbLine
 10
7.939577
 20
0.586511
 30
0.0
 11
7.941484
 21
0.58673
 31
0.0
210
0.0
220
0.0
230
1.0
  0
LINE
  5
41F
100
AcDbEntity
  8
0
370
     5
390
0
 62
     7
 48
0.000051
100
AcDbLine
 10
7.941484
 20
0.58673
 30
0.0
 11
7.943519
 21
0.58686
 31
0.0
210
0.0
220
0.0
230
1.0
  0
LINE
  5
420
100
AcDbEntity
  8
0
370
     5
390
0
 62
     7
 48
0.000054
100
AcDbLine
 10
7.943519
 20
0.58686
 30
0.0
 11
7.945682
 21
0.586905
 31
0.0
210
0.0
220
0.0
230
1.0
  0
LINE
  5
421
100
AcDbEntity
  8
0
370
     5
390
0
 62
     7
 48
0.000192
100
AcDbLine
 10
7.945682
 20
0.586905
 30
0.0
 11
7.953361
 21
0.586796
 31
0.0
210
0.0
220
0.0
230
1.0
  0
LINE
  5
422
100
AcDbEntity
  8
0
370
     5
390
0
 62
     7
 48
0.00269
100
AcDbLine
 10
7.953361
 20
0.586796
 30
0.0
 11
7.953361
 21
0.479178
 31
0.0
210
0.0
220
0.0
230
1.0
  0
LINE
  5
423
100
AcDbEntity
  8
0
370
     5
390
0
 62
     7
 48
0.000493
100
AcDbLine
 10
7.953361
 20
0.479178
 30
0.0
 11
7.93822
 21
0.466523
 31
0.0
210
0.0
220
0.0
230
1.0
  0
LINE
  5
424
100
AcDbEntity
  8
0
370
     5
390
0
 62
     7
 48
0.001236
100
AcDbLine
 10
7.93822
 20
0.466523
 30
0.0
 11
7.987647
 21
0.466523
 31
0.0
210
0.0
220
0.0
230
1.0
  0
LINE
  5
425
100
AcDbEntity
  8
0
370
     5
390
0
 62
     7
 48
0.000434
100
AcDbLine
 10
7.987647
 20
0.466523
 30
0.0
 11
7.974885
 21
0.478313
 31
0.0
210
0.0
220
0.0
230
1.0
  0
LINE
  5
426
100
AcDbEntity
  8
0
370
     5
390
0
 62
     7
 48
0.002931
100
AcDbLine
 10
7.974885
 20
0.478313
 30
0.0
 11
7.976183
 21
0.595557
 31
0.0
210
0.0
220
0.0
230
1.0
  0
LINE
  5
427
100
AcDbEntity
  8
0
370
     5
390
0
 62
     7
 48
0.000049
100
AcDbLine
 10
7.976183
 20
0.595557
 30
0.0
 11
7.97813
 21
0.595713
 31
0.0
210
0.0
220
0.0
230
1.0
  0
LINE
  5
428
100
AcDbEntity
  8
0
370
     5
390
0
 62
     7
 48
0.000049
100
AcDbLine
 10
7.97813
 20
0.595713
 30
0.0
 11
7.980077
 21
0.595835
 31
0.0
210
0.0
220
0.0
230
1.0
  0
LINE
  5
429
100
AcDbEntity
  8
0
370
     5
390
0
 62
     7
 48
0.000049
100
AcDbLine
 10
7.980077
 20
0.595835
 30
0.0
 11
7.982024
 21
0.59592
 31
0.0
210
0.0
220
0.0
230
1.0
  0
LINE
  5
42A
100
AcDbEntity
  8
0
370
     5
390
0
 62
     7
 48
0.000049
100
AcDbLine
 10
7.982024
 20
0.59592
 30
0.0
 11
7.983971
 21
0.595973
 31
0.0
210
0.0
220
0.0
230
1.0
  0
LINE
  5
42B
100
AcDbEntity
  8
0
370
     5
390
0
 62
     7
 48
0.000049
100
AcDbLine
 10
7.983971
 20
0.595973
 30
0.0
 11
7.985918
 21
0.595991
 31
0.0
210
0.0
220
0.0
230
1.0
  0
LINE
  5
42C
100
AcDbEntity
  8
0
370
     5
390
0
 62
     7
 48
0.000058
100
AcDbLine
 10
7.985918
 20
0.595991
 30
0.0
 11
7.988236
 21
0.595943
 31
0.0
210
0.0
220
0.0
230
1.0
  0
LINE
  5
42D
100
AcDbEntity
  8
0
370
     5
390
0
 62
     7
 48
0.000055
100
AcDbLine
 10
7.988236
 20
0.595943
 30
0.0
 11
7.990431
 21
0.595799
 31
0.0
210
0.0
220
0.0
230
1.0
  0
LINE
  5
42E
100
AcDbEntity
  8
0
370
     5
390
0
 62
     7
 48
0.000052
100
AcDbLine
 10
7.990431
 20
0.595799
 30
0.0
 11
7.992506
 21
0.595562
 31
0.0
210
0.0
220
0.0
230
1.0
  0
LINE
  5
42F
100
AcDbEntity
  8
0
370
     5
390
0
 62
     7
 48
0.000049
100
AcDbLine
 10
7.992506
 20
0.595562
 30
0.0
 11
7.994457
 21
0.595229
 31
0.0
210
0.0
220
0.0
230
1.0
  0
LINE
  5
430
100
AcDbEntity
  8
0
370
     5
390
0
 62
     7
 48
0.000047
100
AcDbLine
 10
7.994457
 20
0.595229
 30
0.0
 11
7.996287
 21
0.5948
 31
0.0
210
0.0
220
0.0
230
1.0
  0
LINE
  5
431
100
AcDbEntity
  8
0
370
     5
390
0
 62
     7
 48
0.000045
100
AcDbLine
 10
7.996287
 20
0.5948
 30
0.0
 11
7.997995
 21
0.594276
 31
0.0
210
0.0
220
0.0
230
1.0
  0
LINE
  5
432
100
AcDbEntity
  8
0
370
     5
390
0
 62
     7
 48
0.000043
100
AcDbLine
 10
7.997995
 20
0.594276
 30
0.0
 11
7.99958
 21
0.593658
 31
0.0
210
0.0
220
0.0
230
1.0
  0
LINE
  5
433
100
AcDbEntity
  8
0
370
     5
390
0
 62
     7
 48
0.000041
100
AcDbLine
 10
7.99958
 20
0.593658
 30
0.0
 11
8.001043
 21
0.592944
 31
0.0
210
0.0
220
0.0
230
1.0
  0
LINE
  5
434
100
AcDbEntity
  8
0
370
     5
390
0
 62
     7
 48
0.000039
100
AcDbLine
 10
8.001043
 20
0.592944
 30
0.0
 11
8.002384
 21
0.592136
 31
0.0
210
0.0
220
0.0
230
1.0
  0
LINE
  5
435
100
AcDbEntity
  8
0
370
     5
390
0
 62
     7
 48
0.000038
100
AcDbLine
 10
8.002384
 20
0.592136
 30
0.0
 11
8.003601
 21
0.591231
 31
0.0
210
0.0
220
0.0
230
1.0
  0
LINE
  5
436
100
AcDbEntity
  8
0
370
     5
390
0
 62
     7
 48
0.000038
100
AcDbLine
 10
8.003601
 20
0.591231
 30
0.0
 11
8.004733
 21
0.590204
 31
0.0
210
0.0
220
0.0
230
1.0
  0
LINE
  5
437
100
AcDbEntity
  8
0
370
     5
390
0
 62
     7
 48
0.00004
100
AcDbLine
 10
8.004733
 20
0.590204
 30
0.0
 11
8.00581
 21
0.589025
 31
0.0
210
0.0
220
0.0
230
1.0
  0
LINE
  5
438
100
AcDbEntity
  8
0
370
     5
390
0
 62
     7
 48
0.000042
100
AcDbLine
 10
8.00581
 20
0.589025
 30
0.0
 11
8.006836
 21
0.587694
 31
0.0
210
0.0
220
0.0
230
1.0
  0
LINE
  5
439
100
AcDbEntity
  8
0
370
     5
390
0
 62
     7
 48
0.000044
100
AcDbLine
 10
8.006836
 20
0.587694
 30
0.0
 11
8.007806
 21
0.586212
 31
0.0
210
0.0
220
0.0
230
1.0
  0
LINE
  5
43A
100
AcDbEntity
  8
0
370
     5
390
0
 62
     7
 48
0.000047
100
AcDbLine
 10
8.007806
 20
0.586212
 30
0.0
 11
8.008726
 21
0.584579
 31
0.0
210
0.0
220
0.0
230
1.0
  0
LINE
  5
43B
100
AcDbEntity
  8
0
370
     5
390
0
 62
     7
 48
0.00005
100
AcDbLine
 10
8.008726
 20
0.584579
 30
0.0
 11
8.009591
 21
0.582795
 31
0.0
210
0.0
220
0.0
230
1.0
  0
LINE
  5
43C
100
AcDbEntity
  8
0
370
     5
390
0
 62
     7
 48
0.000053
100
AcDbLine
 10
8.009591
 20
0.582795
 30
0.0
 11
8.010404
 21
0.580859
 31
0.0
210
0.0
220
0.0
230
1.0
  0
LINE
  5
43D
100
AcDbEntity
  8
0
370
     5
390
0
 62
     7
 48
0.000056
100
AcDbLine
 10
8.010404
 20
0.580859
 30
0.0
 11
8.011163
 21
0.578771
 31
0.0
210
0.0
220
0.0
230
1.0
  0
LINE
  5
43E
100
AcDbEntity
  8
0
370
     5
390
0
 62
     7
 48
0.000059
100
AcDbLine
 10
8.011163
 20
0.578771
 30
0.0
 11
8.011871
 21
0.576531
 31
0.0
210
0.0
220
0.0
230
1.0
  0
LINE
  5
43F
100
AcDbEntity
  8
0
370
     5
390
0
 62
     7
 48
0.000062
100
AcDbLine
 10
8.011871
 20
0.576531
 30
0.0
 11
8.012525
 21
0.574142
 31
0.0
210
0.0
220
0.0
230
1.0
  0
LINE
  5
440
100
AcDbEntity
  8
0
370
     5
390
0
 62
     7
 48
0.000057
100
AcDbLine
 10
8.012525
 20
0.574142
 30
0.0
 11
8.014147
 21
0.572519
 31
0.0
210
0.0
220
0.0
230
1.0
  0
LINE
  5
441
100
AcDbEntity
  8
0
370
     5
390
0
 62
     7
 48
0.000054
100
AcDbLine
 10
8.014147
 20
0.572519
 30
0.0
 11
8.014802
 21
0.574562
 31
0.0
210
0.0
220
0.0
230
1.0
  0
LINE
  5
442
100
AcDbEntity
  8
0
370
     5
390
0
 62
     7
 48
0.000052
100
AcDbLine
 10
8.014802
 20
0.574562
 30
0.0
 11
8.015467
 21
0.576534
 31
0.0
210
0.0
220
0.0
230
1.0
  0
LINE
  5
443
100
AcDbEntity
  8
0
370
     5
390
0
 62
     7
 48
0.000051
100
AcDbLine
 10
8.015467
 20
0.576534
 30
0.0
 11
8.016143
 21
0.578438
 31
0.0
210
0.0
220
0.0
230
1.0
  0
LINE
  5
444
100
AcDbEntity
  8
0
370
     5
390
0
 62
     7
 48
0.000049
100
AcDbLine
 10
8.016143
 20
0.578438
 30
0.0
 11
8.01683
 21
0.580272
 31
0.0
210
0.0
220
0.0
230
1.0
  0
LINE
  5
445
100
AcDbEntity
  8
0
370
     5
390
0
 62
     7
 48
0.000047
100
AcDbLine
 10
8.01683
 20
0.580272
 30
0.0
 11
8.017528
 21
0.582038
 31
0.0
210
0.0
220
0.0
230
1.0
  0
LINE
  5
446
100
AcDbEntity
  8
0
370
     5
390
0
 62
     7
 48
0.000046
100
AcDbLine
 10
8.017528
 20
0.582038
 30
0.0
 11
8.018235
 21
0.583734
 31
0.0
210
0.0
220
0.0
230
1.0
  0
LINE
  5
447
100
AcDbEntity
  8
0
370
     5
390
0
 62
     7
 48
0.000044
100
AcDbLine
 10
8.018235
 20
0.583734
 30
0.0
 11
8.018954
 21
0.58536
 31
0.0
210
0.0
220
0.0
230
1.0
  0
LINE
  5
448
100
AcDbEntity
  8
0
370
     5
390
0
 62
     7
 48
0.000043
100
AcDbLine
 10
8.018954
 20
0.58536
 30
0.0
 11
8.019684
 21
0.586917
 31
0.0
210
0.0
220
0.0
230
1.0
  0
LINE
  5
449
100
AcDbEntity
  8
0
370
     5
390
0
 62
     7
 48
0.000042
100
AcDbLine
 10
8.019684
 20
0.586917
 30
0.0
 11
8.020426
 21
0.588405
 31
0.0
210
0.0
220
0.0
230
1.0
  0
LINE
  5
44A
100
AcDbEntity
  8
0
370
     5
390
0
 62
     7
 48
0.00004
100
AcDbLine
 10
8.020426
 20
0.588405
 30
0.0
 11
8.021177
 21
0.589826
 31
0.0
210
0.0
220
0.0
230
1.0
  0
LINE
  5
44B
100
AcDbEntity
  8
0
370
     5
390
0
 62
     7
 48
0.0004
100
AcDbLine
 10
8.021177
 20
0.589826
 30
0.0
 11
8.029019
 21
0.60375
 31
0.0
210
0.0
220
0.0
230
1.0
  0
LINE
  5
44C
100
AcDbEntity
  8
0
370
     5
390
0
 62
     7
 48
0.000044
100
AcDbLine
 10
8.029019
 20
0.60375
 30
0.0
 11
8.029831
 21
0.605292
 31
0.0
210
0.0
220
0.0
230
1.0
  0
ENDBLK
  5
44D
100
AcDbEntity
  8
0
390
0
100
AcDbBlockEnd
  0
BLOCK
  5
44E
100
AcDbEntity
  8
0
370
     0
390
0
100
AcDbBlockBegin
  2
BLOCK5
 70
     0
 10
0.0
 20
0.0
 30
0.0
  3
BLOCK5
  1

  0
LINE
  5
44F
100
AcDbEntity
  8
0
370
     5
390
0
 62
     7
 48
0.000505
100
AcDbLine
 10
8.03978
 20
0.605292
 30
0.0
 11
8.054382
 21
0.591339
 31
0.0
210
0.0
220
0.0
230
1.0
  0
LINE
  5
450
100
AcDbEntity
  8
0
370
     5
390
0
 62
     7
 48
0.001141
100
AcDbLine
 10
8.054382
 20
0.591339
 30
0.0
 11
8.054382
 21
0.545696
 31
0.0
210
0.0
220
0.0
230
1.0
  0
LINE
  5
451
100
AcDbEntity
  8
0
370
     5
390
0
 62
     7
 48
0.00008
100
AcDbLine
 10
8.054382
 20
0.545696
 30
0.0
 11
8.051189
 21
0.545309
 31
0.0
210
0.0
220
0.0
230
1.0
  0
LINE
  5
452
100
AcDbEntity
  8
0
370
     5
390
0
 62
     7
 48
0.000076
100
AcDbLine
 10
8.051189
 20
0.545309
 30
0.0
 11
8.048231
 21
0.544665
 31
0.0
210
0.0
220
0.0
230
1.0
  0
LINE
  5
453
100
AcDbEntity
  8
0
370
     5
390
0
 62
     7
 48
0.000072
100
AcDbLine
 10
8.048231
 20
0.544665
 30
0.0
 11
8.045504
 21
0.543768
 31
0.0
210
0.0
220
0.0
230
1.0
  0
LINE
  5
454
100
AcDbEntity
  8
0
370
     5
390
0
 62
     7
 48
0.000069
100
AcDbLine
 10
8.045504
 20
0.543768
 30
0.0
 11
8.043013
 21
0.542615
 31
0.0
210
0.0
220
0.0
230
1.0
  0
LINE
  5
455
100
AcDbEntity
  8
0
370
     5
390
0
 62
     7
 48
0.000067
100
AcDbLine
 10
8.043013
 20
0.542615
 30
0.0
 11
8.040755
 21
0.541208
 31
0.0
210
0.0
220
0.0
230
1.0
  0
LINE
  5
456
100
AcDbEntity
  8
0
370
     5
390
0
 62
     7
 48
0.000066
100
AcDbLine
 10
8.040755
 20
0.541208
 30
0.0
 11
8.03873
 21
0.539544
 31
0.0
210
0.0
220
0.0
230
1.0
  0
LINE
  5
457
100
AcDbEntity
  8
0
370
     5
390
0
 62
     7
 48
0.000066
100
AcDbLine
 10
8.03873
 20
0.539544
 30
0.0
 11
8.036938
 21
0.537626
 31
0.0
210
0.0
220
0.0
230
1.0
  0
LINE
  5
458
100
AcDbEntity
  8
0
370
     5
390
0
 62
     7
 48
0.000067
100
AcDbLine
 10
8.036938
 20
0.537626
 30
0.0
 11
8.03538
 21
0.535451
 31
0.0
210
0.0
220
0.0
230
1.0
  0
LINE
  5
459
100
AcDbEntity
  8
0
370
     5
390
0
 62
     7
 48
0.000069
100
AcDbLine
 10
8.03538
 20
0.535451
 30
0.0
 11
8.034058
 21
0.533022
 31
0.0
210
0.0
220
0.0
230
1.0
  0
LINE
  5
45A
100
AcDbEntity
  8
0
370
     5
390
0
 62
     7
 48
0.000072
100
AcDbLine
 10
8.034058
 20
0.533022
 30
0.0
 11
8.032967
 21
0.530337
 31
0.0
210
0.0
220
0.0
230
1.0
  0
LINE
  5
45B
100
AcDbEntity
  8
0
370
     5
390
0
 62
     7
 48
0.000047
100
AcDbLine
 10
8.032967
 20
0.530337
 30
0.0
 11
8.033725
 21
0.528606
 31
0.0
210
0.0
220
0.0
230
1.0
  0
LINE
  5
45C
100
AcDbEntity
  8
0
370
     5
390
0
 62
     7
 48
0.000054
100
AcDbLine
 10
8.033725
 20
0.528606
 30
0.0
 11
8.035222
 21
0.530168
 31
0.0
210
0.0
220
0.0
230
1.0
  0
LINE
  5
45D
100
AcDbEntity
  8
0
370
     5
390
0
 62
     7
 48
0.000052
100
AcDbLine
 10
8.035222
 20
0.530168
 30
0.0
 11
8.036774
 21
0.531566
 31
0.0
210
0.0
220
0.0
230
1.0
  0
LINE
  5
45E
100
AcDbEntity
  8
0
370
     5
390
0
 62
     7
 48
0.000051
100
AcDbLine
 10
8.036774
 20
0.531566
 30
0.0
 11
8.038381
 21
0.532799
 31
0.0
210
0.0
220
0.0
230
1.0
  0
LINE
  5
45F
100
AcDbEntity
  8
0
370
     5
390
0
 62
     7
 48
0.000049
100
AcDbLine
 10
8.038381
 20
0.532799
 30
0.0
 11
8.04004
 21
0.533868
 31
0.0
210
0.0
220
0.0
230
1.0
  0
LINE
  5
460
100
AcDbEntity
  8
0
370
     5
390
0
 62
     7
 48
0.000048
100
AcDbLine
 10
8.04004
 20
0.533868
 30
0.0
 11
8.041754
 21
0.534771
 31
0.0
210
0.0
220
0.0
230
1.0
  0
LINE
  5
461
100
AcDbEntity
  8
0
370
     5
390
0
 62
     7
 48
0.000048
100
AcDbLine
 10
8.041754
 20
0.534771
 30
0.0
 11
8.043522
 21
0.535512
 31
0.0
210
0.0
220
0.0
230
1.0
  0
LINE
  5
462
100
AcDbEntity
  8
0
370
     5
390
0
 62
     7
 48
0.000048
100
AcDbLine
 10
8.043522
 20
0.535512
 30
0.0
 11
8.045345
 21
0.536087
 31
0.0
210
0.0
220
0.0
230
1.0
  0
LINE
  5
463
100
AcDbEntity
  8
0
370
     5
390
0
 62
     7
 48
0.000048
100
AcDbLine
 10
8.045345
 20
0.536087
 30
0.0
 11
8.047222
 21
0.536498
 31
0.0
210
0.0
220
0.0
230
1.0
  0
LINE
  5
464
100
AcDbEntity
  8
0
370
     5
390
0
 62
     7
 48
0.000049
100
AcDbLine
 10
8.047222
 20
0.536498
 30
0.0
 11
8.049152
 21
0.536744
 31
0.0
210
0.0
220
0.0
230
1.0
  0
LINE
  5
465
100
AcDbEntity
  8
0
370
     5
390
0
 62
     7
 48
0.00005
100
AcDbLine
 10
8.049152
 20
0.536744
 30
0.0
 11
8.051138
 21
0.536826
 31
0.0
210
0.0
220
0.0
230
1.0
  0
LINE
  5
466
100
AcDbEntity
  8
0
370
     5
390
0
 62
     7
 48
0.000041
100
AcDbLine
 10
8.051138
 20
0.536826
 30
0.0
 11
8.052773
 21
0.536748
 31
0.0
210
0.0
220
0.0
230
1.0
  0
LINE
  5
467
100
AcDbEntity
  8
0
370
     5
390
0
 62
     7
 48
0.00004
100
AcDbLine
 10
8.052773
 20
0.536748
 30
0.0
 11
8.054382
 21
0.53661
 31
0.0
210
0.0
220
0.0
230
1.0
  0
LINE
  5
468
100
AcDbEntity
  8
0
370
     5
390
0
 62
     7
 48
0.000127
100
AcDbLine
 10
8.054382
 20
0.53661
 30
0.0
 11
8.054382
 21
0.531527
 31
0.0
210
0.0
220
0.0
230
1.0
  0
LINE
  5
469
100
AcDbEntity
  8
0
370
     5
390
0
 62
     7
 48
0.000051
100
AcDbLine
 10
8.054382
 20
0.531527
 30
0.0
 11
8.052347
 21
0.531458
 31
0.0
210
0.0
220
0.0
230
1.0
  0
LINE
  5
46A
100
AcDbEntity
  8
0
370
     5
390
0
 62
     7
 48
0.000049
100
AcDbLine
 10
8.052347
 20
0.531458
 30
0.0
 11
8.050394
 21
0.531249
 31
0.0
210
0.0
220
0.0
230
1.0
  0
LINE
  5
46B
100
AcDbEntity
  8
0
370
     5
390
0
 62
     7
 48
0.000048
100
AcDbLine
 10
8.050394
 20
0.531249
 30
0.0
 11
8.048522
 21
0.530904
 31
0.0
210
0.0
220
0.0
230
1.0
  0
LINE
  5
46C
100
AcDbEntity
  8
0
370
     5
390
0
 62
     7
 48
0.000046
100
AcDbLine
 10
8.048522
 20
0.530904
 30
0.0
 11
8.046733
 21
0.53042
 31
0.0
210
0.0
220
0.0
230
1.0
  0
LINE
  5
46D
100
AcDbEntity
  8
0
370
     5
390
0
 62
     7
 48
0.000045
100
AcDbLine
 10
8.046733
 20
0.53042
 30
0.0
 11
8.045027
 21
0.529796
 31
0.0
210
0.0
220
0.0
230
1.0
  0
LINE
  5
46E
100
AcDbEntity
  8
0
370
     5
390
0
 62
     7
 48
0.000045
100
AcDbLine
 10
8.045027
 20
0.529796
 30
0.0
 11
8.043403
 21
0.529035
 31
0.0
210
0.0
220
0.0
230
1.0
  0
LINE
  5
46F
100
AcDbEntity
  8
0
370
     5
390
0
 62
     7
 48
0.000045
100
AcDbLine
 10
8.043403
 20
0.529035
 30
0.0
 11
8.041859
 21
0.528135
 31
0.0
210
0.0
220
0.0
230
1.0
  0
LINE
  5
470
100
AcDbEntity
  8
0
370
     5
390
0
 62
     7
 48
0.000045
100
AcDbLine
 10
8.041859
 20
0.528135
 30
0.0
 11
8.0404
 21
0.527097
 31
0.0
210
0.0
220
0.0
230
1.0
  0
LINE
  5
471
100
AcDbEntity
  8
0
370
     5
390
0
 62
     7
 48
0.000045
100
AcDbLine
 10
8.0404
 20
0.527097
 30
0.0
 11
8.039021
 21
0.52592
 31
0.0
210
0.0
220
0.0
230
1.0
  0
LINE
  5
472
100
AcDbEntity
  8
0
370
     5
390
0
 62
     7
 48
0.000046
100
AcDbLine
 10
8.039021
 20
0.52592
 30
0.0
 11
8.037725
 21
0.524604
 31
0.0
210
0.0
220
0.0
230
1.0
  0
LINE
  5
473
100
AcDbEntity
  8
0
370
     5
390
0
 62
     7
 48
0.000077
100
AcDbLine
 10
8.037725
 20
0.524604
 30
0.0
 11
8.03978
 21
0.522333
 31
0.0
210
0.0
220
0.0
230
1.0
  0
LINE
  5
474
100
AcDbEntity
  8
0
370
     5
390
0
 62
     7
 48
0.000044
100
AcDbLine
 10
8.03978
 20
0.522333
 30
0.0
 11
8.041057
 21
0.523526
 31
0.0
210
0.0
220
0.0
230
1.0
  0
LINE
  5
475
100
AcDbEntity
  8
0
370
     5
390
0
 62
     7
 48
0.000042
100
AcDbLine
 10
8.041057
 20
0.523526
 30
0.0
 11
8.042372
 21
0.524592
 31
0.0
210
0.0
220
0.0
230
1.0
  0
LINE
  5
476
100
AcDbEntity
  8
0
370
     5
390
0
 62
     7
 48
0.000041
100
AcDbLine
 10
8.042372
 20
0.524592
 30
0.0
 11
8.04373
 21
0.525533
 31
0.0
210
0.0
220
0.0
230
1.0
  0
LINE
  5
477
100
AcDbEntity
  8
0
370
     5
390
0
 62
     7
 48
0.000041
100
AcDbLine
 10
8.04373
 20
0.525533
 30
0.0
 11
8.045129
 21
0.526349
 31
0.0
210
0.0
220
0.0
230
1.0
  0
LINE
  5
478
100
AcDbEntity
  8
0
370
     5
390
0
 62
     7
 48
0.00004
100
AcDbLine
 10
8.045129
 20
0.526349
 30
0.0
 11
8.046567
 21
0.527039
 31
0.0
210
0.0
220
0.0
230
1.0
  0
LINE
  5
479
100
AcDbEntity
  8
0
370
     5
390
0
 62
     7
 48
0.00004
100
AcDbLine
 10
8.046567
 20
0.527039
 30
0.0
 11
8.048048
 21
0.527603
 31
0.0
210
0.0
220
0.0
230
1.0
  0
LINE
  5
47A
100
AcDbEntity
  8
0
370
     5
390
0
 62
     7
 48
0.00004
100
AcDbLine
 10
8.048048
 20
0.527603
 30
0.0
 11
8.049571
 21
0.528042
 31
0.0
210
0.0
220
0.0
230
1.0
  0
LINE
  5
47B
100
AcDbEntity
  8
0
370
     5
390
0
 62
     7
 48
0.00004
100
AcDbLine
 10
8.049571
 20
0.528042
 30
0.0
 11
8.051134
 21
0.528356
 31
0.0
210
0.0
220
0.0
230
1.0
  0
LINE
  5
47C
100
AcDbEntity
  8
0
370
     5
390
0
 62
     7
 48
0.00004
100
AcDbLine
 10
8.051134
 20
0.528356
 30
0.0
 11
8.052737
 21
0.528543
 31
0.0
210
0.0
220
0.0
230
1.0
  0
LINE
  5
47D
100
AcDbEntity
  8
0
370
     5
390
0
 62
     7
 48
0.000041
100
AcDbLine
 10
8.052737
 20
0.528543
 30
0.0
 11
8.054382
 21
0.528606
 31
0.0
210
0.0
220
0.0
230
1.0
  0
LINE
  5
47E
100
AcDbEntity
  8
0
370
     5
390
0
 62
     7
 48
0.001163
100
AcDbLine
 10
8.054382
 20
0.528606
 30
0.0
 11
8.054382
 21
0.482097
 31
0.0
210
0.0
220
0.0
230
1.0
  0
LINE
  5
47F
100
AcDbEntity
  8
0
370
     5
390
0
 62
     7
 48
0.000564
100
AcDbLine
 10
8.054382
 20
0.482097
 30
0.0
 11
8.036753
 21
0.468038
 31
0.0
210
0.0
220
0.0
230
1.0
  0
LINE
  5
480
100
AcDbEntity
  8
0
370
     5
390
0
 62
     7
 48
0.001328
100
AcDbLine
 10
8.036753
 20
0.468038
 30
0.0
 11
8.089859
 21
0.468038
 31
0.0
210
0.0
220
0.0
230
1.0
  0
LINE
  5
481
100
AcDbEntity
  8
0
370
     5
390
0
 62
     7
 48
0.000493
100
AcDbLine
 10
8.089859
 20
0.468038
 30
0.0
 11
8.076014
 21
0.482097
 31
0.0
210
0.0
220
0.0
230
1.0
  0
LINE
  5
482
100
AcDbEntity
  8
0
370
     5
390
0
 62
     7
 48
0.001363
100
AcDbLine
 10
8.076014
 20
0.482097
 30
0.0
 11
8.076014
 21
0.53661
 31
0.0
210
0.0
220
0.0
230
1.0
  0
LINE
  5
483
100
AcDbEntity
  8
0
370
     5
390
0
 62
     7
 48
0.000619
100
AcDbLine
 10
8.076014
 20
0.53661
 30
0.0
 11
8.100782
 21
0.53661
 31
0.0
210
0.0
220
0.0
230
1.0
  0
LINE
  5
484
100
AcDbEntity
  8
0
370
     5
390
0
 62
     7
 48
0.000639
100
AcDbLine
 10
8.100782
 20
0.53661
 30
0.0
 11
8.118953
 21
0.518655
 31
0.0
210
0.0
220
0.0
230
1.0
  0
LINE
  5
485
100
AcDbEntity
  8
0
370
     5
390
0
 62
     7
 48
0.001133
100
AcDbLine
 10
8.118953
 20
0.518655
 30
0.0
 11
8.118953
 21
0.563975
 31
0.0
210
0.0
220
0.0
230
1.0
  0
LINE
  5
486
100
AcDbEntity
  8
0
370
     5
390
0
 62
     7
 48
0.000629
100
AcDbLine
 10
8.118953
 20
0.563975
 30
0.0
 11
8.101647
 21
0.545696
 31
0.0
210
0.0
220
0.0
230
1.0
  0
LINE
  5
487
100
AcDbEntity
  8
0
370
     5
390
0
 62
     7
 48
0.000408
100
AcDbLine
 10
8.101647
 20
0.545696
 30
0.0
 11
8.085316
 21
0.545696
 31
0.0
210
0.0
220
0.0
230
1.0
  0
LINE
  5
488
100
AcDbEntity
  8
0
370
     5
390
0
 62
     7
 48
0.001044
100
AcDbLine
 10
8.085316
 20
0.545696
 30
0.0
 11
8.085316
 21
0.587445
 31
0.0
210
0.0
220
0.0
230
1.0
  0
LINE
  5
489
100
AcDbEntity
  8
0
370
     5
390
0
 62
     7
 48
0.000067
100
AcDbLine
 10
8.085316
 20
0.587445
 30
0.0
 11
8.087994
 21
0.58764
 31
0.0
210
0.0
220
0.0
230
1.0
  0
LINE
  5
48A
100
AcDbEntity
  8
0
370
     5
390
0
 62
     7
 48
0.000063
100
AcDbLine
 10
8.087994
 20
0.58764
 30
0.0
 11
8.090491
 21
0.587792
 31
0.0
210
0.0
220
0.0
230
1.0
  0
LINE
  5
48B
100
AcDbEntity
  8
0
370
     5
390
0
 62
     7
 48
0.000058
100
AcDbLine
 10
8.090491
 20
0.587792
 30
0.0
 11
8.092805
 21
0.5879
 31
0.0
210
0.0
220
0.0
230
1.0
  0
LINE
  5
48C
100
AcDbEntity
  8
0
370
     5
390
0
 62
     7
 48
0.000053
100
AcDbLine
 10
8.092805
 20
0.5879
 30
0.0
 11
8.094938
 21
0.587964
 31
0.0
210
0.0
220
0.0
230
1.0
  0
LINE
  5
48D
100
AcDbEntity
  8
0
370
     5
390
0
 62
     7
 48
0.000049
100
AcDbLine
 10
8.094938
 20
0.587964
 30
0.0
 11
8.09689
 21
0.587987
 31
0.0
210
0.0
220
0.0
230
1.0
  0
LINE
  5
48E
100
AcDbEntity
  8
0
370
     5
390
0
 62
     7
 48
0.000063
100
AcDbLine
 10
8.09689
 20
0.587987
 30
0.0
 11
8.099417
 21
0.587969
 31
0.0
210
0.0
220
0.0
230
1.0
  0
LINE
  5
48F
100
AcDbEntity
  8
0
370
     5
390
0
 62
     7
 48
0.00006
100
AcDbLine
 10
8.099417
 20
0.587969
 30
0.0
 11
8.101811
 21
0.587915
 31
0.0
210
0.0
220
0.0
230
1.0
  0
LINE
  5
490
100
AcDbEntity
  8
0
370
     5
390
0
 62
     7
 48
0.000056
100
AcDbLine
 10
8.101811
 20
0.587915
 30
0.0
 11
8.104068
 21
0.587826
 31
0.0
210
0.0
220
0.0
230
1.0
  0
LINE
  5
491
100
AcDbEntity
  8
0
370
     5
390
0
 62
     7
 48
0.000053
100
AcDbLine
 10
8.104068
 20
0.587826
 30
0.0
 11
8.106191
 21
0.5877
 31
0.0
210
0.0
220
0.0
230
1.0
  0
LINE
  5
492
100
AcDbEntity
  8
0
370
     5
390
0
 62
     7
 48
0.00005
100
AcDbLine
 10
8.106191
 20
0.5877
 30
0.0
 11
8.108179
 21
0.58754
 31
0.0
210
0.0
220
0.0
230
1.0
  0
LINE
  5
493
100
AcDbEntity
  8
0
370
     5
390
0
 62
     7
 48
0.000047
100
AcDbLine
 10
8.108179
 20
0.58754
 30
0.0
 11
8.110031
 21
0.587343
 31
0.0
210
0.0
220
0.0
230
1.0
  0
LINE
  5
494
100
AcDbEntity
  8
0
370
     5
390
0
 62
     7
 48
0.000043
100
AcDbLine
 10
8.110031
 20
0.587343
 30
0.0
 11
8.111747
 21
0.587112
 31
0.0
210
0.0
220
0.0
230
1.0
  0
LINE
  5
495
100
AcDbEntity
  8
0
370
     5
390
0
 62
     7
 48
0.00004
100
AcDbLine
 10
8.111747
 20
0.587112
 30
0.0
 11
8.113329
 21
0.586844
 31
0.0
210
0.0
220
0.0
230
1.0
  0
LINE
  5
496
100
AcDbEntity
  8
0
370
     5
390
0
 62
     7
 48
0.000071
100
AcDbLine
 10
8.113329
 20
0.586844
 30
0.0
 11
8.116087
 21
0.586202
 31
0.0
210
0.0
220
0.0
230
1.0
  0
LINE
  5
497
100
AcDbEntity
  8
0
370
     5
390
0
 62
     7
 48
0.000065
100
AcDbLine
 10
8.116087
 20
0.586202
 30
0.0
 11
8.118538
 21
0.585356
 31
0.0
210
0.0
220
0.0
230
1.0
  0
LINE
  5
498
100
AcDbEntity
  8
0
370
     5
390
0
 62
     7
 48
0.000066
100
AcDbLine
 10
8.118538
 20
0.585356
 30
0.0
 11
8.120915
 21
0.584246
 31
0.0
210
0.0
220
0.0
230
1.0
  0
LINE
  5
499
100
AcDbEntity
  8
0
370
     5
390
0
 62
     7
 48
0.000067
100
AcDbLine
 10
8.120915
 20
0.584246
 30
0.0
 11
8.123219
 21
0.582873
 31
0.0
210
0.0
220
0.0
230
1.0
  0
LINE
  5
49A
100
AcDbEntity
  8
0
370
     5
390
0
 62
     7
 48
0.000069
100
AcDbLine
 10
8.123219
 20
0.582873
 30
0.0
 11
8.125449
 21
0.581235
 31
0.0
210
0.0
220
0.0
230
1.0
  0
LINE
  5
49B
100
AcDbEntity
  8
0
370
     5
390
0
 62
     7
 48
0.000072
100
AcDbLine
 10
8.125449
 20
0.581235
 30
0.0
 11
8.127607
 21
0.579333
 31
0.0
210
0.0
220
0.0
230
1.0
  0
LINE
  5
49C
100
AcDbEntity
  8
0
370
     5
390
0
 62
     7
 48
0.000063
100
AcDbLine
 10
8.127607
 20
0.579333
 30
0.0
 11
8.126338
 21
0.581511
 31
0.0
210
0.0
220
0.0
230
1.0
  0
LINE
  5
49D
100
AcDbEntity
  8
0
370
     5
390
0
 62
     7
 48
0.000063
100
AcDbLine
 10
8.126338
 20
0.581511
 30
0.0
 11
8.124737
 21
0.583461
 31
0.0
210
0.0
220
0.0
230
1.0
  0
LINE
  5
49E
100
AcDbEntity
  8
0
370
     5
390
0
 62
     7
 48
0.000065
100
AcDbLine
 10
8.124737
 20
0.583461
 30
0.0
 11
8.122807
 21
0.58518
 31
0.0
210
0.0
220
0.0
230
1.0
  0
LINE
  5
49F
100
AcDbEntity
  8
0
370
     5
390
0
 62
     7
 48
0.000068
100
AcDbLine
 10
8.122807
 20
0.58518
 30
0.0
 11
8.120546
 21
0.586671
 31
0.0
210
0.0
220
0.0
230
1.0
  0
LINE
  5
4A0
100
AcDbEntity
  8
0
370
     5
390
0
 62
     7
 48
0.000072
100
AcDbLine
 10
8.120546
 20
0.586671
 30
0.0
 11
8.117954
 21
0.587933
 31
0.0
210
0.0
220
0.0
230
1.0
  0
LINE
  5
4A1
100
AcDbEntity
  8
0
370
     5
390
0
 62
     7
 48
0.000078
100
AcDbLine
 10
8.117954
 20
0.587933
 30
0.0
 11
8.115029
 21
0.588965
 31
0.0
210
0.0
220
0.0
230
1.0
  0
LINE
  5
4A2
100
AcDbEntity
  8
0
370
     5
390
0
 62
     7
 48
0.000084
100
AcDbLine
 10
8.115029
 20
0.588965
 30
0.0
 11
8.111775
 21
0.589767
 31
0.0
210
0.0
220
0.0
230
1.0
  0
LINE
  5
4A3
100
AcDbEntity
  8
0
370
     5
390
0
 62
     7
 48
0.000091
100
AcDbLine
 10
8.111775
 20
0.589767
 30
0.0
 11
8.108189
 21
0.59034
 31
0.0
210
0.0
220
0.0
230
1.0
  0
LINE
  5
4A4
100
AcDbEntity
  8
0
370
     5
390
0
 62
     7
 48
0.000098
100
AcDbLine
 10
8.108189
 20
0.59034
 30
0.0
 11
8.104273
 21
0.590684
 31
0.0
210
0.0
220
0.0
230
1.0
  0
LINE
  5
4A5
100
AcDbEntity
  8
0
370
     5
390
0
 62
     7
 48
0.000106
100
AcDbLine
 10
8.104273
 20
0.590684
 30
0.0
 11
8.100026
 21
0.590798
 31
0.0
210
0.0
220
0.0
230
1.0
  0
LINE
  5
4A6
100
AcDbEntity
  8
0
370
     5
390
0
 62
     7
 48
0.000075
100
AcDbLine
 10
8.100026
 20
0.590798
 30
0.0
 11
8.097032
 21
0.590786
 31
0.0
210
0.0
220
0.0
230
1.0
  0
LINE
  5
4A7
100
AcDbEntity
  8
0
370
     5
390
0
 62
     7
 48
0.000073
100
AcDbLine
 10
8.097032
 20
0.590786
 30
0.0
 11
8.094107
 21
0.590747
 31
0.0
210
0.0
220
0.0
230
1.0
  0
LINE
  5
4A8
100
AcDbEntity
  8
0
370
     5
390
0
 62
     7
 48
0.000071
100
AcDbLine
 10
8.094107
 20
0.590747
 30
0.0
 11
8.091251
 21
0.590682
 31
0.0
210
0.0
220
0.0
230
1.0
  0
LINE
  5
4A9
100
AcDbEntity
  8
0
370
     5
390
0
 62
     7
 48
0.00007
100
AcDbLine
 10
8.091251
 20
0.590682
 30
0.0
 11
8.088465
 21
0.590591
 31
0.0
210
0.0
220
0.0
230
1.0
  0
LINE
  5
4AA
100
AcDbEntity
  8
0
370
     5
390
0
 62
     7
 48
0.000068
100
AcDbLine
 10
8.088465
 20
0.590591
 30
0.0
 11
8.085749
 21
0.590474
 31
0.0
210
0.0
220
0.0
230
1.0
  0
LINE
  5
4AB
100
AcDbEntity
  8
0
370
     5
390
0
 62
     7
 48
0.000078
100
AcDbLine
 10
8.085749
 20
0.590474
 30
0.0
 11
8.082612
 21
0.590366
 31
0.0
210
0.0
220
0.0
230
1.0
  0
LINE
  5
4AC
100
AcDbEntity
  8
0
370
     5
390
0
 62
     7
 48
0.001117
100
AcDbLine
 10
8.082612
 20
0.590366
 30
0.0
 11
8.082612
 21
0.545696
 31
0.0
210
0.0
220
0.0
230
1.0
  0
LINE
  5
4AD
100
AcDbEntity
  8
0
370
     5
390
0
 62
     7
 48
0.000165
100
AcDbLine
 10
8.082612
 20
0.545696
 30
0.0
 11
8.076014
 21
0.545696
 31
0.0
210
0.0
220
0.0
230
1.0
  0
LINE
  5
4AE
100
AcDbEntity
  8
0
370
     5
390
0
 62
     7
 48
0.001265
100
AcDbLine
 10
8.076014
 20
0.545696
 30
0.0
 11
8.076014
 21
0.596315
 31
0.0
210
0.0
220
0.0
230
1.0
  0
LINE
  5
4AF
100
AcDbEntity
  8
0
370
     5
390
0
 62
     7
 48
0.0001
100
AcDbLine
 10
8.076014
 20
0.596315
 30
0.0
 11
8.080016
 21
0.596207
 31
0.0
210
0.0
220
0.0
230
1.0
  0
LINE
  5
4B0
100
AcDbEntity
  8
0
370
     5
390
0
 62
     7
 48
0.000262
100
AcDbLine
 10
8.080016
 20
0.596207
 30
0.0
 11
8.090507
 21
0.596099
 31
0.0
210
0.0
220
0.0
230
1.0
  0
LINE
  5
4B1
100
AcDbEntity
  8
0
370
     5
390
0
 62
     7
 48
0.000154
100
AcDbLine
 10
8.090507
 20
0.596099
 30
0.0
 11
8.096672
 21
0.596207
 31
0.0
210
0.0
220
0.0
230
1.0
  0
LINE
  5
4B2
100
AcDbEntity
  8
0
370
     5
390
0
 62
     7
 48
0.00008
100
AcDbLine
 10
8.096672
 20
0.596207
 30
0.0
 11
8.099887
 21
0.596163
 31
0.0
210
0.0
220
0.0
230
1.0
  0
LINE
  5
4B3
100
AcDbEntity
  8
0
370
     5
390
0
 62
     7
 48
0.000076
100
AcDbLine
 10
8.099887
 20
0.596163
 30
0.0
 11
8.102909
 21
0.596033
 31
0.0
210
0.0
220
0.0
230
1.0
  0
LINE
  5
4B4
100
AcDbEntity
  8
0
370
     5
390
0
 62
     7
 48
0.000071
100
AcDbLine
 10
8.102909
 20
0.596033
 30
0.0
 11
8.10574
 21
0.595817
 31
0.0
210
0.0
220
0.0
230
1.0
  0
LINE
  5
4B5
100
AcDbEntity
  8
0
370
     5
390
0
 62
     7
 48
0.000066
100
AcDbLine
 10
8.10574
 20
0.595817
 30
0.0
 11
8.108379
 21
0.595514
 31
0.0
210
0.0
220
0.0
230
1.0
  0
LINE
  5
4B6
100
AcDbEntity
  8
0
370
     5
390
0
 62
     7
 48
0.000062
100
AcDbLine
 10
8.108379
 20
0.595514
 30
0.0
 11
8.110827
 21
0.595125
 31
0.0
210
0.0
220
0.0
230
1.0
  0
LINE
  5
4B7
100
AcDbEntity
  8
0
370
     5
390
0
 62
     7
 48
0.000058
100
AcDbLine
 10
8.110827
 20
0.595125
 30
0.0
 11
8.113085
 21
0.594648
 31
0.0
210
0.0
220
0.0
230
1.0
  0
LINE
  5
4B8
100
AcDbEntity
  8
0
370
     5
390
0
 62
     7
 48
0.000054
100
AcDbLine
 10
8.113085
 20
0.594648
 30
0.0
 11
8.11515
 21
0.594086
 31
0.0
210
0.0
220
0.0
230
1.0
  0
LINE
  5
4B9
100
AcDbEntity
  8
0
370
     5
390
0
 62
     7
 48
0.00005
100
AcDbLine
 10
8.11515
 20
0.594086
 30
0.0
 11
8.117024
 21
0.593438
 31
0.0
210
0.0
220
0.0
230
1.0
  0
LINE
  5
4BA
100
AcDbEntity
  8
0
370
     5
390
0
 62
     7
 48
0.000046
100
AcDbLine
 10
8.117024
 20
0.593438
 30
0.0
 11
8.118707
 21
0.592701
 31
0.0
210
0.0
220
0.0
230
1.0
  0
LINE
  5
4BB
100
AcDbEntity
  8
0
370
     5
390
0
 62
     7
 48
0.000043
100
AcDbLine
 10
8.118707
 20
0.592701
 30
0.0
 11
8.120198
 21
0.591881
 31
0.0
210
0.0
220
0.0
230
1.0
  0
LINE
  5
4BC
100
AcDbEntity
  8
0
370
     5
390
0
 62
     7
 48
0.000043
100
AcDbLine
 10
8.120198
 20
0.591881
 30
0.0
 11
8.121594
 21
0.59091
 31
0.0
210
0.0
220
0.0
230
1.0
  0
LINE
  5
4BD
100
AcDbEntity
  8
0
370
     5
390
0
 62
     7
 48
0.000046
100
AcDbLine
 10
8.121594
 20
0.59091
 30
0.0
 11
8.122994
 21
0.589734
 31
0.0
210
0.0
220
0.0
230
1.0
  0
LINE
  5
4BE
100
AcDbEntity
  8
0
370
     5
390
0
 62
     7
 48
0.000049
100
AcDbLine
 10
8.122994
 20
0.589734
 30
0.0
 11
8.124398
 21
0.58835
 31
0.0
210
0.0
220
0.0
230
1.0
  0
LINE
  5
4BF
100
AcDbEntity
  8
0
370
     5
390
0
 62
     7
 48
0.000053
100
AcDbLine
 10
8.124398
 20
0.58835
 30
0.0
 11
8.125804
 21
0.586758
 31
0.0
210
0.0
220
0.0
230
1.0
  0
LINE
  5
4C0
100
AcDbEntity
  8
0
370
     5
390
0
 62
     7
 48
0.000057
100
AcDbLine
 10
8.125804
 20
0.586758
 30
0.0
 11
8.127215
 21
0.584958
 31
0.0
210
0.0
220
0.0
230
1.0
  0
LINE
  5
4C1
100
AcDbEntity
  8
0
370
     5
390
0
 62
     7
 48
0.000061
100
AcDbLine
 10
8.127215
 20
0.584958
 30
0.0
 11
8.128628
 21
0.582951
 31
0.0
210
0.0
220
0.0
230
1.0
  0
LINE
  5
4C2
100
AcDbEntity
  8
0
370
     5
390
0
 62
     7
 48
0.000066
100
AcDbLine
 10
8.128628
 20
0.582951
 30
0.0
 11
8.130044
 21
0.580736
 31
0.0
210
0.0
220
0.0
230
1.0
  0
LINE
  5
4C3
100
AcDbEntity
  8
0
370
     5
390
0
 62
     7
 48
0.00007
100
AcDbLine
 10
8.130044
 20
0.580736
 30
0.0
 11
8.131463
 21
0.578313
 31
0.0
210
0.0
220
0.0
230
1.0
  0
LINE
  5
4C4
100
AcDbEntity
  8
0
370
     5
390
0
 62
     7
 48
0.000075
100
AcDbLine
 10
8.131463
 20
0.578313
 30
0.0
 11
8.132887
 21
0.575682
 31
0.0
210
0.0
220
0.0
230
1.0
  0
LINE
  5
4C5
100
AcDbEntity
  8
0
370
     5
390
0
 62
     7
 48
0.000079
100
AcDbLine
 10
8.132887
 20
0.575682
 30
0.0
 11
8.134311
 21
0.572844
 31
0.0
210
0.0
220
0.0
230
1.0
  0
LINE
  5
4C6
100
AcDbEntity
  8
0
370
     5
390
0
 62
     7
 48
0.000058
100
AcDbLine
 10
8.134311
 20
0.572844
 30
0.0
 11
8.135177
 21
0.575007
 31
0.0
210
0.0
220
0.0
230
1.0
  0
LINE
  5
4C7
100
AcDbEntity
  8
0
370
     5
390
0
 62
     7
 48
0.000059
100
AcDbLine
 10
8.135177
 20
0.575007
 30
0.0
 11
8.136049
 21
0.577196
 31
0.0
210
0.0
220
0.0
230
1.0
  0
LINE
  5
4C8
100
AcDbEntity
  8
0
370
     5
390
0
 62
     7
 48
0.000056
100
AcDbLine
 10
8.136049
 20
0.577196
 30
0.0
 11
8.136889
 21
0.57926
 31
0.0
210
0.0
220
0.0
230
1.0
  0
LINE
  5
4C9
100
AcDbEntity
  8
0
370
     5
390
0
 62
     7
 48
0.000053
100
AcDbLine
 10
8.136889
 20
0.57926
 30
0.0
 11
8.137697
 21
0.581201
 31
0.0
210
0.0
220
0.0
230
1.0
  0
LINE
  5
4CA
100
AcDbEntity
  8
0
370
     5
390
0
 62
     7
 48
0.000049
100
AcDbLine
 10
8.137697
 20
0.581201
 30
0.0
 11
8.138474
 21
0.583019
 31
0.0
210
0.0
220
0.0
230
1.0
  0
LINE
  5
4CB
100
AcDbEntity
  8
0
370
     5
390
0
 62
     7
 48
0.000046
100
AcDbLine
 10
8.138474
 20
0.583019
 30
0.0
 11
8.13922
 21
0.584714
 31
0.0
210
0.0
220
0.0
230
1.0
  0
LINE
  5
4CC
100
AcDbEntity
  8
0
370
     5
390
0
 62
     7
 48
0.000043
100
AcDbLine
 10
8.13922
 20
0.584714
 30
0.0
 11
8.139935
 21
0.586286
 31
0.0
210
0.0
220
0.0
230
1.0
  0
LINE
  5
4CD
100
AcDbEntity
  8
0
370
     5
390
0
 62
     7
 48
0.00004
100
AcDbLine
 10
8.139935
 20
0.586286
 30
0.0
 11
8.140617
 21
0.587735
 31
0.0
210
0.0
220
0.0
230
1.0
  0
LINE
  5
4CE
100
AcDbEntity
  8
0
370
     5
390
0
 62
     7
 48
0.000071
100
AcDbLine
 10
8.140617
 20
0.587735
 30
0.0
 11
8.14189
 21
0.590261
 31
0.0
210
0.0
220
0.0
230
1.0
  0
LINE
  5
4CF
100
AcDbEntity
  8
0
370
     5
390
0
 62
     7
 48
0.000061
100
AcDbLine
 10
8.14189
 20
0.590261
 30
0.0
 11
8.143089
 21
0.592394
 31
0.0
210
0.0
220
0.0
230
1.0
  0
LINE
  5
4D0
100
AcDbEntity
  8
0
370
     5
390
0
 62
     7
 48
0.000069
100
AcDbLine
 10
8.143089
 20
0.592394
 30
0.0
 11
8.144543
 21
0.594729
 31
0.0
210
0.0
220
0.0
230
1.0
  0
LINE
  5
4D1
100
AcDbEntity
  8
0
370
     5
390
0
 62
     7
 48
0.000038
100
AcDbLine
 10
8.144543
 20
0.594729
 30
0.0
 11
8.145386
 21
0.596012
 31
0.0
210
0.0
220
0.0
230
1.0
  0
LINE
  5
4D2
100
AcDbEntity
  8
0
370
     5
390
0
 62
     7
 48
0.000041
100
AcDbLine
 10
8.145386
 20
0.596012
 30
0.0
 11
8.146304
 21
0.597369
 31
0.0
210
0.0
220
0.0
230
1.0
  0
LINE
  5
4D3
100
AcDbEntity
  8
0
370
     5
390
0
 62
     7
 48
0.000044
100
AcDbLine
 10
8.146304
 20
0.597369
 30
0.0
 11
8.1473
 21
0.598802
 31
0.0
210
0.0
220
0.0
230
1.0
  0
LINE
  5
4D4
100
AcDbEntity
  8
0
370
     5
390
0
 62
     7
 48
0.000046
100
AcDbLine
 10
8.1473
 20
0.598802
 30
0.0
 11
8.148372
 21
0.600311
 31
0.0
210
0.0
220
0.0
230
1.0
  0
LINE
  5
4D5
100
AcDbEntity
  8
0
370
     5
390
0
 62
     7
 48
0.000049
100
AcDbLine
 10
8.148372
 20
0.600311
 30
0.0
 11
8.149522
 21
0.601895
 31
0.0
210
0.0
220
0.0
230
1.0
  0
LINE
  5
4D6
100
AcDbEntity
  8
0
370
     5
390
0
 62
     7
 48
0.000052
100
AcDbLine
 10
8.149522
 20
0.601895
 30
0.0
 11
8.150747
 21
0.603555
 31
0.0
210
0.0
220
0.0
230
1.0
  0
LINE
  5
4D7
100
AcDbEntity
  8
0
370
     5
390
0
 62
     7
 48
0.000054
100
AcDbLine
 10
8.150747
 20
0.603555
 30
0.0
 11
8.152051
 21
0.605292
 31
0.0
210
0.0
220
0.0
230
1.0
  0
LINE
  5
4D8
100
AcDbEntity
  8
0
370
     5
390
0
 62
     7
 48
0.002807
100
AcDbLine
 10
8.152051
 20
0.605292
 30
0.0
 11
8.03978
 21
0.605292
 31
0.0
210
0.0
220
0.0
230
1.0
  0
ENDBLK
  5
4D9
100
AcDbEntity
  8
0
390
0
100
AcDbBlockEnd
  0
BLOCK
  5
4DA
100
AcDbEntity
  8
0
370
     0
390
0
100
AcDbBlockBegin
  2
BLOCK6
 70
     0
 10
0.0
 20
0.0
 30
0.0
  3
BLOCK6
  1

  0
TEXT
  5
4DB
100
AcDbEntity
  8
0
370
    13
390
0
 62
     7
 48
0.03937
100
AcDbText
 10
-2.839458
 20
-1.949206
 30
0.0
 40
0.101451
  1
0.5-13
 72
     5
 11
-2.461217
 21
-1.949206
 31
0.0
100
AcDbText
  0
TEXT
  5
4DC
100
AcDbEntity
  8
0
370
    13
390
0
 62
     7
 48
0.03937
100
AcDbText
 10
-2.461217
 20
-1.949206
 30
0.0
 40
0.101451
  1
 X 
 72
     5
 11
-2.275176
 21
-1.949206
 31
0.0
100
AcDbText
  0
TEXT
  5
4DD
100
AcDbEntity
  8
0
370
    13
390
0
 62
     7
 48
0.03937
100
AcDbText
 10
-2.275176
 20
-1.949206
 30
0.0
 40
0.101451
  1
0.88in
 72
     5
 11
-1.898108
 21
-1.949206
 31
0.0
100
AcDbText
  0
POLYLINE
  5
4DE
100
AcDbEntity
  8
0
370
    13
390
0
 62
     7
 48
0.03937
100
AcDb2dPolyline
 66
     1
 10
0.0
 20
0.0
 30
0.0
 71
     3
  0
VERTEX
  5
4DF
100
AcDbEntity
  8
0
370
     0
390
0
100
AcDbVertex
100
AcDb2dVertex
 10
-1.222149
 20
-1.277285
 30
0.0
  0
VERTEX
  5
4E0
100
AcDbEntity
  8
0
370
     0
390
0
100
AcDbVertex
100
AcDb2dVertex
 10
-1.620097
 20
-1.897381
 30
0.0
  0
VERTEX
  5
4E1
100
AcDbEntity
  8
0
370
     0
390
0
100
AcDbVertex
100
AcDb2dVertex
 10
-1.816948
 20
-1.897381
 30
0.0
  0
SEQEND
  5
4E2
100
AcDbEntity
  8
0
370
     0
390
0
  0
SOLID
  5
4E3
100
AcDbEntity
  8
0
370
    13
390
0
 62
     7
 48
0.03937
100
AcDbTrace
 10
-1.304572
 20
-1.469333
 30
0.0
 11
-1.222149
 21
-1.277285
 31
0.0
 12
-1.362403
 22
-1.43222
 32
0.0
 13
-1.362403
 23
-1.43222
 33
0.0
  0
ENDBLK
  5
4E4
100
AcDbEntity
  8
0
390
0
100
AcDbBlockEnd
  0
BLOCK
  5
4E5
100
AcDbEntity
  8
0
370
     0
390
0
100
AcDbBlockBegin
  2
BLOCK7
 70
     0
 10
0.0
 20
0.0
 30
0.0
  3
BLOCK7
  1

  0
TEXT
  5
4E6
100
AcDbEntity
  8
0
370
    13
390
0
 62
     7
 48
0.03937
100
AcDbText
 10
-2.840576
 20
-1.773205
 30
0.0
 40
0.101451
  1
4
 72
     5
 11
-2.767274
 21
-1.773205
 31
0.0
100
AcDbText
  0
TEXT
  5
4E7
100
AcDbEntity
  8
0
370
    13
390
0
 62
     7
 48
0.03937
100
AcDbText
 10
-2.767274
 20
-1.773205
 30
0.0
 40
0.101451
  1
X
 72
     5
 11
-2.654535
 21
-1.773205
 31
0.0
100
AcDbText
  0
ENDBLK
  5
4E8
100
AcDbEntity
  8
0
390
0
100
AcDbBlockEnd
  0
BLOCK
  5
4E9
100
AcDbEntity
  8
0
370
     0
390
0
100
AcDbBlockBegin
  2
BLOCK8
 70
     0
 10
0.0
 20
0.0
 30
0.0
  3
BLOCK8
  1

  0
SOLID
  5
4EA
100
AcDbEntity
  8
0
370
    13
390
0
 62
     7
 48
0.03937
100
AcDbTrace
 10
1.837195
 20
1.435315
 30
0.0
 11
1.693646
 21
1.283428
 31
0.0
 12
1.837195
 22
1.435315
 32
0.0
 13
1.878697
 23
1.380549
 33
0.0
  0
TEXT
  5
4EB
100
AcDbEntity
  8
0
370
    13
390
0
 62
     7
 48
0.03937
100
AcDbText
 10
2.553138
 20
1.533759
 30
0.0
 40
0.101451
  1
4.25
 72
     5
 11
2.809696
 21
1.533759
 31
0.0
100
AcDbText
  0
TEXT
  5
4EC
100
AcDbEntity
  8
0
370
    13
390
0
 62
     7
 48
0.03937
100
AcDbText
 10
2.809696
 20
1.533759
 30
0.0
 40
0.101451
  1
"
 72
     5
 11
2.884093
 21
1.533759
 31
0.0
100
AcDbText
  0
TEXT
  5
4ED
100
AcDbEntity
  8
0
370
    13
390
0
 62
     7
 48
0.03937
100
AcDbText
 10
2.348613
 20
1.533759
 30
0.0
 40
0.101451
  1
%%c
 72
     5
 11
2.450064
 21
1.533759
 31
0.0
100
AcDbText
  0
LINE
  5
4EE
100
AcDbEntity
  8
0
370
    13
390
0
 62
     7
 48
0.004381
100
AcDbLine
 10
2.090929
 20
1.584484
 30
0.0
 11
2.266154
 21
1.584484
 31
0.0
210
0.0
220
0.0
230
1.0
  0
LINE
  5
4EF
100
AcDbEntity
  8
0
370
    13
390
0
 62
     7
 48
0.007308
100
AcDbLine
 10
1.857946
 20
1.407932
 30
0.0
 11
2.090929
 21
1.584484
 31
0.0
210
0.0
220
0.0
230
1.0
  0
POLYLINE
  5
4F0
100
AcDbEntity
  8
0
370
    13
390
0
 62
     7
 48
0.03937
100
AcDb2dPolyline
 66
     1
 10
0.0
 20
0.0
 30
0.0
 70
     1
 71
     3
  0
VERTEX
  5
4F1
100
AcDbEntity
  8
0
370
     0
390
0
100
AcDbVertex
100
AcDb2dVertex
 10
1.837195
 20
1.435315
 30
0.0
  0
VERTEX
  5
4F2
100
AcDbEntity
  8
0
370
     0
390
0
100
AcDbVertex
100
AcDb2dVertex
 10
1.693646
 20
1.283428
 30
0.0
  0
VERTEX
  5
4F3
100
AcDbEntity
  8
0
370
     0
390
0
100
AcDbVertex
100
AcDb2dVertex
 10
1.878697
 20
1.380549
 30
0.0
  0
SEQEND
  5
4F4
100
AcDbEntity
  8
0
370
     0
390
0
  0
ENDBLK
  5
4F5
100
AcDbEntity
  8
0
390
0
100
AcDbBlockEnd
  0
BLOCK
  5
4F6
100
AcDbEntity
  8
0
370
     0
390
0
100
AcDbBlockBegin
  2
BLOCK9
 70
     0
 10
0.0
 20
0.0
 30
0.0
  3
BLOCK9
  1

  0
SOLID
  5
4F7
100
AcDbEntity
  8
0
370
    13
390
0
 62
     7
 48
0.03937
100
AcDbTrace
 10
0.849228
 20
-1.548954
 30
0.0
 11
0.723217
 21
-1.382229
 31
0.0
 12
0.849228
 22
-1.548954
 32
0.0
 13
0.788343
 23
-1.580811
 33
0.0
  0
TEXT
  5
4F8
100
AcDbEntity
  8
0
370
    13
390
0
 62
     7
 48
0.03937
100
AcDbText
 10
1.587433
 20
-2.20128
 30
0.0
 40
0.101451
  1
3.12
 72
     5
 11
1.843991
 21
-2.20128
 31
0.0
100
AcDbText
  0
TEXT
  5
4F9
100
AcDbEntity
  8
0
370
    13
390
0
 62
     7
 48
0.03937
100
AcDbText
 10
1.843991
 20
-2.20128
 30
0.0
 40
0.101451
  1
"
 72
     5
 11
1.918388
 21
-2.20128
 31
0.0
100
AcDbText
  0
TEXT
  5
4FA
100
AcDbEntity
  8
0
370
    13
390
0
 62
     7
 48
0.03937
100
AcDbText
 10
1.382908
 20
-2.20128
 30
0.0
 40
0.101451
  1
%%c
 72
     5
 11
1.484359
 21
-2.20128
 31
0.0
100
AcDbText
  0
LINE
  5
4FB
100
AcDbEntity
  8
0
370
    13
390
0
 62
     7
 48
0.004381
100
AcDbLine
 10
1.125224
 20
-2.150555
 30
0.0
 11
1.300449
 21
-2.150555
 31
0.0
210
0.0
220
0.0
230
1.0
  0
LINE
  5
4FC
100
AcDbEntity
  8
0
370
    13
390
0
 62
     7
 48
0.016525
100
AcDbLine
 10
0.818786
 20
-1.564882
 30
0.0
 11
1.125224
 21
-2.150555
 31
0.0
210
0.0
220
0.0
230
1.0
  0
POLYLINE
  5
4FD
100
AcDbEntity
  8
0
370
    13
390
0
 62
     7
 48
0.03937
100
AcDb2dPolyline
 66
     1
 10
0.0
 20
0.0
 30
0.0
 70
     1
 71
     3
  0
VERTEX
  5
4FE
100
AcDbEntity
  8
0
370
     0
390
0
100
AcDbVertex
100
AcDb2dVertex
 10
0.849228
 20
-1.548954
 30
0.0
  0
VERTEX
  5
4FF
100
AcDbEntity
  8
0
370
     0
390
0
100
AcDbVertex
100
AcDb2dVertex
 10
0.723217
 20
-1.382229
 30
0.0
  0
VERTEX
  5
500
100
AcDbEntity
  8
0
370
     0
390
0
100
AcDbVertex
100
AcDb2dVertex
 10
0.788343
 20
-1.580811
 30
0.0
  0
SEQEND
  5
501
100
AcDbEntity
  8
0
370
     0
390
0
  0
ENDBLK
  5
502
100
AcDbEntity
  8
0
390
0
100
AcDbBlockEnd
  0
BLOCK
  5
503
100
AcDbEntity
  8
0
370
     0
390
0
100
AcDbBlockBegin
  2
BLOCK10
 70
     0
 10
0.0
 20
0.0
 30
0.0
  3
BLOCK10
  1

  0
LINE
  5
504
100
AcDbEntity
  8
0
370
    13
390
0
  6
DASHDOT
 62
     7
 48
0.03937
100
AcDbLine
 10
1.712278
 20
1.712278
 30
0.0
 11
0.493895
 21
0.493895
 31
0.0
210
0.0
220
0.0
230
1.0
  0
ARC
  5
505
100
AcDbEntity
  8
0
370
    13
390
0
  6
DASHDOT
 62
     7
 48
0.03937
100
AcDbCircle
 10
0.0
 20
0.0
 30
0.0
 40
1.56
210
0.0
220
0.0
230
1.0
100
AcDbArc
 50
13.357777
 51
76.642222
  0
ENDBLK
  5
506
100
AcDbEntity
  8
0
390
0
100
AcDbBlockEnd
  0
BLOCK
  5
507
100
AcDbEntity
  8
0
370
     0
390
0
100
AcDbBlockBegin
  2
BLOCK11
 70
     0
 10
0.0
 20
0.0
 30
0.0
  3
BLOCK11
  1

  0
LINE
  5
508
100
AcDbEntity
  8
0
370
    13
390
0
  6
DASHDOT
 62
     7
 48
0.03937
100
AcDbLine
 10
-1.781222
 20
1.781222
 30
0.0
 11
-0.424951
 21
0.424951
 31
0.0
210
0.0
220
0.0
230
1.0
  0
ARC
  5
509
100
AcDbEntity
  8
0
370
    13
390
0
  6
DASHDOT
 62
     7
 48
0.03937
100
AcDbCircle
 10
0.0
 20
0.0
 30
0.0
 40
1.56
210
0.0
220
0.0
230
1.0
100
AcDbArc
 50
99.776742
 51
170.223259
  0
ENDBLK
  5
50A
100
AcDbEntity
  8
0
390
0
100
AcDbBlockEnd
  0
BLOCK
  5
50B
100
AcDbEntity
  8
0
370
     0
390
0
100
AcDbBlockBegin
  2
BLOCK12
 70
     0
 10
0.0
 20
0.0
 30
0.0
  3
BLOCK12
  1

  0
LINE
  5
50C
100
AcDbEntity
  8
0
370
    13
390
0
  6
DASHDOT
 62
     7
 48
0.03937
100
AcDbLine
 10
-1.73142
 20
-1.73142
 30
0.0
 11
-0.474754
 21
-0.474754
 31
0.0
210
0.0
220
0.0
230
1.0
  0
ARC
  5
50D
100
AcDbEntity
  8
0
370
    13
390
0
  6
DASHDOT
 62
     7
 48
0.03937
100
AcDbCircle
 10
0.0
 20
0.0
 30
0.0
 40
1.56
210
0.0
220
0.0
230
1.0
100
AcDbArc
 50
192.363553
 51
257.63646
  0
ENDBLK
  5
50E
100
AcDbEntity
  8
0
390
0
100
AcDbBlockEnd
  0
BLOCK
  5
50F
100
AcDbEntity
  8
0
370
     0
390
0
100
AcDbBlockBegin
  2
BLOCK13
 70
     0
 10
0.0
 20
0.0
 30
0.0
  3
BLOCK13
  1

  0
LINE
  5
510
100
AcDbEntity
  8
0
370
    13
390
0
  6
DASHDOT
 62
     7
 48
0.03937
100
AcDbLine
 10
1.693129
 20
-1.693129
 30
0.0
 11
0.513044
 21
-0.513044
 31
0.0
210
0.0
220
0.0
230
1.0
  0
ARC
  5
511
100
AcDbEntity
  8
0
370
    13
390
0
  6
DASHDOT
 62
     7
 48
0.03937
100
AcDbCircle
 10
0.0
 20
0.0
 30
0.0
 40
1.56
210
0.0
220
0.0
230
1.0
100
AcDbArc
 50
284.352411
 51
345.647597
  0
ENDBLK
  5
512
100
AcDbEntity
  8
0
390
0
100
AcDbBlockEnd
  0
BLOCK
  5
513
100
AcDbEntity
  8
0
370
     0
390
0
100
AcDbBlockBegin
  2
BLOCK14
 70
     0
 10
0.0
 20
0.0
 30
0.0
  3
BLOCK14
  1

  0
SOLID
  5
514
100
AcDbEntity
  8
0
370
    13
390
0
 62
     7
 48
0.03937
100
AcDbTrace
 10
2.975708
 20
-0.143645
 30
0.0
 11
2.941351
 21
0.0625
 31
0.0
 12
2.975708
 22
-0.143645
 32
0.0
 13
2.906993
 23
-0.143645
 33
0.0
  0
SOLID
  5
515
100
AcDbEntity
  8
0
370
    13
390
0
 62
     7
 48
0.03937
100
AcDbTrace
 10
2.906993
 20
-1.043855
 30
0.0
 11
2.941351
 21
-1.25
 31
0.0
 12
2.906993
 22
-1.043855
 32
0.0
 13
2.975708
 23
-1.043855
 33
0.0
  0
TEXT
  5
516
100
AcDbEntity
  8
0
370
    13
390
0
 62
     7
 48
0.03937
100
AcDbText
 10
2.775873
 20
-0.644475
 30
0.0
 40
0.101451
  1
1.31
 72
     5
 11
3.032432
 21
-0.644475
 31
0.0
100
AcDbText
  0
TEXT
  5
517
100
AcDbEntity
  8
0
370
    13
390
0
 62
     7
 48
0.03937
100
AcDbText
 10
3.032432
 20
-0.644475
 30
0.0
 40
0.101451
  1
"
 72
     5
 11
3.106829
 21
-0.644475
 31
0.0
100
AcDbText
  0
LINE
  5
518
100
AcDbEntity
  8
0
370
    13
390
0
 62
     7
 48
0.03937
100
AcDbLine
 10
2.20616
 20
-1.25
 30
0.0
 11
3.022511
 21
-1.25
 31
0.0
210
0.0
220
0.0
230
1.0
  0
LINE
  5
519
100
AcDbEntity
  8
0
370
    13
390
0
 62
     7
 48
0.03937
100
AcDbLine
 10
1.08116
 20
0.0625
 30
0.0
 11
3.022511
 21
0.0625
 31
0.0
210
0.0
220
0.0
230
1.0
  0
LINE
  5
51A
100
AcDbEntity
  8
0
370
    13
390
0
 62
     7
 48
0.007923
100
AcDbLine
 10
2.941351
 20
-1.043855
 30
0.0
 11
2.941351
 21
-0.726934
 31
0.0
210
0.0
220
0.0
230
1.0
  0
LINE
  5
51B
100
AcDbEntity
  8
0
370
    13
390
0
 62
     7
 48
0.007923
100
AcDbLine
 10
2.941351
 20
-0.460566
 30
0.0
 11
2.941351
 21
-0.143645
 31
0.0
210
0.0
220
0.0
230
1.0
  0
POLYLINE
  5
51C
100
AcDbEntity
  8
0
370
    13
390
0
 62
     7
 48
0.03937
100
AcDb2dPolyline
 66
     1
 10
0.0
 20
0.0
 30
0.0
 70
     1
 71
     3
  0
VERTEX
  5
51D
100
AcDbEntity
  8
0
370
     0
390
0
100
AcDbVertex
100
AcDb2dVertex
 10
2.975708
 20
-0.143645
 30
0.0
  0
VERTEX
  5
51E
100
AcDbEntity
  8
0
370
     0
390
0
100
AcDbVertex
100
AcDb2dVertex
 10
2.941351
 20
0.0625
 30
0.0
  0
VERTEX
  5
51F
100
AcDbEntity
  8
0
370
     0
390
0
100
AcDbVertex
100
AcDb2dVertex
 10
2.906993
 20
-0.143645
 30
0.0
  0
SEQEND
  5
520
100
AcDbEntity
  8
0
370
     0
390
0
  0
POLYLINE
  5
521
100
AcDbEntity
  8
0
370
    13
390
0
 62
     7
 48
0.03937
100
AcDb2dPolyline
 66
     1
 10
0.0
 20
0.0
 30
0.0
 70
     1
 71
     3
  0
VERTEX
  5
522
100
AcDbEntity
  8
0
370
     0
390
0
100
AcDbVertex
100
AcDb2dVertex
 10
2.906993
 20
-1.043855
 30
0.0
  0
VERTEX
  5
523
100
AcDbEntity
  8
0
370
     0
390
0
100
AcDbVertex
100
AcDb2dVertex
 10
2.941351
 20
-1.25
 30
0.0
  0
VERTEX
  5
524
100
AcDbEntity
  8
0
370
     0
390
0
100
AcDbVertex
100
AcDb2dVertex
 10
2.975708
 20
-1.043855
 30
0.0
  0
SEQEND
  5
525
100
AcDbEntity
  8
0
370
     0
390
0
  0
ENDBLK
  5
526
100
AcDbEntity
  8
0
390
0
100
AcDbBlockEnd
  0
BLOCK
  5
527
100
AcDbEntity
  8
0
370
     0
390
0
100
AcDbBlockBegin
  2
BLOCK15
 70
     0
 10
0.0
 20
0.0
 30
0.0
  3
BLOCK15
  1

  0
SOLID
  5
528
100
AcDbEntity
  8
0
370
    13
390
0
 62
     7
 48
0.03937
100
AcDbTrace
 10
2.481534
 20
0.268645
 30
0.0
 11
2.515891
 21
0.0625
 31
0.0
 12
2.481534
 22
0.268645
 32
0.0
 13
2.550249
 23
0.268645
 33
0.0
  0
SOLID
  5
529
100
AcDbEntity
  8
0
370
    13
390
0
 62
     7
 48
0.03937
100
AcDbTrace
 10
2.550249
 20
-0.206145
 30
0.0
 11
2.515891
 21
0.0
 31
0.0
 12
2.550249
 22
-0.206145
 32
0.0
 13
2.481534
 23
-0.206145
 33
0.0
  0
TEXT
  5
52A
100
AcDbEntity
  8
0
370
    13
390
0
 62
     7
 48
0.03937
100
AcDbText
 10
2.773576
 20
0.381167
 30
0.0
 40
0.101451
  1
0.06
 72
     5
 11
3.030134
 21
0.381167
 31
0.0
100
AcDbText
  0
TEXT
  5
52B
100
AcDbEntity
  8
0
370
    13
390
0
 62
     7
 48
0.03937
100
AcDbText
 10
3.030134
 20
0.381167
 30
0.0
 40
0.101451
  1
"
 72
     5
 11
3.104531
 21
0.381167
 31
0.0
100
AcDbText
  0
LINE
  5
52C
100
AcDbEntity
  8
0
370
    13
390
0
 62
     7
 48
0.004381
100
AcDbLine
 10
2.515891
 20
0.431892
 30
0.0
 11
2.691117
 21
0.431892
 31
0.0
210
0.0
220
0.0
230
1.0
  0
LINE
  5
52D
100
AcDbEntity
  8
0
370
    13
390
0
 62
     7
 48
0.009772
100
AcDbLine
 10
2.20616
 20
0.0
 30
0.0
 11
2.597052
 21
0.0
 31
0.0
210
0.0
220
0.0
230
1.0
  0
LINE
  5
52E
100
AcDbEntity
  8
0
370
    13
390
0
 62
     7
 48
0.03937
100
AcDbLine
 10
1.08116
 20
0.0625
 30
0.0
 11
2.597052
 21
0.0625
 31
0.0
210
0.0
220
0.0
230
1.0
  0
LINE
  5
52F
100
AcDbEntity
  8
0
370
    13
390
0
 62
     7
 48
0.002962
100
AcDbLine
 10
2.515891
 20
-0.324642
 30
0.0
 11
2.515891
 21
-0.206145
 31
0.0
210
0.0
220
0.0
230
1.0
  0
LINE
  5
530
100
AcDbEntity
  8
0
370
    13
390
0
 62
     7
 48
0.004081
100
AcDbLine
 10
2.515891
 20
0.268645
 30
0.0
 11
2.515891
 21
0.431892
 31
0.0
210
0.0
220
0.0
230
1.0
  0
POLYLINE
  5
531
100
AcDbEntity
  8
0
370
    13
390
0
 62
     7
 48
0.03937
100
AcDb2dPolyline
 66
     1
 10
0.0
 20
0.0
 30
0.0
 70
     1
 71
     3
  0
VERTEX
  5
532
100
AcDbEntity
  8
0
370
     0
390
0
100
AcDbVertex
100
AcDb2dVertex
 10
2.481534
 20
0.268645
 30
0.0
  0
VERTEX
  5
533
100
AcDbEntity
  8
0
370
     0
390
0
100
AcDbVertex
100
AcDb2dVertex
 10
2.515891
 20
0.0625
 30
0.0
  0
VERTEX
  5
534
100
AcDbEntity
  8
0
370
     0
390
0
100
AcDbVertex
100
AcDb2dVertex
 10
2.550249
 20
0.268645
 30
0.0
  0
SEQEND
  5
535
100
AcDbEntity
  8
0
370
     0
390
0
  0
POLYLINE
  5
536
100
AcDbEntity
  8
0
370
    13
390
0
 62
     7
 48
0.03937
100
AcDb2dPolyline
 66
     1
 10
0.0
 20
0.0
 30
0.0
 70
     1
 71
     3
  0
VERTEX
  5
537
100
AcDbEntity
  8
0
370
     0
390
0
100
AcDbVertex
100
AcDb2dVertex
 10
2.550249
 20
-0.206145
 30
0.0
  0
VERTEX
  5
538
100
AcDbEntity
  8
0
370
     0
390
0
100
AcDbVertex
100
AcDb2dVertex
 10
2.515891
 20
0.0
 30
0.0
  0
VERTEX
  5
539
100
AcDbEntity
  8
0
370
     0
390
0
100
AcDbVertex
100
AcDb2dVertex
 10
2.481534
 20
-0.206145
 30
0.0
  0
SEQEND
  5
53A
100
AcDbEntity
  8
0
370
     0
390
0
  0
ENDBLK
  5
53B
100
AcDbEntity
  8
0
390
0
100
AcDbBlockEnd
  0
BLOCK
  5
53C
100
AcDbEntity
  8
0
370
     0
390
0
100
AcDbBlockBegin
  2
BLOCK16
 70
     0
 10
0.0
 20
0.0
 30
0.0
  3
BLOCK16
  1

  0
SOLID
  5
53D
100
AcDbEntity
  8
0
370
    13
390
0
 62
     7
 48
0.03937
100
AcDbTrace
 10
0.793855
 20
0.458342
 30
0.0
 11
1.0
 21
0.492699
 31
0.0
 12
0.793855
 22
0.458342
 32
0.0
 13
0.793855
 23
0.527056
 33
0.0
  0
SOLID
  5
53E
100
AcDbEntity
  8
0
370
    13
390
0
 62
     7
 48
0.03937
100
AcDbTrace
 10
-0.793855
 20
0.527056
 30
0.0
 11
-1.0
 21
0.492699
 31
0.0
 12
-0.793855
 22
0.527056
 32
0.0
 13
-0.793855
 23
0.458342
 33
0.0
  0
TEXT
  5
53F
100
AcDbEntity
  8
0
370
    13
390
0
 62
     7
 48
0.03937
100
AcDbText
 10
0.028412
 20
0.441974
 30
0.0
 40
0.101451
  1
2
 72
     5
 11
0.101715
 21
0.441974
 31
0.0
100
AcDbText
  0
TEXT
  5
540
100
AcDbEntity
  8
0
370
    13
390
0
 62
     7
 48
0.03937
100
AcDbText
 10
0.101715
 20
0.441974
 30
0.0
 40
0.101451
  1
"
 72
     5
 11
0.176112
 21
0.441974
 31
0.0
100
AcDbText
  0
TEXT
  5
541
100
AcDbEntity
  8
0
370
    13
390
0
 62
     7
 48
0.03937
100
AcDbText
 10
-0.176112
 20
0.441974
 30
0.0
 40
0.101451
  1
%%c
 72
     5
 11
-0.074661
 21
0.441974
 31
0.0
100
AcDbText
  0
LINE
  5
542
100
AcDbEntity
  8
0
370
    13
390
0
 62
     7
 48
0.010755
100
AcDbLine
 10
-1.0
 20
0.14366
 30
0.0
 11
-1.0
 21
0.573859
 31
0.0
210
0.0
220
0.0
230
1.0
  0
LINE
  5
543
100
AcDbEntity
  8
0
370
    13
390
0
 62
     7
 48
0.010755
100
AcDbLine
 10
1.0
 20
0.14366
 30
0.0
 11
1.0
 21
0.573859
 31
0.0
210
0.0
220
0.0
230
1.0
  0
LINE
  5
544
100
AcDbEntity
  8
0
370
    13
390
0
 62
     7
 48
0.013382
100
AcDbLine
 10
-0.793855
 20
0.492699
 30
0.0
 11
-0.258571
 21
0.492699
 31
0.0
210
0.0
220
0.0
230
1.0
  0
LINE
  5
545
100
AcDbEntity
  8
0
370
    13
390
0
 62
     7
 48
0.013382
100
AcDbLine
 10
0.258571
 20
0.492699
 30
0.0
 11
0.793855
 21
0.492699
 31
0.0
210
0.0
220
0.0
230
1.0
  0
POLYLINE
  5
546
100
AcDbEntity
  8
0
370
    13
390
0
 62
     7
 48
0.03937
100
AcDb2dPolyline
 66
     1
 10
0.0
 20
0.0
 30
0.0
 70
     1
 71
     3
  0
VERTEX
  5
547
100
AcDbEntity
  8
0
370
     0
390
0
100
AcDbVertex
100
AcDb2dVertex
 10
0.793855
 20
0.458342
 30
0.0
  0
VERTEX
  5
548
100
AcDbEntity
  8
0
370
     0
390
0
100
AcDbVertex
100
AcDb2dVertex
 10
1.0
 20
0.492699
 30
0.0
  0
VERTEX
  5
549
100
AcDbEntity
  8
0
370
     0
390
0
100
AcDbVertex
100
AcDb2dVertex
 10
0.793855
 20
0.527056
 30
0.0
  0
SEQEND
  5
54A
100
AcDbEntity
  8
0
370
     0
390
0
  0
POLYLINE
  5
54B
100
AcDbEntity
  8
0
370
    13
390
0
 62
     7
 48
0.03937
100
AcDb2dPolyline
 66
     1
 10
0.0
 20
0.0
 30
0.0
 70
     1
 71
     3
  0
VERTEX
  5
54C
100
AcDbEntity
  8
0
370
     0
390
0
100
AcDbVertex
100
AcDb2dVertex
 10
-0.793855
 20
0.527056
 30
0.0
  0
VERTEX
  5
54D
100
AcDbEntity
  8
0
370
     0
390
0
100
AcDbVertex
100
AcDb2dVertex
 10
-1.0
 20
0.492699
 30
0.0
  0
VERTEX
  5
54E
100
AcDbEntity
  8
0
370
     0
390
0
100
AcDbVertex
100
AcDb2dVertex
 10
-0.793855
 20
0.458342
 30
0.0
  0
SEQEND
  5
54F
100
AcDbEntity
  8
0
370
     0
390
0
  0
ENDBLK
  5
550
100
AcDbEntity
  8
0
390
0
100
AcDbBlockEnd
  0
BLOCK
  5
551
100
AcDbEntity
  8
0
370
     0
390
0
100
AcDbBlockBegin
  2
BLOCK17
 70
     0
 10
0.0
 20
0.0
 30
0.0
  3
BLOCK17
  1

  0
SOLID
  5
552
100
AcDbEntity
  8
0
370
    13
390
0
 62
     7
 48
0.03937
100
AcDbTrace
 10
-0.293855
 20
-1.607013
 30
0.0
 11
-0.5
 21
-1.64137
 31
0.0
 12
-0.293855
 22
-1.607013
 32
0.0
 13
-0.293855
 23
-1.675727
 33
0.0
  0
SOLID
  5
553
100
AcDbEntity
  8
0
370
    13
390
0
 62
     7
 48
0.03937
100
AcDbTrace
 10
0.293855
 20
-1.675727
 30
0.0
 11
0.5
 21
-1.64137
 31
0.0
 12
0.293855
 22
-1.675727
 32
0.0
 13
0.293855
 23
-1.607013
 33
0.0
  0
TEXT
  5
554
100
AcDbEntity
  8
0
370
    13
390
0
 62
     7
 48
0.03937
100
AcDbText
 10
0.028412
 20
-1.692095
 30
0.0
 40
0.101451
  1
1
 72
     5
 11
0.101715
 21
-1.692095
 31
0.0
100
AcDbText
  0
TEXT
  5
555
100
AcDbEntity
  8
0
370
    13
390
0
 62
     7
 48
0.03937
100
AcDbText
 10
0.101715
 20
-1.692095
 30
0.0
 40
0.101451
  1
"
 72
     5
 11
0.176112
 21
-1.692095
 31
0.0
100
AcDbText
  0
TEXT
  5
556
100
AcDbEntity
  8
0
370
    13
390
0
 62
     7
 48
0.03937
100
AcDbText
 10
-0.176112
 20
-1.692095
 30
0.0
 40
0.101451
  1
%%c
 72
     5
 11
-0.074661
 21
-1.692095
 31
0.0
100
AcDbText
  0
LINE
  5
557
100
AcDbEntity
  8
0
370
    13
390
0
 62
     7
 48
0.009784
100
AcDbLine
 10
-0.5
 20
-1.33116
 30
0.0
 11
-0.5
 21
-1.722531
 31
0.0
210
0.0
220
0.0
230
1.0
  0
LINE
  5
558
100
AcDbEntity
  8
0
370
    13
390
0
 62
     7
 48
0.009784
100
AcDbLine
 10
0.5
 20
-1.33116
 30
0.0
 11
0.5
 21
-1.722531
 31
0.0
210
0.0
220
0.0
230
1.0
  0
LINE
  5
559
100
AcDbEntity
  8
0
370
    13
390
0
 62
     7
 48
0.000882
100
AcDbLine
 10
-0.293855
 20
-1.64137
 30
0.0
 11
-0.258571
 21
-1.64137
 31
0.0
210
0.0
220
0.0
230
1.0
  0
LINE
  5
55A
100
AcDbEntity
  8
0
370
    13
390
0
 62
     7
 48
0.000882
100
AcDbLine
 10
0.258571
 20
-1.64137
 30
0.0
 11
0.293855
 21
-1.64137
 31
0.0
210
0.0
220
0.0
230
1.0
  0
POLYLINE
  5
55B
100
AcDbEntity
  8
0
370
    13
390
0
 62
     7
 48
0.03937
100
AcDb2dPolyline
 66
     1
 10
0.0
 20
0.0
 30
0.0
 70
     1
 71
     3
  0
VERTEX
  5
55C
100
AcDbEntity
  8
0
370
     0
390
0
100
AcDbVertex
100
AcDb2dVertex
 10
-0.293855
 20
-1.607013
 30
0.0
  0
VERTEX
  5
55D
100
AcDbEntity
  8
0
370
     0
390
0
100
AcDbVertex
100
AcDb2dVertex
 10
-0.5
 20
-1.64137
 30
0.0
  0
VERTEX
  5
55E
100
AcDbEntity
  8
0
370
     0
390
0
100
AcDbVertex
100
AcDb2dVertex
 10
-0.293855
 20
-1.675727
 30
0.0
  0
SEQEND
  5
55F
100
AcDbEntity
  8
0
370
     0
390
0
  0
POLYLINE
  5
560
100
AcDbEntity
  8
0
370
    13
390
0
 62
     7
 48
0.03937
100
AcDb2dPolyline
 66
     1
 10
0.0
 20
0.0
 30
0.0
 70
     1
 71
     3
  0
VERTEX
  5
561
100
AcDbEntity
  8
0
370
     0
390
0
100
AcDbVertex
100
AcDb2dVertex
 10
0.293855
 20
-1.675727
 30
0.0
  0
VERTEX
  5
562
100
AcDbEntity
  8
0
370
     0
390
0
100
AcDbVertex
100
AcDb2dVertex
 10
0.5
 20
-1.64137
 30
0.0
  0
VERTEX
  5
563
100
AcDbEntity
  8
0
370
     0
390
0
100
AcDbVertex
100
AcDb2dVertex
 10
0.293855
 20
-1.607013
 30
0.0
  0
SEQEND
  5
564
100
AcDbEntity
  8
0
370
     0
390
0
  0
ENDBLK
  5
565
100
AcDbEntity
  8
0
390
0
100
AcDbBlockEnd
  0
BLOCK
  5
566
100
AcDbEntity
  8
0
370
     0
390
0
100
AcDbBlockBegin
  2
BLOCK18
 70
     0
 10
0.0
 20
0.0
 30
0.0
  3
BLOCK18
  1

  0
LINE
  5
567
100
AcDbEntity
  8
0
370
     5
390
0
 62
     7
 48
0.03937
100
AcDbLine
 10
-0.5
 20
-1.25
 30
0.0
 11
-0.5
 21
0.0625
 31
0.0
210
0.0
220
0.0
230
1.0
  0
LINE
  5
568
100
AcDbEntity
  8
0
370
     5
390
0
 62
     7
 48
0.0125
100
AcDbLine
 10
-0.5
 20
0.0625
 30
0.0
 11
-1.0
 21
0.0625
 31
0.0
210
0.0
220
0.0
230
1.0
  0
LINE
  5
569
100
AcDbEntity
  8
0
370
     5
390
0
 62
     7
 48
0.001562
100
AcDbLine
 10
-1.0
 20
0.0625
 30
0.0
 11
-1.0
 21
0.0
 31
0.0
210
0.0
220
0.0
230
1.0
  0
LINE
  5
56A
100
AcDbEntity
  8
0
370
     5
390
0
 62
     7
 48
0.03937
100
AcDbLine
 10
-1.0
 20
0.0
 30
0.0
 11
-2.125
 21
0.0
 31
0.0
210
0.0
220
0.0
230
1.0
  0
LINE
  5
56B
100
AcDbEntity
  8
0
370
     5
390
0
 62
     7
 48
0.03937
100
AcDbLine
 10
-2.125
 20
0.0
 30
0.0
 11
-2.125
 21
-1.25
 31
0.0
210
0.0
220
0.0
230
1.0
  0
LINE
  5
56C
100
AcDbEntity
  8
0
370
     5
390
0
 62
     7
 48
0.03937
100
AcDbLine
 10
-2.125
 20
-1.25
 30
0.0
 11
-0.5
 21
-1.25
 31
0.0
210
0.0
220
0.0
230
1.0
  0
ENDBLK
  5
56D
100
AcDbEntity
  8
0
390
0
100
AcDbBlockEnd
  0
BLOCK
  5
56E
100
AcDbEntity
  8
0
370
     0
390
0
100
AcDbBlockBegin
  2
BLOCK19
 70
     0
 10
0.0
 20
0.0
 30
0.0
  3
BLOCK19
  1

  0
LINE
  5
56F
100
AcDbEntity
  8
0
370
     5
390
0
 62
     7
 48
0.03937
100
AcDbLine
 10
0.5
 20
-1.25
 30
0.0
 11
2.125
 21
-1.25
 31
0.0
210
0.0
220
0.0
230
1.0
  0
LINE
  5
570
100
AcDbEntity
  8
0
370
     5
390
0
 62
     7
 48
0.03937
100
AcDbLine
 10
2.125
 20
-1.25
 30
0.0
 11
2.125
 21
0.0
 31
0.0
210
0.0
220
0.0
230
1.0
  0
LINE
  5
571
100
AcDbEntity
  8
0
370
     5
390
0
 62
     7
 48
0.03937
100
AcDbLine
 10
2.125
 20
0.0
 30
0.0
 11
1.0
 21
0.0
 31
0.0
210
0.0
220
0.0
230
1.0
  0
LINE
  5
572
100
AcDbEntity
  8
0
370
     5
390
0
 62
     7
 48
0.001562
100
AcDbLine
 10
1.0
 20
0.0
 30
0.0
 11
1.0
 21
0.0625
 31
0.0
210
0.0
220
0.0
230
1.0
  0
LINE
  5
573
100
AcDbEntity
  8
0
370
     5
390
0
 62
     7
 48
0.0125
100
AcDbLine
 10
1.0
 20
0.0625
 30
0.0
 11
0.5
 21
0.0625
 31
0.0
210
0.0
220
0.0
230
1.0
  0
LINE
  5
574
100
AcDbEntity
  8
0
370
     5
390
0
 62
     7
 48
0.03937
100
AcDbLine
 10
0.5
 20
0.0625
 30
0.0
 11
0.5
 21
-1.25
 31
0.0
210
0.0
220
0.0
230
1.0
  0
ENDBLK
  5
575
100
AcDbEntity
  8
0
390
0
100
AcDbBlockEnd
  0
ENDSEC
  0
SECTION
  2
ENTITIES
  0
VIEWPORT
  5
3B2
100
AcDbEntity
 67
     1
  8
0
370
     0
390
0
 62
     0
 48
0.0
100
AcDbViewport
 10
0.0
 20
0.0
 30
0.0
 40
1000.0
 41
1000.0
 68
     1
 69
     1
 12
0.0
 22
0.0
 13
0.0
 23
0.0
 14
1.0
 24
1.0
 15
1.0
 25
1.0
 16
0.0
 26
0.0
 36
1.0
 17
0.0
 27
0.0
 37
0.0
 42
50.0
 43
0.0
 44
0.0
 45
1000.0
 50
0.0
 51
0.0
 72
   100
 90
        0
340
0
  1

281
     0
 71
     0
 74
     1
110
0.0
120
0.0
130
0.0
111
1.0
121
0.0
131
0.0
112
0.0
122
1.0
132
0.0
345
0
346
0
 79
     0
146
0.0
  0
TEXT
  5
27
100
AcDbEntity
  8
0
370
    13
390
0
 62
     7
 48
0.03937
100
AcDbText
 10
8.263597
 20
0.855562
 30
0.0
 40
0.098425
  1
150-FB-RF-STUDOUT-FLANGE
 72
     5
 11
10.422916
 21
0.855562
 31
0.0
100
AcDbText
  0
TEXT
  5
28
100
AcDbEntity
  8
0
370
    13
390
0
 62
     7
 48
0.03937
100
AcDbText
 10
7.774762
 20
1.08216
 30
0.0
 40
0.06
  1
SIZE:
 72
     5
 11
8.064134
 21
1.08216
 31
0.0
100
AcDbText
  0
TEXT
  5
29
100
AcDbEntity
  8
0
370
    13
390
0
 62
     7
 48
0.03937
100
AcDbText
 10
7.774762
 20
0.894218
 30
0.0
 40
0.06
  1
TYPE:
 72
     5
 11
8.064134
 21
0.894218
 31
0.0
100
AcDbText
  0
POINT
  5
2A
100
AcDbEntity
  8
0
370
     5
390
0
 62
     7
 48
0.03937
100
AcDbPoint
 10
0.0
 20
0.0
 30
0.0
210
0.0
220
0.0
230
1.0
  0
POINT
  5
2B
100
AcDbEntity
  8
0
370
     5
390
0
 62
     7
 48
0.03937
100
AcDbPoint
 10
8.029755
 20
0.53125
 30
0.0
210
0.0
220
0.0
230
1.0
  0
LINE
  5
2C
100
AcDbEntity
  8
1
370
    35
390
0
 62
     7
 48
0.000032
100
AcDbLine
 10
9.035676
 20
0.778761
 30
0.0
 11
9.036922
 21
0.778449
 31
0.0
210
0.0
220
0.0
230
1.0
  0
LINE
  5
2D
100
AcDbEntity
  8
1
370
    35
390
0
 62
     7
 48
0.03937
100
AcDbLine
 10
0.25
 20
0.25
 30
0.0
 11
0.25
 21
8.25
 31
0.0
210
0.0
220
0.0
230
1.0
  0
LINE
  5
2E
100
AcDbEntity
  8
1
370
    35
390
0
 62
     7
 48
0.03937
100
AcDbLine
 10
7.75
 20
1.1875
 30
0.0
 11
10.75
 21
1.1875
 31
0.0
210
0.0
220
0.0
230
1.0
  0
LINE
  5
2F
100
AcDbEntity
  8
1
370
    35
390
0
 62
     7
 48
0.03937
100
AcDbLine
 10
7.75
 20
1.0
 30
0.0
 11
10.75
 21
1.0
 31
0.0
210
0.0
220
0.0
230
1.0
  0
LINE
  5
30
100
AcDbEntity
  8
1
370
    35
390
0
 62
     7
 48
0.03937
100
AcDbLine
 10
0.25
 20
8.25
 30
0.0
 11
10.75
 21
8.25
 31
0.0
210
0.0
220
0.0
230
1.0
  0
LINE
  5
31
100
AcDbEntity
  8
1
370
    35
390
0
 62
     7
 48
0.03937
100
AcDbLine
 10
7.75
 20
0.8125
 30
0.0
 11
10.75
 21
0.8125
 31
0.0
210
0.0
220
0.0
230
1.0
  0
LINE
  5
32
100
AcDbEntity
  8
1
370
    35
390
0
 62
     7
 48
0.03937
100
AcDbLine
 10
0.25
 20
0.25
 30
0.0
 11
10.75
 21
0.25
 31
0.0
210
0.0
220
0.0
230
1.0
  0
LINE
  5
33
100
AcDbEntity
  8
1
370
    35
390
0
 62
     7
 48
0.03937
100
AcDbLine
 10
10.75
 20
8.25
 30
0.0
 11
10.75
 21
0.25
 31
0.0
210
0.0
220
0.0
230
1.0
  0
LINE
  5
34
100
AcDbEntity
  8
1
370
    35
390
0
 62
     7
 48
0.03937
100
AcDbLine
 10
7.75
 20
1.1875
 30
0.0
 11
7.75
 21
0.25
 31
0.0
210
0.0
220
0.0
230
1.0
  0
CIRCLE
  5
35
100
AcDbEntity
  8
0
370
    70
390
0
 62
     7
 48
0.03937
100
AcDbCircle
 10
8.029755
 20
0.53125
 30
0.0
 40
0.2475
210
0.0
220
0.0
230
1.0
  0
CIRCLE
  5
36
100
AcDbEntity
  8
0
370
    70
390
0
 62
     7
 48
0.03937
100
AcDbCircle
 10
8.029755
 20
0.53125
 30
0.0
 40
0.195
210
0.0
220
0.0
230
1.0
  0
CIRCLE
  5
37
100
AcDbEntity
  8
0
370
    35
390
0
 62
     7
 48
0.03937
100
AcDbCircle
 10
8.029755
 20
0.7525
 30
0.0
 40
0.015
210
0.0
220
0.0
230
1.0
  0
CIRCLE
  5
38
100
AcDbEntity
  8
0
370
    35
390
0
 62
     7
 48
0.03937
100
AcDbCircle
 10
8.251005
 20
0.53125
 30
0.0
 40
0.015
210
0.0
220
0.0
230
1.0
  0
CIRCLE
  5
39
100
AcDbEntity
  8
0
370
    35
390
0
 62
     7
 48
0.03937
100
AcDbCircle
 10
8.186202
 20
0.687697
 30
0.0
 40
0.015
210
0.0
220
0.0
230
1.0
  0
CIRCLE
  5
3A
100
AcDbEntity
  8
0
370
    35
390
0
 62
     7
 48
0.03937
100
AcDbCircle
 10
8.029755
 20
0.31
 30
0.0
 40
0.015
210
0.0
220
0.0
230
1.0
  0
CIRCLE
  5
3B
100
AcDbEntity
  8
0
370
    35
390
0
 62
     7
 48
0.03937
100
AcDbCircle
 10
8.186202
 20
0.374803
 30
0.0
 40
0.015
210
0.0
220
0.0
230
1.0
  0
CIRCLE
  5
3C
100
AcDbEntity
  8
0
370
    35
390
0
 62
     7
 48
0.03937
100
AcDbCircle
 10
7.808505
 20
0.53125
 30
0.0
 40
0.015
210
0.0
220
0.0
230
1.0
  0
CIRCLE
  5
3D
100
AcDbEntity
  8
0
370
    35
390
0
 62
     7
 48
0.03937
100
AcDbCircle
 10
7.873308
 20
0.687697
 30
0.0
 40
0.015
210
0.0
220
0.0
230
1.0
  0
CIRCLE
  5
3E
100
AcDbEntity
  8
0
370
    35
390
0
 62
     7
 48
0.03937
100
AcDbCircle
 10
7.873308
 20
0.374803
 30
0.0
 40
0.015
210
0.0
220
0.0
230
1.0
  0
POLYLINE
  5
3F
100
AcDbEntity
  8
0
370
    13
390
0
 62
     7
 48
0.03937
100
AcDb2dPolyline
 66
     1
 10
0.0
 20
0.0
 30
0.0
 70
     1
 71
   118
  0
VERTEX
  5
40
100
AcDbEntity
  8
0
370
     0
390
0
100
AcDbVertex
100
AcDb2dVertex
 10
8.029831
 20
0.605292
 30
0.0
  0
VERTEX
  5
41
100
AcDbEntity
  8
0
370
     0
390
0
100
AcDbVertex
100
AcDb2dVertex
 10
8.029019
 20
0.60375
 30
0.0
  0
VERTEX
  5
42
100
AcDbEntity
  8
0
370
     0
390
0
100
AcDbVertex
100
AcDb2dVertex
 10
8.021177
 20
0.589826
 30
0.0
  0
VERTEX
  5
43
100
AcDbEntity
  8
0
370
     0
390
0
100
AcDbVertex
100
AcDb2dVertex
 10
8.020426
 20
0.588405
 30
0.0
  0
VERTEX
  5
44
100
AcDbEntity
  8
0
370
     0
390
0
100
AcDbVertex
100
AcDb2dVertex
 10
8.019684
 20
0.586917
 30
0.0
  0
VERTEX
  5
45
100
AcDbEntity
  8
0
370
     0
390
0
100
AcDbVertex
100
AcDb2dVertex
 10
8.018954
 20
0.58536
 30
0.0
  0
VERTEX
  5
46
100
AcDbEntity
  8
0
370
     0
390
0
100
AcDbVertex
100
AcDb2dVertex
 10
8.018235
 20
0.583734
 30
0.0
  0
VERTEX
  5
47
100
AcDbEntity
  8
0
370
     0
390
0
100
AcDbVertex
100
AcDb2dVertex
 10
8.017528
 20
0.582038
 30
0.0
  0
VERTEX
  5
48
100
AcDbEntity
  8
0
370
     0
390
0
100
AcDbVertex
100
AcDb2dVertex
 10
8.01683
 20
0.580272
 30
0.0
  0
VERTEX
  5
49
100
AcDbEntity
  8
0
370
     0
390
0
100
AcDbVertex
100
AcDb2dVertex
 10
8.016143
 20
0.578438
 30
0.0
  0
VERTEX
  5
4A
100
AcDbEntity
  8
0
370
     0
390
0
100
AcDbVertex
100
AcDb2dVertex
 10
8.015467
 20
0.576534
 30
0.0
  0
VERTEX
  5
4B
100
AcDbEntity
  8
0
370
     0
390
0
100
AcDbVertex
100
AcDb2dVertex
 10
8.014802
 20
0.574562
 30
0.0
  0
VERTEX
  5
4C
100
AcDbEntity
  8
0
370
     0
390
0
100
AcDbVertex
100
AcDb2dVertex
 10
8.014147
 20
0.572519
 30
0.0
  0
VERTEX
  5
4D
100
AcDbEntity
  8
0
370
     0
390
0
100
AcDbVertex
100
AcDb2dVertex
 10
8.012525
 20
0.574142
 30
0.0
  0
VERTEX
  5
4E
100
AcDbEntity
  8
0
370
     0
390
0
100
AcDbVertex
100
AcDb2dVertex
 10
8.011871
 20
0.576531
 30
0.0
  0
VERTEX
  5
4F
100
AcDbEntity
  8
0
370
     0
390
0
100
AcDbVertex
100
AcDb2dVertex
 10
8.011163
 20
0.578771
 30
0.0
  0
VERTEX
  5
50
100
AcDbEntity
  8
0
370
     0
390
0
100
AcDbVertex
100
AcDb2dVertex
 10
8.010404
 20
0.580859
 30
0.0
  0
VERTEX
  5
51
100
AcDbEntity
  8
0
370
     0
390
0
100
AcDbVertex
100
AcDb2dVertex
 10
8.009591
 20
0.582795
 30
0.0
  0
VERTEX
  5
52
100
AcDbEntity
  8
0
370
     0
390
0
100
AcDbVertex
100
AcDb2dVertex
 10
8.008726
 20
0.584579
 30
0.0
  0
VERTEX
  5
53
100
AcDbEntity
  8
0
370
     0
390
0
100
AcDbVertex
100
AcDb2dVertex
 10
8.007806
 20
0.586212
 30
0.0
  0
VERTEX
  5
54
100
AcDbEntity
  8
0
370
     0
390
0
100
AcDbVertex
100
AcDb2dVertex
 10
8.006836
 20
0.587694
 30
0.0
  0
VERTEX
  5
55
100
AcDbEntity
  8
0
370
     0
390
0
100
AcDbVertex
100
AcDb2dVertex
 10
8.00581
 20
0.589025
 30
0.0
  0
VERTEX
  5
56
100
AcDbEntity
  8
0
370
     0
390
0
100
AcDbVertex
100
AcDb2dVertex
 10
8.004733
 20
0.590204
 30
0.0
  0
VERTEX
  5
57
100
AcDbEntity
  8
0
370
     0
390
0
100
AcDbVertex
100
AcDb2dVertex
 10
8.003601
 20
0.591231
 30
0.0
  0
VERTEX
  5
58
100
AcDbEntity
  8
0
370
     0
390
0
100
AcDbVertex
100
AcDb2dVertex
 10
8.002384
 20
0.592136
 30
0.0
  0
VERTEX
  5
59
100
AcDbEntity
  8
0
370
     0
390
0
100
AcDbVertex
100
AcDb2dVertex
 10
8.001043
 20
0.592944
 30
0.0
  0
VERTEX
  5
5A
100
AcDbEntity
  8
0
370
     0
390
0
100
AcDbVertex
100
AcDb2dVertex
 10
7.99958
 20
0.593658
 30
0.0
  0
VERTEX
  5
5B
100
AcDbEntity
  8
0
370
     0
390
0
100
AcDbVertex
100
AcDb2dVertex
 10
7.997995
 20
0.594276
 30
0.0
  0
VERTEX
  5
5C
100
AcDbEntity
  8
0
370
     0
390
0
100
AcDbVertex
100
AcDb2dVertex
 10
7.996287
 20
0.5948
 30
0.0
  0
VERTEX
  5
5D
100
AcDbEntity
  8
0
370
     0
390
0
100
AcDbVertex
100
AcDb2dVertex
 10
7.994457
 20
0.595229
 30
0.0
  0
VERTEX
  5
5E
100
AcDbEntity
  8
0
370
     0
390
0
100
AcDbVertex
100
AcDb2dVertex
 10
7.992506
 20
0.595562
 30
0.0
  0
VERTEX
  5
5F
100
AcDbEntity
  8
0
370
     0
390
0
100
AcDbVertex
100
AcDb2dVertex
 10
7.990431
 20
0.595799
 30
0.0
  0
VERTEX
  5
60
100
AcDbEntity
  8
0
370
     0
390
0
100
AcDbVertex
100
AcDb2dVertex
 10
7.988236
 20
0.595943
 30
0.0
  0
VERTEX
  5
61
100
AcDbEntity
  8
0
370
     0
390
0
100
AcDbVertex
100
AcDb2dVertex
 10
7.985918
 20
0.595991
 30
0.0
  0
VERTEX
  5
62
100
AcDbEntity
  8
0
370
     0
390
0
100
AcDbVertex
100
AcDb2dVertex
 10
7.983971
 20
0.595973
 30
0.0
  0
VERTEX
  5
63
100
AcDbEntity
  8
0
370
     0
390
0
100
AcDbVertex
100
AcDb2dVertex
 10
7.982024
 20
0.59592
 30
0.0
  0
VERTEX
  5
64
100
AcDbEntity
  8
0
370
     0
390
0
100
AcDbVertex
100
AcDb2dVertex
 10
7.980077
 20
0.595835
 30
0.0
  0
VERTEX
  5
65
100
AcDbEntity
  8
0
370
     0
390
0
100
AcDbVertex
100
AcDb2dVertex
 10
7.97813
 20
0.595713
 30
0.0
  0
VERTEX
  5
66
100
AcDbEntity
  8
0
370
     0
390
0
100
AcDbVertex
100
AcDb2dVertex
 10
7.976183
 20
0.595557
 30
0.0
  0
VERTEX
  5
67
100
AcDbEntity
  8
0
370
     0
390
0
100
AcDbVertex
100
AcDb2dVertex
 10
7.974885
 20
0.478313
 30
0.0
  0
VERTEX
  5
68
100
AcDbEntity
  8
0
370
     0
390
0
100
AcDbVertex
100
AcDb2dVertex
 10
7.987647
 20
0.466523
 30
0.0
  0
VERTEX
  5
69
100
AcDbEntity
  8
0
370
     0
390
0
100
AcDbVertex
100
AcDb2dVertex
 10
7.93822
 20
0.466523
 30
0.0
  0
VERTEX
  5
6A
100
AcDbEntity
  8
0
370
     0
390
0
100
AcDbVertex
100
AcDb2dVertex
 10
7.953361
 20
0.479178
 30
0.0
  0
VERTEX
  5
6B
100
AcDbEntity
  8
0
370
     0
390
0
100
AcDbVertex
100
AcDb2dVertex
 10
7.953361
 20
0.586796
 30
0.0
  0
VERTEX
  5
6C
100
AcDbEntity
  8
0
370
     0
390
0
100
AcDbVertex
100
AcDb2dVertex
 10
7.945682
 20
0.586905
 30
0.0
  0
VERTEX
  5
6D
100
AcDbEntity
  8
0
370
     0
390
0
100
AcDbVertex
100
AcDb2dVertex
 10
7.943519
 20
0.58686
 30
0.0
  0
VERTEX
  5
6E
100
AcDbEntity
  8
0
370
     0
390
0
100
AcDbVertex
100
AcDb2dVertex
 10
7.941484
 20
0.58673
 30
0.0
  0
VERTEX
  5
6F
100
AcDbEntity
  8
0
370
     0
390
0
100
AcDbVertex
100
AcDb2dVertex
 10
7.939577
 20
0.586511
 30
0.0
  0
VERTEX
  5
70
100
AcDbEntity
  8
0
370
     0
390
0
100
AcDbVertex
100
AcDb2dVertex
 10
7.937799
 20
0.586203
 30
0.0
  0
VERTEX
  5
71
100
AcDbEntity
  8
0
370
     0
390
0
100
AcDbVertex
100
AcDb2dVertex
 10
7.936151
 20
0.585809
 30
0.0
  0
VERTEX
  5
72
100
AcDbEntity
  8
0
370
     0
390
0
100
AcDbVertex
100
AcDb2dVertex
 10
7.93463
 20
0.585327
 30
0.0
  0
VERTEX
  5
73
100
AcDbEntity
  8
0
370
     0
390
0
100
AcDbVertex
100
AcDb2dVertex
 10
7.93324
 20
0.584759
 30
0.0
  0
VERTEX
  5
74
100
AcDbEntity
  8
0
370
     0
390
0
100
AcDbVertex
100
AcDb2dVertex
 10
7.930843
 20
0.583356
 30
0.0
  0
VERTEX
  5
75
100
AcDbEntity
  8
0
370
     0
390
0
100
AcDbVertex
100
AcDb2dVertex
 10
7.928935
 20
0.581582
 30
0.0
  0
VERTEX
  5
76
100
AcDbEntity
  8
0
370
     0
390
0
100
AcDbVertex
100
AcDb2dVertex
 10
7.92736
 20
0.579297
 30
0.0
  0
VERTEX
  5
77
100
AcDbEntity
  8
0
370
     0
390
0
100
AcDbVertex
100
AcDb2dVertex
 10
7.926092
 20
0.57648
 30
0.0
  0
VERTEX
  5
78
100
AcDbEntity
  8
0
370
     0
390
0
100
AcDbVertex
100
AcDb2dVertex
 10
7.925573
 20
0.574872
 30
0.0
  0
VERTEX
  5
79
100
AcDbEntity
  8
0
370
     0
390
0
100
AcDbVertex
100
AcDb2dVertex
 10
7.92513
 20
0.573132
 30
0.0
  0
VERTEX
  5
7A
100
AcDbEntity
  8
0
370
     0
390
0
100
AcDbVertex
100
AcDb2dVertex
 10
7.924766
 20
0.571259
 30
0.0
  0
VERTEX
  5
7B
100
AcDbEntity
  8
0
370
     0
390
0
100
AcDbVertex
100
AcDb2dVertex
 10
7.924478
 20
0.569252
 30
0.0
  0
VERTEX
  5
7C
100
AcDbEntity
  8
0
370
     0
390
0
100
AcDbVertex
100
AcDb2dVertex
 10
7.924266
 20
0.567111
 30
0.0
  0
VERTEX
  5
7D
100
AcDbEntity
  8
0
370
     0
390
0
100
AcDbVertex
100
AcDb2dVertex
 10
7.921454
 20
0.567111
 30
0.0
  0
VERTEX
  5
7E
100
AcDbEntity
  8
0
370
     0
390
0
100
AcDbVertex
100
AcDb2dVertex
 10
7.921734
 20
0.569565
 30
0.0
  0
VERTEX
  5
7F
100
AcDbEntity
  8
0
370
     0
390
0
100
AcDbVertex
100
AcDb2dVertex
 10
7.922096
 20
0.571866
 30
0.0
  0
VERTEX
  5
80
100
AcDbEntity
  8
0
370
     0
390
0
100
AcDbVertex
100
AcDb2dVertex
 10
7.922543
 20
0.574013
 30
0.0
  0
VERTEX
  5
81
100
AcDbEntity
  8
0
370
     0
390
0
100
AcDbVertex
100
AcDb2dVertex
 10
7.923073
 20
0.576006
 30
0.0
  0
VERTEX
  5
82
100
AcDbEntity
  8
0
370
     0
390
0
100
AcDbVertex
100
AcDb2dVertex
 10
7.923684
 20
0.577847
 30
0.0
  0
VERTEX
  5
83
100
AcDbEntity
  8
0
370
     0
390
0
100
AcDbVertex
100
AcDb2dVertex
 10
7.924381
 20
0.579533
 30
0.0
  0
VERTEX
  5
84
100
AcDbEntity
  8
0
370
     0
390
0
100
AcDbVertex
100
AcDb2dVertex
 10
7.92516
 20
0.581064
 30
0.0
  0
VERTEX
  5
85
100
AcDbEntity
  8
0
370
     0
390
0
100
AcDbVertex
100
AcDb2dVertex
 10
7.926023
 20
0.582444
 30
0.0
  0
VERTEX
  5
86
100
AcDbEntity
  8
0
370
     0
390
0
100
AcDbVertex
100
AcDb2dVertex
 10
7.926968
 20
0.58367
 30
0.0
  0
VERTEX
  5
87
100
AcDbEntity
  8
0
370
     0
390
0
100
AcDbVertex
100
AcDb2dVertex
 10
7.929138
 20
0.585687
 30
0.0
  0
VERTEX
  5
88
100
AcDbEntity
  8
0
370
     0
390
0
100
AcDbVertex
100
AcDb2dVertex
 10
7.930418
 20
0.586532
 30
0.0
  0
VERTEX
  5
89
100
AcDbEntity
  8
0
370
     0
390
0
100
AcDbVertex
100
AcDb2dVertex
 10
7.931839
 20
0.587279
 30
0.0
  0
VERTEX
  5
8A
100
AcDbEntity
  8
0
370
     0
390
0
100
AcDbVertex
100
AcDb2dVertex
 10
7.933397
 20
0.587925
 30
0.0
  0
VERTEX
  5
8B
100
AcDbEntity
  8
0
370
     0
390
0
100
AcDbVertex
100
AcDb2dVertex
 10
7.935095
 20
0.588473
 30
0.0
  0
VERTEX
  5
8C
100
AcDbEntity
  8
0
370
     0
390
0
100
AcDbVertex
100
AcDb2dVertex
 10
7.936934
 20
0.588921
 30
0.0
  0
VERTEX
  5
8D
100
AcDbEntity
  8
0
370
     0
390
0
100
AcDbVertex
100
AcDb2dVertex
 10
7.938912
 20
0.589269
 30
0.0
  0
VERTEX
  5
8E
100
AcDbEntity
  8
0
370
     0
390
0
100
AcDbVertex
100
AcDb2dVertex
 10
7.941029
 20
0.589518
 30
0.0
  0
VERTEX
  5
8F
100
AcDbEntity
  8
0
370
     0
390
0
100
AcDbVertex
100
AcDb2dVertex
 10
7.943286
 20
0.589667
 30
0.0
  0
VERTEX
  5
90
100
AcDbEntity
  8
0
370
     0
390
0
100
AcDbVertex
100
AcDb2dVertex
 10
7.945682
 20
0.589716
 30
0.0
  0
VERTEX
  5
91
100
AcDbEntity
  8
0
370
     0
390
0
100
AcDbVertex
100
AcDb2dVertex
 10
7.952171
 20
0.589608
 30
0.0
  0
VERTEX
  5
92
100
AcDbEntity
  8
0
370
     0
390
0
100
AcDbVertex
100
AcDb2dVertex
 10
7.953361
 20
0.594908
 30
0.0
  0
VERTEX
  5
93
100
AcDbEntity
  8
0
370
     0
390
0
100
AcDbVertex
100
AcDb2dVertex
 10
7.951177
 20
0.595142
 30
0.0
  0
VERTEX
  5
94
100
AcDbEntity
  8
0
370
     0
390
0
100
AcDbVertex
100
AcDb2dVertex
 10
7.949034
 20
0.595323
 30
0.0
  0
VERTEX
  5
95
100
AcDbEntity
  8
0
370
     0
390
0
100
AcDbVertex
100
AcDb2dVertex
 10
7.946936
 20
0.595454
 30
0.0
  0
VERTEX
  5
96
100
AcDbEntity
  8
0
370
     0
390
0
100
AcDbVertex
100
AcDb2dVertex
 10
7.944881
 20
0.595532
 30
0.0
  0
VERTEX
  5
97
100
AcDbEntity
  8
0
370
     0
390
0
100
AcDbVertex
100
AcDb2dVertex
 10
7.94287
 20
0.595557
 30
0.0
  0
VERTEX
  5
98
100
AcDbEntity
  8
0
370
     0
390
0
100
AcDbVertex
100
AcDb2dVertex
 10
7.940158
 20
0.5955
 30
0.0
  0
VERTEX
  5
99
100
AcDbEntity
  8
0
370
     0
390
0
100
AcDbVertex
100
AcDb2dVertex
 10
7.9376
 20
0.595331
 30
0.0
  0
VERTEX
  5
9A
100
AcDbEntity
  8
0
370
     0
390
0
100
AcDbVertex
100
AcDb2dVertex
 10
7.9352
 20
0.595046
 30
0.0
  0
VERTEX
  5
9B
100
AcDbEntity
  8
0
370
     0
390
0
100
AcDbVertex
100
AcDb2dVertex
 10
7.932953
 20
0.594648
 30
0.0
  0
VERTEX
  5
9C
100
AcDbEntity
  8
0
370
     0
390
0
100
AcDbVertex
100
AcDb2dVertex
 10
7.930864
 20
0.594138
 30
0.0
  0
VERTEX
  5
9D
100
AcDbEntity
  8
0
370
     0
390
0
100
AcDbVertex
100
AcDb2dVertex
 10
7.92893
 20
0.593513
 30
0.0
  0
VERTEX
  5
9E
100
AcDbEntity
  8
0
370
     0
390
0
100
AcDbVertex
100
AcDb2dVertex
 10
7.927152
 20
0.592775
 30
0.0
  0
VERTEX
  5
9F
100
AcDbEntity
  8
0
370
     0
390
0
100
AcDbVertex
100
AcDb2dVertex
 10
7.92553
 20
0.591923
 30
0.0
  0
VERTEX
  5
A0
100
AcDbEntity
  8
0
370
     0
390
0
100
AcDbVertex
100
AcDb2dVertex
 10
7.924063
 20
0.590958
 30
0.0
  0
VERTEX
  5
A1
100
AcDbEntity
  8
0
370
     0
390
0
100
AcDbVertex
100
AcDb2dVertex
 10
7.922751
 20
0.58988
 30
0.0
  0
VERTEX
  5
A2
100
AcDbEntity
  8
0
370
     0
390
0
100
AcDbVertex
100
AcDb2dVertex
 10
7.921574
 20
0.588665
 30
0.0
  0
VERTEX
  5
A3
100
AcDbEntity
  8
0
370
     0
390
0
100
AcDbVertex
100
AcDb2dVertex
 10
7.920506
 20
0.587294
 30
0.0
  0
VERTEX
  5
A4
100
AcDbEntity
  8
0
370
     0
390
0
100
AcDbVertex
100
AcDb2dVertex
 10
7.919549
 20
0.585767
 30
0.0
  0
VERTEX
  5
A5
100
AcDbEntity
  8
0
370
     0
390
0
100
AcDbVertex
100
AcDb2dVertex
 10
7.918703
 20
0.584081
 30
0.0
  0
VERTEX
  5
A6
100
AcDbEntity
  8
0
370
     0
390
0
100
AcDbVertex
100
AcDb2dVertex
 10
7.917966
 20
0.58224
 30
0.0
  0
VERTEX
  5
A7
100
AcDbEntity
  8
0
370
     0
390
0
100
AcDbVertex
100
AcDb2dVertex
 10
7.917339
 20
0.580242
 30
0.0
  0
VERTEX
  5
A8
100
AcDbEntity
  8
0
370
     0
390
0
100
AcDbVertex
100
AcDb2dVertex
 10
7.916824
 20
0.578087
 30
0.0
  0
VERTEX
  5
A9
100
AcDbEntity
  8
0
370
     0
390
0
100
AcDbVertex
100
AcDb2dVertex
 10
7.916418
 20
0.575775
 30
0.0
  0
VERTEX
  5
AA
100
AcDbEntity
  8
0
370
     0
390
0
100
AcDbVertex
100
AcDb2dVertex
 10
7.916123
 20
0.573306
 30
0.0
  0
VERTEX
  5
AB
100
AcDbEntity
  8
0
370
     0
390
0
100
AcDbVertex
100
AcDb2dVertex
 10
7.915938
 20
0.570681
 30
0.0
  0
VERTEX
  5
AC
100
AcDbEntity
  8
0
370
     0
390
0
100
AcDbVertex
100
AcDb2dVertex
 10
7.913659
 20
0.573722
 30
0.0
  0
VERTEX
  5
AD
100
AcDbEntity
  8
0
370
     0
390
0
100
AcDbVertex
100
AcDb2dVertex
 10
7.912577
 20
0.576833
 30
0.0
  0
VERTEX
  5
AE
100
AcDbEntity
  8
0
370
     0
390
0
100
AcDbVertex
100
AcDb2dVertex
 10
7.911392
 20
0.580013
 30
0.0
  0
VERTEX
  5
AF
100
AcDbEntity
  8
0
370
     0
390
0
100
AcDbVertex
100
AcDb2dVertex
 10
7.910106
 20
0.583262
 30
0.0
  0
VERTEX
  5
B0
100
AcDbEntity
  8
0
370
     0
390
0
100
AcDbVertex
100
AcDb2dVertex
 10
7.908719
 20
0.58658
 30
0.0
  0
VERTEX
  5
B1
100
AcDbEntity
  8
0
370
     0
390
0
100
AcDbVertex
100
AcDb2dVertex
 10
7.907229
 20
0.589967
 30
0.0
  0
VERTEX
  5
B2
100
AcDbEntity
  8
0
370
     0
390
0
100
AcDbVertex
100
AcDb2dVertex
 10
7.905638
 20
0.593424
 30
0.0
  0
VERTEX
  5
B3
100
AcDbEntity
  8
0
370
     0
390
0
100
AcDbVertex
100
AcDb2dVertex
 10
7.903945
 20
0.596951
 30
0.0
  0
VERTEX
  5
B4
100
AcDbEntity
  8
0
370
     0
390
0
100
AcDbVertex
100
AcDb2dVertex
 10
7.902151
 20
0.600546
 30
0.0
  0
VERTEX
  5
B5
100
AcDbEntity
  8
0
370
     0
390
0
100
AcDbVertex
100
AcDb2dVertex
 10
7.900255
 20
0.604209
 30
0.0
  0
SEQEND
  5
B6
100
AcDbEntity
  8
0
370
     0
390
0
  0
POLYLINE
  5
B7
100
AcDbEntity
  8
0
370
    13
390
0
 62
     7
 48
0.03937
100
AcDb2dPolyline
 66
     1
 10
0.0
 20
0.0
 30
0.0
 70
     1
 71
    22
  0
VERTEX
  5
B8
100
AcDbEntity
  8
0
370
     0
390
0
100
AcDbVertex
100
AcDb2dVertex
 10
8.036644
 20
0.598478
 30
0.0
  0
VERTEX
  5
B9
100
AcDbEntity
  8
0
370
     0
390
0
100
AcDbVertex
100
AcDb2dVertex
 10
8.035144
 20
0.596448
 30
0.0
  0
VERTEX
  5
BA
100
AcDbEntity
  8
0
370
     0
390
0
100
AcDbVertex
100
AcDb2dVertex
 10
8.033629
 20
0.594168
 30
0.0
  0
VERTEX
  5
BB
100
AcDbEntity
  8
0
370
     0
390
0
100
AcDbVertex
100
AcDb2dVertex
 10
8.032099
 20
0.591638
 30
0.0
  0
VERTEX
  5
BC
100
AcDbEntity
  8
0
370
     0
390
0
100
AcDbVertex
100
AcDb2dVertex
 10
8.030552
 20
0.588855
 30
0.0
  0
VERTEX
  5
BD
100
AcDbEntity
  8
0
370
     0
390
0
100
AcDbVertex
100
AcDb2dVertex
 10
8.028992
 20
0.585822
 30
0.0
  0
VERTEX
  5
BE
100
AcDbEntity
  8
0
370
     0
390
0
100
AcDbVertex
100
AcDb2dVertex
 10
8.027416
 20
0.582539
 30
0.0
  0
VERTEX
  5
BF
100
AcDbEntity
  8
0
370
     0
390
0
100
AcDbVertex
100
AcDb2dVertex
 10
8.025824
 20
0.579005
 30
0.0
  0
VERTEX
  5
C0
100
AcDbEntity
  8
0
370
     0
390
0
100
AcDbVertex
100
AcDb2dVertex
 10
8.024219
 20
0.575219
 30
0.0
  0
VERTEX
  5
C1
100
AcDbEntity
  8
0
370
     0
390
0
100
AcDbVertex
100
AcDb2dVertex
 10
8.022597
 20
0.571182
 30
0.0
  0
VERTEX
  5
C2
100
AcDbEntity
  8
0
370
     0
390
0
100
AcDbVertex
100
AcDb2dVertex
 10
8.020961
 20
0.566895
 30
0.0
  0
VERTEX
  5
C3
100
AcDbEntity
  8
0
370
     0
390
0
100
AcDbVertex
100
AcDb2dVertex
 10
8.018149
 20
0.567869
 30
0.0
  0
VERTEX
  5
C4
100
AcDbEntity
  8
0
370
     0
390
0
100
AcDbVertex
100
AcDb2dVertex
 10
8.020069
 20
0.573183
 30
0.0
  0
VERTEX
  5
C5
100
AcDbEntity
  8
0
370
     0
390
0
100
AcDbVertex
100
AcDb2dVertex
 10
8.021652
 20
0.577253
 30
0.0
  0
VERTEX
  5
C6
100
AcDbEntity
  8
0
370
     0
390
0
100
AcDbVertex
100
AcDb2dVertex
 10
8.023227
 20
0.581049
 30
0.0
  0
VERTEX
  5
C7
100
AcDbEntity
  8
0
370
     0
390
0
100
AcDbVertex
100
AcDb2dVertex
 10
8.024791
 20
0.584573
 30
0.0
  0
VERTEX
  5
C8
100
AcDbEntity
  8
0
370
     0
390
0
100
AcDbVertex
100
AcDb2dVertex
 10
8.026342
 20
0.587825
 30
0.0
  0
VERTEX
  5
C9
100
AcDbEntity
  8
0
370
     0
390
0
100
AcDbVertex
100
AcDb2dVertex
 10
8.027884
 20
0.590802
 30
0.0
  0
VERTEX
  5
CA
100
AcDbEntity
  8
0
370
     0
390
0
100
AcDbVertex
100
AcDb2dVertex
 10
8.029413
 20
0.593508
 30
0.0
  0
VERTEX
  5
CB
100
AcDbEntity
  8
0
370
     0
390
0
100
AcDbVertex
100
AcDb2dVertex
 10
8.030933
 20
0.595943
 30
0.0
  0
VERTEX
  5
CC
100
AcDbEntity
  8
0
370
     0
390
0
100
AcDbVertex
100
AcDb2dVertex
 10
8.032442
 20
0.598104
 30
0.0
  0
VERTEX
  5
CD
100
AcDbEntity
  8
0
370
     0
390
0
100
AcDbVertex
100
AcDb2dVertex
 10
8.03394
 20
0.599991
 30
0.0
  0
SEQEND
  5
CE
100
AcDbEntity
  8
0
370
     0
390
0
  0
POLYLINE
  5
CF
100
AcDbEntity
  8
0
370
    13
390
0
 62
     7
 48
0.03937
100
AcDb2dPolyline
 66
     1
 10
0.0
 20
0.0
 30
0.0
 70
     1
 71
    34
  0
VERTEX
  5
D0
100
AcDbEntity
  8
0
370
     0
390
0
100
AcDbVertex
100
AcDb2dVertex
 10
8.007766
 20
0.581604
 30
0.0
  0
VERTEX
  5
D1
100
AcDbEntity
  8
0
370
     0
390
0
100
AcDbVertex
100
AcDb2dVertex
 10
8.006072
 20
0.582632
 30
0.0
  0
VERTEX
  5
D2
100
AcDbEntity
  8
0
370
     0
390
0
100
AcDbVertex
100
AcDb2dVertex
 10
8.004322
 20
0.583551
 30
0.0
  0
VERTEX
  5
D3
100
AcDbEntity
  8
0
370
     0
390
0
100
AcDbVertex
100
AcDb2dVertex
 10
8.002516
 20
0.584363
 30
0.0
  0
VERTEX
  5
D4
100
AcDbEntity
  8
0
370
     0
390
0
100
AcDbVertex
100
AcDb2dVertex
 10
8.000652
 20
0.585066
 30
0.0
  0
VERTEX
  5
D5
100
AcDbEntity
  8
0
370
     0
390
0
100
AcDbVertex
100
AcDb2dVertex
 10
7.998734
 20
0.58566
 30
0.0
  0
VERTEX
  5
D6
100
AcDbEntity
  8
0
370
     0
390
0
100
AcDbVertex
100
AcDb2dVertex
 10
7.996758
 20
0.586148
 30
0.0
  0
VERTEX
  5
D7
100
AcDbEntity
  8
0
370
     0
390
0
100
AcDbVertex
100
AcDb2dVertex
 10
7.994728
 20
0.586526
 30
0.0
  0
VERTEX
  5
D8
100
AcDbEntity
  8
0
370
     0
390
0
100
AcDbVertex
100
AcDb2dVertex
 10
7.992641
 20
0.586796
 30
0.0
  0
VERTEX
  5
D9
100
AcDbEntity
  8
0
370
     0
390
0
100
AcDbVertex
100
AcDb2dVertex
 10
7.990496
 20
0.586959
 30
0.0
  0
VERTEX
  5
DA
100
AcDbEntity
  8
0
370
     0
390
0
100
AcDbVertex
100
AcDb2dVertex
 10
7.988297
 20
0.587013
 30
0.0
  0
VERTEX
  5
DB
100
AcDbEntity
  8
0
370
     0
390
0
100
AcDbVertex
100
AcDb2dVertex
 10
7.986785
 20
0.586983
 30
0.0
  0
VERTEX
  5
DC
100
AcDbEntity
  8
0
370
     0
390
0
100
AcDbVertex
100
AcDb2dVertex
 10
7.985234
 20
0.586896
 30
0.0
  0
VERTEX
  5
DD
100
AcDbEntity
  8
0
370
     0
390
0
100
AcDbVertex
100
AcDb2dVertex
 10
7.983644
 20
0.586751
 30
0.0
  0
VERTEX
  5
DE
100
AcDbEntity
  8
0
370
     0
390
0
100
AcDbVertex
100
AcDb2dVertex
 10
7.983538
 20
0.477987
 30
0.0
  0
VERTEX
  5
DF
100
AcDbEntity
  8
0
370
     0
390
0
100
AcDbVertex
100
AcDb2dVertex
 10
8.000735
 20
0.457653
 30
0.0
  0
VERTEX
  5
E0
100
AcDbEntity
  8
0
370
     0
390
0
100
AcDbVertex
100
AcDb2dVertex
 10
7.945466
 20
0.457653
 30
0.0
  0
VERTEX
  5
E1
100
AcDbEntity
  8
0
370
     0
390
0
100
AcDbVertex
100
AcDb2dVertex
 10
7.942978
 20
0.460574
 30
0.0
  0
VERTEX
  5
E2
100
AcDbEntity
  8
0
370
     0
390
0
100
AcDbVertex
100
AcDb2dVertex
 10
7.994786
 20
0.460574
 30
0.0
  0
VERTEX
  5
E3
100
AcDbEntity
  8
0
370
     0
390
0
100
AcDbVertex
100
AcDb2dVertex
 10
7.980293
 20
0.477123
 30
0.0
  0
VERTEX
  5
E4
100
AcDbEntity
  8
0
370
     0
390
0
100
AcDbVertex
100
AcDb2dVertex
 10
7.980293
 20
0.589826
 30
0.0
  0
VERTEX
  5
E5
100
AcDbEntity
  8
0
370
     0
390
0
100
AcDbVertex
100
AcDb2dVertex
 10
7.986134
 20
0.589934
 30
0.0
  0
VERTEX
  5
E6
100
AcDbEntity
  8
0
370
     0
390
0
100
AcDbVertex
100
AcDb2dVertex
 10
7.988171
 20
0.589916
 30
0.0
  0
VERTEX
  5
E7
100
AcDbEntity
  8
0
370
     0
390
0
100
AcDbVertex
100
AcDb2dVertex
 10
7.990086
 20
0.589866
 30
0.0
  0
VERTEX
  5
E8
100
AcDbEntity
  8
0
370
     0
390
0
100
AcDbVertex
100
AcDb2dVertex
 10
7.991879
 20
0.589782
 30
0.0
  0
VERTEX
  5
E9
100
AcDbEntity
  8
0
370
     0
390
0
100
AcDbVertex
100
AcDb2dVertex
 10
7.993549
 20
0.589665
 30
0.0
  0
VERTEX
  5
EA
100
AcDbEntity
  8
0
370
     0
390
0
100
AcDbVertex
100
AcDb2dVertex
 10
7.995098
 20
0.589514
 30
0.0
  0
VERTEX
  5
EB
100
AcDbEntity
  8
0
370
     0
390
0
100
AcDbVertex
100
AcDb2dVertex
 10
7.997828
 20
0.589112
 30
0.0
  0
VERTEX
  5
EC
100
AcDbEntity
  8
0
370
     0
390
0
100
AcDbVertex
100
AcDb2dVertex
 10
8.000069
 20
0.588575
 30
0.0
  0
VERTEX
  5
ED
100
AcDbEntity
  8
0
370
     0
390
0
100
AcDbVertex
100
AcDb2dVertex
 10
8.001862
 20
0.587888
 30
0.0
  0
VERTEX
  5
EE
100
AcDbEntity
  8
0
370
     0
390
0
100
AcDbVertex
100
AcDb2dVertex
 10
8.003455
 20
0.586953
 30
0.0
  0
VERTEX
  5
EF
100
AcDbEntity
  8
0
370
     0
390
0
100
AcDbVertex
100
AcDb2dVertex
 10
8.004886
 20
0.585755
 30
0.0
  0
VERTEX
  5
F0
100
AcDbEntity
  8
0
370
     0
390
0
100
AcDbVertex
100
AcDb2dVertex
 10
8.006157
 20
0.584294
 30
0.0
  0
VERTEX
  5
F1
100
AcDbEntity
  8
0
370
     0
390
0
100
AcDbVertex
100
AcDb2dVertex
 10
8.007269
 20
0.582567
 30
0.0
  0
SEQEND
  5
F2
100
AcDbEntity
  8
0
370
     0
390
0
  0
POLYLINE
  5
F3
100
AcDbEntity
  8
0
370
    13
390
0
 62
     7
 48
0.03937
100
AcDb2dPolyline
 66
     1
 10
0.0
 20
0.0
 30
0.0
 70
     1
 71
   138
  0
VERTEX
  5
F4
100
AcDbEntity
  8
0
370
     0
390
0
100
AcDbVertex
100
AcDb2dVertex
 10
8.03978
 20
0.605292
 30
0.0
  0
VERTEX
  5
F5
100
AcDbEntity
  8
0
370
     0
390
0
100
AcDbVertex
100
AcDb2dVertex
 10
8.152051
 20
0.605292
 30
0.0
  0
VERTEX
  5
F6
100
AcDbEntity
  8
0
370
     0
390
0
100
AcDbVertex
100
AcDb2dVertex
 10
8.150747
 20
0.603555
 30
0.0
  0
VERTEX
  5
F7
100
AcDbEntity
  8
0
370
     0
390
0
100
AcDbVertex
100
AcDb2dVertex
 10
8.149522
 20
0.601895
 30
0.0
  0
VERTEX
  5
F8
100
AcDbEntity
  8
0
370
     0
390
0
100
AcDbVertex
100
AcDb2dVertex
 10
8.148372
 20
0.600311
 30
0.0
  0
VERTEX
  5
F9
100
AcDbEntity
  8
0
370
     0
390
0
100
AcDbVertex
100
AcDb2dVertex
 10
8.1473
 20
0.598802
 30
0.0
  0
VERTEX
  5
FA
100
AcDbEntity
  8
0
370
     0
390
0
100
AcDbVertex
100
AcDb2dVertex
 10
8.146304
 20
0.597369
 30
0.0
  0
VERTEX
  5
FB
100
AcDbEntity
  8
0
370
     0
390
0
100
AcDbVertex
100
AcDb2dVertex
 10
8.145386
 20
0.596012
 30
0.0
  0
VERTEX
  5
FC
100
AcDbEntity
  8
0
370
     0
390
0
100
AcDbVertex
100
AcDb2dVertex
 10
8.144543
 20
0.594729
 30
0.0
  0
VERTEX
  5
FD
100
AcDbEntity
  8
0
370
     0
390
0
100
AcDbVertex
100
AcDb2dVertex
 10
8.143089
 20
0.592394
 30
0.0
  0
VERTEX
  5
FE
100
AcDbEntity
  8
0
370
     0
390
0
100
AcDbVertex
100
AcDb2dVertex
 10
8.14189
 20
0.590261
 30
0.0
  0
VERTEX
  5
FF
100
AcDbEntity
  8
0
370
     0
390
0
100
AcDbVertex
100
AcDb2dVertex
 10
8.140617
 20
0.587735
 30
0.0
  0
VERTEX
  5
100
100
AcDbEntity
  8
0
370
     0
390
0
100
AcDbVertex
100
AcDb2dVertex
 10
8.139935
 20
0.586286
 30
0.0
  0
VERTEX
  5
101
100
AcDbEntity
  8
0
370
     0
390
0
100
AcDbVertex
100
AcDb2dVertex
 10
8.13922
 20
0.584714
 30
0.0
  0
VERTEX
  5
102
100
AcDbEntity
  8
0
370
     0
390
0
100
AcDbVertex
100
AcDb2dVertex
 10
8.138474
 20
0.583019
 30
0.0
  0
VERTEX
  5
103
100
AcDbEntity
  8
0
370
     0
390
0
100
AcDbVertex
100
AcDb2dVertex
 10
8.137697
 20
0.581201
 30
0.0
  0
VERTEX
  5
104
100
AcDbEntity
  8
0
370
     0
390
0
100
AcDbVertex
100
AcDb2dVertex
 10
8.136889
 20
0.57926
 30
0.0
  0
VERTEX
  5
105
100
AcDbEntity
  8
0
370
     0
390
0
100
AcDbVertex
100
AcDb2dVertex
 10
8.136049
 20
0.577196
 30
0.0
  0
VERTEX
  5
106
100
AcDbEntity
  8
0
370
     0
390
0
100
AcDbVertex
100
AcDb2dVertex
 10
8.135177
 20
0.575007
 30
0.0
  0
VERTEX
  5
107
100
AcDbEntity
  8
0
370
     0
390
0
100
AcDbVertex
100
AcDb2dVertex
 10
8.134311
 20
0.572844
 30
0.0
  0
VERTEX
  5
108
100
AcDbEntity
  8
0
370
     0
390
0
100
AcDbVertex
100
AcDb2dVertex
 10
8.132887
 20
0.575682
 30
0.0
  0
VERTEX
  5
109
100
AcDbEntity
  8
0
370
     0
390
0
100
AcDbVertex
100
AcDb2dVertex
 10
8.131463
 20
0.578313
 30
0.0
  0
VERTEX
  5
10A
100
AcDbEntity
  8
0
370
     0
390
0
100
AcDbVertex
100
AcDb2dVertex
 10
8.130044
 20
0.580736
 30
0.0
  0
VERTEX
  5
10B
100
AcDbEntity
  8
0
370
     0
390
0
100
AcDbVertex
100
AcDb2dVertex
 10
8.128628
 20
0.582951
 30
0.0
  0
VERTEX
  5
10C
100
AcDbEntity
  8
0
370
     0
390
0
100
AcDbVertex
100
AcDb2dVertex
 10
8.127215
 20
0.584958
 30
0.0
  0
VERTEX
  5
10D
100
AcDbEntity
  8
0
370
     0
390
0
100
AcDbVertex
100
AcDb2dVertex
 10
8.125804
 20
0.586758
 30
0.0
  0
VERTEX
  5
10E
100
AcDbEntity
  8
0
370
     0
390
0
100
AcDbVertex
100
AcDb2dVertex
 10
8.124398
 20
0.58835
 30
0.0
  0
VERTEX
  5
10F
100
AcDbEntity
  8
0
370
     0
390
0
100
AcDbVertex
100
AcDb2dVertex
 10
8.122994
 20
0.589734
 30
0.0
  0
VERTEX
  5
110
100
AcDbEntity
  8
0
370
     0
390
0
100
AcDbVertex
100
AcDb2dVertex
 10
8.121594
 20
0.59091
 30
0.0
  0
VERTEX
  5
111
100
AcDbEntity
  8
0
370
     0
390
0
100
AcDbVertex
100
AcDb2dVertex
 10
8.120198
 20
0.591881
 30
0.0
  0
VERTEX
  5
112
100
AcDbEntity
  8
0
370
     0
390
0
100
AcDbVertex
100
AcDb2dVertex
 10
8.118707
 20
0.592701
 30
0.0
  0
VERTEX
  5
113
100
AcDbEntity
  8
0
370
     0
390
0
100
AcDbVertex
100
AcDb2dVertex
 10
8.117024
 20
0.593438
 30
0.0
  0
VERTEX
  5
114
100
AcDbEntity
  8
0
370
     0
390
0
100
AcDbVertex
100
AcDb2dVertex
 10
8.11515
 20
0.594086
 30
0.0
  0
VERTEX
  5
115
100
AcDbEntity
  8
0
370
     0
390
0
100
AcDbVertex
100
AcDb2dVertex
 10
8.113085
 20
0.594648
 30
0.0
  0
VERTEX
  5
116
100
AcDbEntity
  8
0
370
     0
390
0
100
AcDbVertex
100
AcDb2dVertex
 10
8.110827
 20
0.595125
 30
0.0
  0
VERTEX
  5
117
100
AcDbEntity
  8
0
370
     0
390
0
100
AcDbVertex
100
AcDb2dVertex
 10
8.108379
 20
0.595514
 30
0.0
  0
VERTEX
  5
118
100
AcDbEntity
  8
0
370
     0
390
0
100
AcDbVertex
100
AcDb2dVertex
 10
8.10574
 20
0.595817
 30
0.0
  0
VERTEX
  5
119
100
AcDbEntity
  8
0
370
     0
390
0
100
AcDbVertex
100
AcDb2dVertex
 10
8.102909
 20
0.596033
 30
0.0
  0
VERTEX
  5
11A
100
AcDbEntity
  8
0
370
     0
390
0
100
AcDbVertex
100
AcDb2dVertex
 10
8.099887
 20
0.596163
 30
0.0
  0
VERTEX
  5
11B
100
AcDbEntity
  8
0
370
     0
390
0
100
AcDbVertex
100
AcDb2dVertex
 10
8.096672
 20
0.596207
 30
0.0
  0
VERTEX
  5
11C
100
AcDbEntity
  8
0
370
     0
390
0
100
AcDbVertex
100
AcDb2dVertex
 10
8.090507
 20
0.596099
 30
0.0
  0
VERTEX
  5
11D
100
AcDbEntity
  8
0
370
     0
390
0
100
AcDbVertex
100
AcDb2dVertex
 10
8.080016
 20
0.596207
 30
0.0
  0
VERTEX
  5
11E
100
AcDbEntity
  8
0
370
     0
390
0
100
AcDbVertex
100
AcDb2dVertex
 10
8.076014
 20
0.596315
 30
0.0
  0
VERTEX
  5
11F
100
AcDbEntity
  8
0
370
     0
390
0
100
AcDbVertex
100
AcDb2dVertex
 10
8.076014
 20
0.545696
 30
0.0
  0
VERTEX
  5
120
100
AcDbEntity
  8
0
370
     0
390
0
100
AcDbVertex
100
AcDb2dVertex
 10
8.082612
 20
0.545696
 30
0.0
  0
VERTEX
  5
121
100
AcDbEntity
  8
0
370
     0
390
0
100
AcDbVertex
100
AcDb2dVertex
 10
8.082612
 20
0.590366
 30
0.0
  0
VERTEX
  5
122
100
AcDbEntity
  8
0
370
     0
390
0
100
AcDbVertex
100
AcDb2dVertex
 10
8.085749
 20
0.590474
 30
0.0
  0
VERTEX
  5
123
100
AcDbEntity
  8
0
370
     0
390
0
100
AcDbVertex
100
AcDb2dVertex
 10
8.088465
 20
0.590591
 30
0.0
  0
VERTEX
  5
124
100
AcDbEntity
  8
0
370
     0
390
0
100
AcDbVertex
100
AcDb2dVertex
 10
8.091251
 20
0.590682
 30
0.0
  0
VERTEX
  5
125
100
AcDbEntity
  8
0
370
     0
390
0
100
AcDbVertex
100
AcDb2dVertex
 10
8.094107
 20
0.590747
 30
0.0
  0
VERTEX
  5
126
100
AcDbEntity
  8
0
370
     0
390
0
100
AcDbVertex
100
AcDb2dVertex
 10
8.097032
 20
0.590786
 30
0.0
  0
VERTEX
  5
127
100
AcDbEntity
  8
0
370
     0
390
0
100
AcDbVertex
100
AcDb2dVertex
 10
8.100026
 20
0.590798
 30
0.0
  0
VERTEX
  5
128
100
AcDbEntity
  8
0
370
     0
390
0
100
AcDbVertex
100
AcDb2dVertex
 10
8.104273
 20
0.590684
 30
0.0
  0
VERTEX
  5
129
100
AcDbEntity
  8
0
370
     0
390
0
100
AcDbVertex
100
AcDb2dVertex
 10
8.108189
 20
0.59034
 30
0.0
  0
VERTEX
  5
12A
100
AcDbEntity
  8
0
370
     0
390
0
100
AcDbVertex
100
AcDb2dVertex
 10
8.111775
 20
0.589767
 30
0.0
  0
VERTEX
  5
12B
100
AcDbEntity
  8
0
370
     0
390
0
100
AcDbVertex
100
AcDb2dVertex
 10
8.115029
 20
0.588965
 30
0.0
  0
VERTEX
  5
12C
100
AcDbEntity
  8
0
370
     0
390
0
100
AcDbVertex
100
AcDb2dVertex
 10
8.117954
 20
0.587933
 30
0.0
  0
VERTEX
  5
12D
100
AcDbEntity
  8
0
370
     0
390
0
100
AcDbVertex
100
AcDb2dVertex
 10
8.120546
 20
0.586671
 30
0.0
  0
VERTEX
  5
12E
100
AcDbEntity
  8
0
370
     0
390
0
100
AcDbVertex
100
AcDb2dVertex
 10
8.122807
 20
0.58518
 30
0.0
  0
VERTEX
  5
12F
100
AcDbEntity
  8
0
370
     0
390
0
100
AcDbVertex
100
AcDb2dVertex
 10
8.124737
 20
0.583461
 30
0.0
  0
VERTEX
  5
130
100
AcDbEntity
  8
0
370
     0
390
0
100
AcDbVertex
100
AcDb2dVertex
 10
8.126338
 20
0.581511
 30
0.0
  0
VERTEX
  5
131
100
AcDbEntity
  8
0
370
     0
390
0
100
AcDbVertex
100
AcDb2dVertex
 10
8.127607
 20
0.579333
 30
0.0
  0
VERTEX
  5
132
100
AcDbEntity
  8
0
370
     0
390
0
100
AcDbVertex
100
AcDb2dVertex
 10
8.125449
 20
0.581235
 30
0.0
  0
VERTEX
  5
133
100
AcDbEntity
  8
0
370
     0
390
0
100
AcDbVertex
100
AcDb2dVertex
 10
8.123219
 20
0.582873
 30
0.0
  0
VERTEX
  5
134
100
AcDbEntity
  8
0
370
     0
390
0
100
AcDbVertex
100
AcDb2dVertex
 10
8.120915
 20
0.584246
 30
0.0
  0
VERTEX
  5
135
100
AcDbEntity
  8
0
370
     0
390
0
100
AcDbVertex
100
AcDb2dVertex
 10
8.118538
 20
0.585356
 30
0.0
  0
VERTEX
  5
136
100
AcDbEntity
  8
0
370
     0
390
0
100
AcDbVertex
100
AcDb2dVertex
 10
8.116087
 20
0.586202
 30
0.0
  0
VERTEX
  5
137
100
AcDbEntity
  8
0
370
     0
390
0
100
AcDbVertex
100
AcDb2dVertex
 10
8.113329
 20
0.586844
 30
0.0
  0
VERTEX
  5
138
100
AcDbEntity
  8
0
370
     0
390
0
100
AcDbVertex
100
AcDb2dVertex
 10
8.111747
 20
0.587112
 30
0.0
  0
VERTEX
  5
139
100
AcDbEntity
  8
0
370
     0
390
0
100
AcDbVertex
100
AcDb2dVertex
 10
8.110031
 20
0.587343
 30
0.0
  0
VERTEX
  5
13A
100
AcDbEntity
  8
0
370
     0
390
0
100
AcDbVertex
100
AcDb2dVertex
 10
8.108179
 20
0.58754
 30
0.0
  0
VERTEX
  5
13B
100
AcDbEntity
  8
0
370
     0
390
0
100
AcDbVertex
100
AcDb2dVertex
 10
8.106191
 20
0.5877
 30
0.0
  0
VERTEX
  5
13C
100
AcDbEntity
  8
0
370
     0
390
0
100
AcDbVertex
100
AcDb2dVertex
 10
8.104068
 20
0.587826
 30
0.0
  0
VERTEX
  5
13D
100
AcDbEntity
  8
0
370
     0
390
0
100
AcDbVertex
100
AcDb2dVertex
 10
8.101811
 20
0.587915
 30
0.0
  0
VERTEX
  5
13E
100
AcDbEntity
  8
0
370
     0
390
0
100
AcDbVertex
100
AcDb2dVertex
 10
8.099417
 20
0.587969
 30
0.0
  0
VERTEX
  5
13F
100
AcDbEntity
  8
0
370
     0
390
0
100
AcDbVertex
100
AcDb2dVertex
 10
8.09689
 20
0.587987
 30
0.0
  0
VERTEX
  5
140
100
AcDbEntity
  8
0
370
     0
390
0
100
AcDbVertex
100
AcDb2dVertex
 10
8.094938
 20
0.587964
 30
0.0
  0
VERTEX
  5
141
100
AcDbEntity
  8
0
370
     0
390
0
100
AcDbVertex
100
AcDb2dVertex
 10
8.092805
 20
0.5879
 30
0.0
  0
VERTEX
  5
142
100
AcDbEntity
  8
0
370
     0
390
0
100
AcDbVertex
100
AcDb2dVertex
 10
8.090491
 20
0.587792
 30
0.0
  0
VERTEX
  5
143
100
AcDbEntity
  8
0
370
     0
390
0
100
AcDbVertex
100
AcDb2dVertex
 10
8.087994
 20
0.58764
 30
0.0
  0
VERTEX
  5
144
100
AcDbEntity
  8
0
370
     0
390
0
100
AcDbVertex
100
AcDb2dVertex
 10
8.085316
 20
0.587445
 30
0.0
  0
VERTEX
  5
145
100
AcDbEntity
  8
0
370
     0
390
0
100
AcDbVertex
100
AcDb2dVertex
 10
8.085316
 20
0.545696
 30
0.0
  0
VERTEX
  5
146
100
AcDbEntity
  8
0
370
     0
390
0
100
AcDbVertex
100
AcDb2dVertex
 10
8.101647
 20
0.545696
 30
0.0
  0
VERTEX
  5
147
100
AcDbEntity
  8
0
370
     0
390
0
100
AcDbVertex
100
AcDb2dVertex
 10
8.118953
 20
0.563975
 30
0.0
  0
VERTEX
  5
148
100
AcDbEntity
  8
0
370
     0
390
0
100
AcDbVertex
100
AcDb2dVertex
 10
8.118953
 20
0.518655
 30
0.0
  0
VERTEX
  5
149
100
AcDbEntity
  8
0
370
     0
390
0
100
AcDbVertex
100
AcDb2dVertex
 10
8.100782
 20
0.53661
 30
0.0
  0
VERTEX
  5
14A
100
AcDbEntity
  8
0
370
     0
390
0
100
AcDbVertex
100
AcDb2dVertex
 10
8.076014
 20
0.53661
 30
0.0
  0
VERTEX
  5
14B
100
AcDbEntity
  8
0
370
     0
390
0
100
AcDbVertex
100
AcDb2dVertex
 10
8.076014
 20
0.482097
 30
0.0
  0
VERTEX
  5
14C
100
AcDbEntity
  8
0
370
     0
390
0
100
AcDbVertex
100
AcDb2dVertex
 10
8.089859
 20
0.468038
 30
0.0
  0
VERTEX
  5
14D
100
AcDbEntity
  8
0
370
     0
390
0
100
AcDbVertex
100
AcDb2dVertex
 10
8.036753
 20
0.468038
 30
0.0
  0
VERTEX
  5
14E
100
AcDbEntity
  8
0
370
     0
390
0
100
AcDbVertex
100
AcDb2dVertex
 10
8.054382
 20
0.482097
 30
0.0
  0
VERTEX
  5
14F
100
AcDbEntity
  8
0
370
     0
390
0
100
AcDbVertex
100
AcDb2dVertex
 10
8.054382
 20
0.528606
 30
0.0
  0
VERTEX
  5
150
100
AcDbEntity
  8
0
370
     0
390
0
100
AcDbVertex
100
AcDb2dVertex
 10
8.052737
 20
0.528543
 30
0.0
  0
VERTEX
  5
151
100
AcDbEntity
  8
0
370
     0
390
0
100
AcDbVertex
100
AcDb2dVertex
 10
8.051134
 20
0.528356
 30
0.0
  0
VERTEX
  5
152
100
AcDbEntity
  8
0
370
     0
390
0
100
AcDbVertex
100
AcDb2dVertex
 10
8.049571
 20
0.528042
 30
0.0
  0
VERTEX
  5
153
100
AcDbEntity
  8
0
370
     0
390
0
100
AcDbVertex
100
AcDb2dVertex
 10
8.048048
 20
0.527603
 30
0.0
  0
VERTEX
  5
154
100
AcDbEntity
  8
0
370
     0
390
0
100
AcDbVertex
100
AcDb2dVertex
 10
8.046567
 20
0.527039
 30
0.0
  0
VERTEX
  5
155
100
AcDbEntity
  8
0
370
     0
390
0
100
AcDbVertex
100
AcDb2dVertex
 10
8.045129
 20
0.526349
 30
0.0
  0
VERTEX
  5
156
100
AcDbEntity
  8
0
370
     0
390
0
100
AcDbVertex
100
AcDb2dVertex
 10
8.04373
 20
0.525533
 30
0.0
  0
VERTEX
  5
157
100
AcDbEntity
  8
0
370
     0
390
0
100
AcDbVertex
100
AcDb2dVertex
 10
8.042372
 20
0.524592
 30
0.0
  0
VERTEX
  5
158
100
AcDbEntity
  8
0
370
     0
390
0
100
AcDbVertex
100
AcDb2dVertex
 10
8.041057
 20
0.523526
 30
0.0
  0
VERTEX
  5
159
100
AcDbEntity
  8
0
370
     0
390
0
100
AcDbVertex
100
AcDb2dVertex
 10
8.03978
 20
0.522333
 30
0.0
  0
VERTEX
  5
15A
100
AcDbEntity
  8
0
370
     0
390
0
100
AcDbVertex
100
AcDb2dVertex
 10
8.037725
 20
0.524604
 30
0.0
  0
VERTEX
  5
15B
100
AcDbEntity
  8
0
370
     0
390
0
100
AcDbVertex
100
AcDb2dVertex
 10
8.039021
 20
0.52592
 30
0.0
  0
VERTEX
  5
15C
100
AcDbEntity
  8
0
370
     0
390
0
100
AcDbVertex
100
AcDb2dVertex
 10
8.0404
 20
0.527097
 30
0.0
  0
VERTEX
  5
15D
100
AcDbEntity
  8
0
370
     0
390
0
100
AcDbVertex
100
AcDb2dVertex
 10
8.041859
 20
0.528135
 30
0.0
  0
VERTEX
  5
15E
100
AcDbEntity
  8
0
370
     0
390
0
100
AcDbVertex
100
AcDb2dVertex
 10
8.043403
 20
0.529035
 30
0.0
  0
VERTEX
  5
15F
100
AcDbEntity
  8
0
370
     0
390
0
100
AcDbVertex
100
AcDb2dVertex
 10
8.045027
 20
0.529796
 30
0.0
  0
VERTEX
  5
160
100
AcDbEntity
  8
0
370
     0
390
0
100
AcDbVertex
100
AcDb2dVertex
 10
8.046733
 20
0.53042
 30
0.0
  0
VERTEX
  5
161
100
AcDbEntity
  8
0
370
     0
390
0
100
AcDbVertex
100
AcDb2dVertex
 10
8.048522
 20
0.530904
 30
0.0
  0
VERTEX
  5
162
100
AcDbEntity
  8
0
370
     0
390
0
100
AcDbVertex
100
AcDb2dVertex
 10
8.050394
 20
0.531249
 30
0.0
  0
VERTEX
  5
163
100
AcDbEntity
  8
0
370
     0
390
0
100
AcDbVertex
100
AcDb2dVertex
 10
8.052347
 20
0.531458
 30
0.0
  0
VERTEX
  5
164
100
AcDbEntity
  8
0
370
     0
390
0
100
AcDbVertex
100
AcDb2dVertex
 10
8.054382
 20
0.531527
 30
0.0
  0
VERTEX
  5
165
100
AcDbEntity
  8
0
370
     0
390
0
100
AcDbVertex
100
AcDb2dVertex
 10
8.054382
 20
0.53661
 30
0.0
  0
VERTEX
  5
166
100
AcDbEntity
  8
0
370
     0
390
0
100
AcDbVertex
100
AcDb2dVertex
 10
8.052773
 20
0.536748
 30
0.0
  0
VERTEX
  5
167
100
AcDbEntity
  8
0
370
     0
390
0
100
AcDbVertex
100
AcDb2dVertex
 10
8.051138
 20
0.536826
 30
0.0
  0
VERTEX
  5
168
100
AcDbEntity
  8
0
370
     0
390
0
100
AcDbVertex
100
AcDb2dVertex
 10
8.049152
 20
0.536744
 30
0.0
  0
VERTEX
  5
169
100
AcDbEntity
  8
0
370
     0
390
0
100
AcDbVertex
100
AcDb2dVertex
 10
8.047222
 20
0.536498
 30
0.0
  0
VERTEX
  5
16A
100
AcDbEntity
  8
0
370
     0
390
0
100
AcDbVertex
100
AcDb2dVertex
 10
8.045345
 20
0.536087
 30
0.0
  0
VERTEX
  5
16B
100
AcDbEntity
  8
0
370
     0
390
0
100
AcDbVertex
100
AcDb2dVertex
 10
8.043522
 20
0.535512
 30
0.0
  0
VERTEX
  5
16C
100
AcDbEntity
  8
0
370
     0
390
0
100
AcDbVertex
100
AcDb2dVertex
 10
8.041754
 20
0.534771
 30
0.0
  0
VERTEX
  5
16D
100
AcDbEntity
  8
0
370
     0
390
0
100
AcDbVertex
100
AcDb2dVertex
 10
8.04004
 20
0.533868
 30
0.0
  0
VERTEX
  5
16E
100
AcDbEntity
  8
0
370
     0
390
0
100
AcDbVertex
100
AcDb2dVertex
 10
8.038381
 20
0.532799
 30
0.0
  0
VERTEX
  5
16F
100
AcDbEntity
  8
0
370
     0
390
0
100
AcDbVertex
100
AcDb2dVertex
 10
8.036774
 20
0.531566
 30
0.0
  0
VERTEX
  5
170
100
AcDbEntity
  8
0
370
     0
390
0
100
AcDbVertex
100
AcDb2dVertex
 10
8.035222
 20
0.530168
 30
0.0
  0
VERTEX
  5
171
100
AcDbEntity
  8
0
370
     0
390
0
100
AcDbVertex
100
AcDb2dVertex
 10
8.033725
 20
0.528606
 30
0.0
  0
VERTEX
  5
172
100
AcDbEntity
  8
0
370
     0
390
0
100
AcDbVertex
100
AcDb2dVertex
 10
8.032967
 20
0.530337
 30
0.0
  0
VERTEX
  5
173
100
AcDbEntity
  8
0
370
     0
390
0
100
AcDbVertex
100
AcDb2dVertex
 10
8.034058
 20
0.533022
 30
0.0
  0
VERTEX
  5
174
100
AcDbEntity
  8
0
370
     0
390
0
100
AcDbVertex
100
AcDb2dVertex
 10
8.03538
 20
0.535451
 30
0.0
  0
VERTEX
  5
175
100
AcDbEntity
  8
0
370
     0
390
0
100
AcDbVertex
100
AcDb2dVertex
 10
8.036938
 20
0.537626
 30
0.0
  0
VERTEX
  5
176
100
AcDbEntity
  8
0
370
     0
390
0
100
AcDbVertex
100
AcDb2dVertex
 10
8.03873
 20
0.539544
 30
0.0
  0
VERTEX
  5
177
100
AcDbEntity
  8
0
370
     0
390
0
100
AcDbVertex
100
AcDb2dVertex
 10
8.040755
 20
0.541208
 30
0.0
  0
VERTEX
  5
178
100
AcDbEntity
  8
0
370
     0
390
0
100
AcDbVertex
100
AcDb2dVertex
 10
8.043013
 20
0.542615
 30
0.0
  0
VERTEX
  5
179
100
AcDbEntity
  8
0
370
     0
390
0
100
AcDbVertex
100
AcDb2dVertex
 10
8.045504
 20
0.543768
 30
0.0
  0
VERTEX
  5
17A
100
AcDbEntity
  8
0
370
     0
390
0
100
AcDbVertex
100
AcDb2dVertex
 10
8.048231
 20
0.544665
 30
0.0
  0
VERTEX
  5
17B
100
AcDbEntity
  8
0
370
     0
390
0
100
AcDbVertex
100
AcDb2dVertex
 10
8.051189
 20
0.545309
 30
0.0
  0
VERTEX
  5
17C
100
AcDbEntity
  8
0
370
     0
390
0
100
AcDbVertex
100
AcDb2dVertex
 10
8.054382
 20
0.545696
 30
0.0
  0
VERTEX
  5
17D
100
AcDbEntity
  8
0
370
     0
390
0
100
AcDbVertex
100
AcDb2dVertex
 10
8.054382
 20
0.591339
 30
0.0
  0
SEQEND
  5
17E
100
AcDbEntity
  8
0
370
     0
390
0
  0
POLYLINE
  5
17F
100
AcDbEntity
  8
0
370
    13
390
0
 62
     7
 48
0.03937
100
AcDb2dPolyline
 66
     1
 10
0.0
 20
0.0
 30
0.0
 70
     1
 71
    22
  0
VERTEX
  5
180
100
AcDbEntity
  8
0
370
     0
390
0
100
AcDbVertex
100
AcDb2dVertex
 10
8.160271
 20
0.598694
 30
0.0
  0
VERTEX
  5
181
100
AcDbEntity
  8
0
370
     0
390
0
100
AcDbVertex
100
AcDb2dVertex
 10
8.157292
 20
0.595112
 30
0.0
  0
VERTEX
  5
182
100
AcDbEntity
  8
0
370
     0
390
0
100
AcDbVertex
100
AcDb2dVertex
 10
8.154542
 20
0.59159
 30
0.0
  0
VERTEX
  5
183
100
AcDbEntity
  8
0
370
     0
390
0
100
AcDbVertex
100
AcDb2dVertex
 10
8.152022
 20
0.588129
 30
0.0
  0
VERTEX
  5
184
100
AcDbEntity
  8
0
370
     0
390
0
100
AcDbVertex
100
AcDb2dVertex
 10
8.149732
 20
0.584729
 30
0.0
  0
VERTEX
  5
185
100
AcDbEntity
  8
0
370
     0
390
0
100
AcDbVertex
100
AcDb2dVertex
 10
8.147671
 20
0.581388
 30
0.0
  0
VERTEX
  5
186
100
AcDbEntity
  8
0
370
     0
390
0
100
AcDbVertex
100
AcDb2dVertex
 10
8.145838
 20
0.578109
 30
0.0
  0
VERTEX
  5
187
100
AcDbEntity
  8
0
370
     0
390
0
100
AcDbVertex
100
AcDb2dVertex
 10
8.144234
 20
0.57489
 30
0.0
  0
VERTEX
  5
188
100
AcDbEntity
  8
0
370
     0
390
0
100
AcDbVertex
100
AcDb2dVertex
 10
8.142862
 20
0.571733
 30
0.0
  0
VERTEX
  5
189
100
AcDbEntity
  8
0
370
     0
390
0
100
AcDbVertex
100
AcDb2dVertex
 10
8.141717
 20
0.568634
 30
0.0
  0
VERTEX
  5
18A
100
AcDbEntity
  8
0
370
     0
390
0
100
AcDbVertex
100
AcDb2dVertex
 10
8.140802
 20
0.565596
 30
0.0
  0
VERTEX
  5
18B
100
AcDbEntity
  8
0
370
     0
390
0
100
AcDbVertex
100
AcDb2dVertex
 10
8.138531
 20
0.567111
 30
0.0
  0
VERTEX
  5
18C
100
AcDbEntity
  8
0
370
     0
390
0
100
AcDbVertex
100
AcDb2dVertex
 10
8.139469
 20
0.570503
 30
0.0
  0
VERTEX
  5
18D
100
AcDbEntity
  8
0
370
     0
390
0
100
AcDbVertex
100
AcDb2dVertex
 10
8.140637
 20
0.573882
 30
0.0
  0
VERTEX
  5
18E
100
AcDbEntity
  8
0
370
     0
390
0
100
AcDbVertex
100
AcDb2dVertex
 10
8.142038
 20
0.577251
 30
0.0
  0
VERTEX
  5
18F
100
AcDbEntity
  8
0
370
     0
390
0
100
AcDbVertex
100
AcDb2dVertex
 10
8.14367
 20
0.58061
 30
0.0
  0
VERTEX
  5
190
100
AcDbEntity
  8
0
370
     0
390
0
100
AcDbVertex
100
AcDb2dVertex
 10
8.145533
 20
0.583958
 30
0.0
  0
VERTEX
  5
191
100
AcDbEntity
  8
0
370
     0
390
0
100
AcDbVertex
100
AcDb2dVertex
 10
8.147629
 20
0.587294
 30
0.0
  0
VERTEX
  5
192
100
AcDbEntity
  8
0
370
     0
390
0
100
AcDbVertex
100
AcDb2dVertex
 10
8.149955
 20
0.590619
 30
0.0
  0
VERTEX
  5
193
100
AcDbEntity
  8
0
370
     0
390
0
100
AcDbVertex
100
AcDb2dVertex
 10
8.152513
 20
0.593936
 30
0.0
  0
VERTEX
  5
194
100
AcDbEntity
  8
0
370
     0
390
0
100
AcDbVertex
100
AcDb2dVertex
 10
8.155303
 20
0.597239
 30
0.0
  0
VERTEX
  5
195
100
AcDbEntity
  8
0
370
     0
390
0
100
AcDbVertex
100
AcDb2dVertex
 10
8.158324
 20
0.600533
 30
0.0
  0
SEQEND
  5
196
100
AcDbEntity
  8
0
370
     0
390
0
  0
POLYLINE
  5
197
100
AcDbEntity
  8
0
370
    13
390
0
 62
     7
 48
0.03937
100
AcDb2dPolyline
 66
     1
 10
0.0
 20
0.0
 30
0.0
 70
     1
 71
     4
  0
VERTEX
  5
198
100
AcDbEntity
  8
0
370
     0
390
0
100
AcDbVertex
100
AcDb2dVertex
 10
8.126849
 20
0.560189
 30
0.0
  0
VERTEX
  5
199
100
AcDbEntity
  8
0
370
     0
390
0
100
AcDbVertex
100
AcDb2dVertex
 10
8.126849
 20
0.513464
 30
0.0
  0
VERTEX
  5
19A
100
AcDbEntity
  8
0
370
     0
390
0
100
AcDbVertex
100
AcDb2dVertex
 10
8.124036
 20
0.515087
 30
0.0
  0
VERTEX
  5
19B
100
AcDbEntity
  8
0
370
     0
390
0
100
AcDbVertex
100
AcDb2dVertex
 10
8.124036
 20
0.561812
 30
0.0
  0
SEQEND
  5
19C
100
AcDbEntity
  8
0
370
     0
390
0
  0
POLYLINE
  5
19D
100
AcDbEntity
  8
0
370
    13
390
0
 62
     7
 48
0.03937
100
AcDb2dPolyline
 66
     1
 10
0.0
 20
0.0
 30
0.0
 70
     1
 71
    10
  0
VERTEX
  5
19E
100
AcDbEntity
  8
0
370
     0
390
0
100
AcDbVertex
100
AcDb2dVertex
 10
8.107488
 20
0.527525
 30
0.0
  0
VERTEX
  5
19F
100
AcDbEntity
  8
0
370
     0
390
0
100
AcDbVertex
100
AcDb2dVertex
 10
8.085316
 20
0.527525
 30
0.0
  0
VERTEX
  5
1A0
100
AcDbEntity
  8
0
370
     0
390
0
100
AcDbVertex
100
AcDb2dVertex
 10
8.085316
 20
0.481233
 30
0.0
  0
VERTEX
  5
1A1
100
AcDbEntity
  8
0
370
     0
390
0
100
AcDbVertex
100
AcDb2dVertex
 10
8.104352
 20
0.457653
 30
0.0
  0
VERTEX
  5
1A2
100
AcDbEntity
  8
0
370
     0
390
0
100
AcDbVertex
100
AcDb2dVertex
 10
8.041727
 20
0.457653
 30
0.0
  0
VERTEX
  5
1A3
100
AcDbEntity
  8
0
370
     0
390
0
100
AcDbVertex
100
AcDb2dVertex
 10
8.039024
 20
0.460574
 30
0.0
  0
VERTEX
  5
1A4
100
AcDbEntity
  8
0
370
     0
390
0
100
AcDbVertex
100
AcDb2dVertex
 10
8.098295
 20
0.460574
 30
0.0
  0
VERTEX
  5
1A5
100
AcDbEntity
  8
0
370
     0
390
0
100
AcDbVertex
100
AcDb2dVertex
 10
8.082612
 20
0.479934
 30
0.0
  0
VERTEX
  5
1A6
100
AcDbEntity
  8
0
370
     0
390
0
100
AcDbVertex
100
AcDb2dVertex
 10
8.082612
 20
0.530445
 30
0.0
  0
VERTEX
  5
1A7
100
AcDbEntity
  8
0
370
     0
390
0
100
AcDbVertex
100
AcDb2dVertex
 10
8.104352
 20
0.530445
 30
0.0
  0
SEQEND
  5
1A8
100
AcDbEntity
  8
0
370
     0
390
0
  0
POLYLINE
  5
1A9
100
AcDbEntity
  8
0
370
    35
390
0
 62
     7
 48
0.03937
100
AcDb2dPolyline
 66
     1
 10
0.0
 20
0.0
 30
0.0
 71
     2
  0
VERTEX
  5
1AA
100
AcDbEntity
  8
0
370
     0
390
0
100
AcDbVertex
100
AcDb2dVertex
 10
2.191364
 20
4.43945
 30
0.0
 42
1.05537
  0
VERTEX
  5
1AB
100
AcDbEntity
  8
0
370
     0
390
0
100
AcDbVertex
100
AcDb2dVertex
 10
2.213375
 20
4.847679
 30
0.0
  0
SEQEND
  5
1AC
100
AcDbEntity
  8
0
370
     0
390
0
  0
POLYLINE
  5
1AD
100
AcDbEntity
  8
0
370
    35
390
0
 62
     7
 48
0.03937
100
AcDb2dPolyline
 66
     1
 10
0.0
 20
0.0
 30
0.0
 71
     2
  0
VERTEX
  5
1AE
100
AcDbEntity
  8
0
370
     0
390
0
100
AcDbVertex
100
AcDb2dVertex
 10
2.213375
 20
4.847679
 30
0.0
 42
0.947537
  0
VERTEX
  5
1AF
100
AcDbEntity
  8
0
370
     0
390
0
100
AcDbVertex
100
AcDb2dVertex
 10
2.191365
 20
4.43945
 30
0.0
  0
SEQEND
  5
1B0
100
AcDbEntity
  8
0
370
     0
390
0
  0
SPLINE
  5
1B1
100
AcDbEntity
  8
0
370
    35
390
0
 62
     7
 48
0.03937
100
AcDbSpline
210
0.0
220
0.0
230
1.0
 70
     8
 71
     5
 72
    30
 73
    24
 74
     0
 42
0.0
 43
0.0
 40
0.0
 40
0.0
 40
0.0
 40
0.0
 40
0.0
 40
0.0
 40
5.4131071909068869
 40
5.4131071909068869
 40
5.4131071909068869
 40
7.2088559491609399
 40
7.2088559491609399
 40
7.2088559491609399
 40
12.602044554813883
 40
12.602044554813883
 40
12.602044554813883
 40
13.494904861599638
 40
13.494904861599638
 40
13.494904861599638
 40
14.387765168385396
 40
14.387765168385396
 40
14.387765168385396
 40
16.154372053929759
 40
16.154372053929759
 40
16.154372053929759
 40
17.84382576161865
 40
17.84382576161865
 40
17.84382576161865
 40
17.84382576161865
 40
17.84382576161865
 40
17.84382576161865
 10
2.4282047846415233
 20
4.6416227179782439
 30
0.0
 10
2.4274549899784295
 20
4.6198732920103946
 30
0.0
 10
2.4239520718340288
 20
4.5982748434144458
 30
0.0
 10
2.4177216697796928
 20
4.5771848566561122
 30
0.0
 10
2.4058707195293407
 20
4.5504905592218083
 30
0.0
 10
2.3899954172190321
 20
4.5265763840957236
 30
0.0
 10
2.385795927554724
 20
4.520796459556542
 30
0.0
 10
2.3680781759420038
 20
4.4984506529544293
 30
0.0
 10
2.3466777589116217
 20
4.479217375509041
 30
0.0
 10
2.3288524592673117
 20
4.4669346311650129
 30
0.0
 10
2.3065420775592895
 20
4.4554982747976553
 30
0.0
 10
2.2831899663138522
 20
4.4475870723170186
 30
0.0
 10
2.2798554955012458
 20
4.446535053828276
 30
0.0
 10
2.2731333582837103
 20
4.4445700152628023
 30
0.0
 10
2.2663727886983849
 20
4.4428994633554195
 30
0.0
 10
2.2629968697588665
 20
4.4421408215922815
 30
0.0
 10
2.2529846628425538
 20
4.4401078559015037
 30
0.0
 10
2.2431008563563828
 20
4.4387298030802178
 30
0.0
 10
2.2365957485185612
 20
4.4380852293585233
 30
0.0
 10
2.2238471172478329
 20
4.4373172469474822
 30
0.0
 10
2.2108537482652402
 20
4.437552726231587
 30
0.0
 10
2.2043958942148336
 20
4.4379147795286498
 30
0.0
 10
2.1978594741439523
 20
4.4385527904764137
 30
0.0
 10
2.1913649066852803
 20
4.4394500894742848
 30
0.0
  0
SPLINE
  5
1B2
100
AcDbEntity
  8
0
370
    35
390
0
 62
     7
 48
0.03937
100
AcDbSpline
210
0.0
220
0.0
230
1.0
 70
     8
 71
     5
 72
    21
 73
    15
 74
     0
 42
0.0
 43
0.0
 40
0.0
 40
0.0
 40
0.0
 40
0.0
 40
0.0
 40
0.0
 40
6.8785952592055484
 40
6.8785952592055484
 40
6.8785952592055484
 40
9.1510629894407778
 40
9.1510629894407778
 40
9.1510629894407778
 40
10.277169087103898
 40
10.277169087103898
 40
10.277169087103898
 40
11.380519039506941
 40
11.380519039506941
 40
11.380519039506941
 40
11.380519039506941
 40
11.380519039506941
 40
11.380519039506941
 10
2.3194993819349787
 20
4.8372313285529769
 30
0.0
 10
2.3438999918529175
 20
4.8230208358181104
 30
0.0
 10
2.3659542442711596
 20
4.8049643747516626
 30
0.0
 10
2.3855959152172441
 20
4.7831081127527515
 30
0.0
 10
2.406282709152487
 20
4.7494081156442221
 30
0.0
 10
2.4187872957991061
 20
4.7134967621307036
 30
0.0
 10
2.4213863572625534
 20
4.7044710863408259
 30
0.0
 10
2.4245091959498044
 20
4.6909559054352075
 30
0.0
 10
2.4265302262843567
 20
4.6773704397955198
 30
0.0
 10
2.427080491069264
 20
4.6728599180064618
 30
0.0
 10
2.4279339687960211
 20
4.6639114328078159
 30
0.0
 10
2.4283197935494334
 20
4.6549398004909683
 30
0.0
 10
2.4283960624906689
 20
4.6504953312388171
 30
0.0
 10
2.4283576147796726
 20
4.6460558886612109
 30
0.0
 10
2.4282047846415242
 20
4.6416227179782439
 30
0.0
  0
CIRCLE
  5
1B3
100
AcDbEntity
  8
0
370
    35
390
0
 62
     7
 48
0.03937
100
AcDbCircle
 10
2.213375
 20
4.642971
 30
0.0
 40
0.262918
210
0.0
220
0.0
230
1.0
  0
POLYLINE
  5
1B4
100
AcDbEntity
  8
0
370
    35
390
0
 62
     7
 48
0.03937
100
AcDb2dPolyline
 66
     1
 10
0.0
 20
0.0
 30
0.0
 71
     2
  0
VERTEX
  5
1B5
100
AcDbEntity
  8
0
370
     0
390
0
100
AcDbVertex
100
AcDb2dVertex
 10
2.098124
 20
4.432007
 30
0.0
 42
0.089172
  0
VERTEX
  5
1B6
100
AcDbEntity
  8
0
370
     0
390
0
100
AcDbVertex
100
AcDb2dVertex
 10
2.178451
 20
4.402955
 30
0.0
  0
SEQEND
  5
1B7
100
AcDbEntity
  8
0
370
     0
390
0
  0
POLYLINE
  5
1B8
100
AcDbEntity
  8
0
370
    35
390
0
 62
     7
 48
0.03937
100
AcDb2dPolyline
 66
     1
 10
0.0
 20
0.0
 30
0.0
 71
     2
  0
VERTEX
  5
1B9
100
AcDbEntity
  8
0
370
     0
390
0
100
AcDbVertex
100
AcDb2dVertex
 10
2.158922
 20
4.445635
 30
0.0
 42
0.055723
  0
VERTEX
  5
1BA
100
AcDbEntity
  8
0
370
     0
390
0
100
AcDbVertex
100
AcDb2dVertex
 10
2.178456
 20
4.402957
 30
0.0
  0
SEQEND
  5
1BB
100
AcDbEntity
  8
0
370
     0
390
0
  0
SPLINE
  5
1BC
100
AcDbEntity
  8
0
370
    35
390
0
 62
     7
 48
0.03937
100
AcDbSpline
210
0.0
220
0.0
230
1.0
 70
     8
 71
     5
 72
    33
 73
    27
 74
     0
 42
0.0
 43
0.0
 40
0.0
 40
0.0
 40
0.0
 40
0.0
 40
0.0
 40
0.0
 40
6.5299595529424099
 40
6.5299595529424099
 40
6.5299595529424099
 40
9.4348588520767187
 40
9.4348588520767187
 40
9.4348588520767187
 40
13.055047377348069
 40
13.055047377348069
 40
13.055047377348069
 40
15.242017522963451
 40
15.242017522963451
 40
15.242017522963451
 40
18.913134476981522
 40
18.913134476981522
 40
18.913134476981522
 40
20.40197546083019
 40
20.40197546083019
 40
20.40197546083019
 40
21.868514508322999
 40
21.868514508322999
 40
21.868514508322999
 40
22.646751122722417
 40
22.646751122722417
 40
22.646751122722417
 40
22.646751122722417
 40
22.646751122722417
 40
22.646751122722417
 10
1.9794830141065587
 20
4.6433922239515155
 30
0.0
 10
1.9802549018814151
 20
4.6712533609869693
 30
0.0
 10
1.9851762274091684
 20
4.6989256870271632
 30
0.0
 10
1.9942066772620328
 20
4.7256345959227248
 30
0.0
 10
2.0128198485699005
 20
4.7615803310029925
 30
0.0
 10
2.0382355087630386
 20
4.7922345595414644
 30
0.0
 10
2.0466875290800002
 20
4.8011572749779026
 30
0.0
 10
2.0670363734057577
 20
4.8199248645299253
 30
0.0
 10
2.0900387115845351
 20
4.8354657247456396
 30
0.0
 10
2.1034486297102335
 20
4.8429482184997692
 30
0.0
 10
2.1257248618002058
 20
4.8530418583101271
 30
0.0
 10
2.1489335824536213
 20
4.8600180086339169
 30
0.0
 10
2.1577296587644952
 20
4.8621836446240412
 30
0.0
 10
2.1814188616783636
 20
4.8667671202731304
 30
0.0
 10
2.2046993605328327
 20
4.8681234479225424
 30
0.0
 10
2.2191573620680627
 20
4.8678202189219277
 30
0.0
 10
2.2394477904998622
 20
4.865801819347328
 30
0.0
 10
2.2598581114388128
 20
4.8613172976654706
 30
0.0
 10
2.2657577822104269
 20
4.8598107866994198
 30
0.0
 10
2.2774222854845076
 20
4.8563973984762852
 30
0.0
 10
2.2888734385610516
 20
4.8521780280407487
 30
0.0
 10
2.2944823201683966
 20
4.8498900539785943
 30
0.0
 10
2.3029149431305735
 20
4.8461118259111648
 30
0.0
 10
2.3111275877958914
 20
4.8419066465268727
 30
0.0
 10
2.313948031959582
 20
4.8403976171936689
 30
0.0
 10
2.3167387240773438
 20
4.8388390878901948
 30
0.0
 10
2.3194993819349787
 20
4.8372313285529769
 30
0.0
  0
SPLINE
  5
1BD
100
AcDbEntity
  8
0
370
    35
390
0
 62
     7
 48
0.03937
100
AcDbSpline
210
0.0
220
0.0
230
1.0
 70
     8
 71
     5
 72
    15
 73
     9
 74
     0
 42
0.0
 43
0.0
 40
0.0
 40
0.0
 40
0.0
 40
0.0
 40
0.0
 40
0.0
 40
7.1141820932243895
 40
7.1141820932243895
 40
7.1141820932243895
 40
11.815669708761822
 40
11.815669708761822
 40
11.815669708761822
 40
11.815669708761822
 40
11.815669708761822
 40
11.815669708761822
 10
2.0981250559739029
 20
4.4320083429788575
 30
0.0
 10
2.0713714782966246
 20
4.4475119939607319
 30
0.0
 10
2.0471888893709798
 20
4.4672738684976974
 30
0.0
 10
2.0264837418883923
 20
4.4907341812660126
 30
0.0
 10
1.9990603853896305
 20
4.5344248021168791
 30
0.0
 10
1.9842855008345388
 20
4.5832306024706337
 30
0.0
 10
1.9805225099838479
 20
4.6031750354883592
 30
0.0
 10
1.9789272647448393
 20
4.6233325605405442
 30
0.0
 10
1.9794830141065589
 20
4.6433922239515164
 30
0.0
  0
CIRCLE
  5
1BE
100
AcDbEntity
  8
0
370
    35
390
0
 62
     7
 48
0.03937
100
AcDbCircle
 10
3.283566
 20
5.713163
 30
0.0
 40
2.06163
210
0.0
220
0.0
230
1.0
  0
CIRCLE
  5
1BF
100
AcDbEntity
  8
0
370
    35
390
0
 62
     7
 48
0.03937
100
AcDbCircle
 10
4.353757
 20
4.642971
 30
0.0
 40
0.262918
210
0.0
220
0.0
230
1.0
  0
CIRCLE
  5
1C0
100
AcDbEntity
  8
0
370
    35
390
0
 62
     7
 48
0.03937
100
AcDbCircle
 10
4.353757
 20
6.783354
 30
0.0
 40
0.262918
210
0.0
220
0.0
230
1.0
  0
CIRCLE
  5
1C1
100
AcDbEntity
  8
0
370
    35
390
0
 62
     7
 48
0.03937
100
AcDbCircle
 10
2.213375
 20
6.783354
 30
0.0
 40
0.262918
210
0.0
220
0.0
230
1.0
  0
CIRCLE
  5
1C2
100
AcDbEntity
  8
0
370
    35
390
0
 62
     7
 48
0.03937
100
AcDbCircle
 10
3.283566
 20
5.713163
 30
0.0
 40
0.970179
210
0.0
220
0.0
230
1.0
  0
POLYLINE
  5
1C3
100
AcDbEntity
  8
0
370
    35
390
0
 62
     7
 48
0.03937
100
AcDb2dPolyline
 66
     1
 10
0.0
 20
0.0
 30
0.0
 71
     2
  0
VERTEX
  5
1C4
100
AcDbEntity
  8
0
370
     0
390
0
100
AcDbVertex
100
AcDb2dVertex
 10
4.551091
 20
4.588523
 30
0.0
 42
0.040395
  0
VERTEX
  5
1C5
100
AcDbEntity
  8
0
370
     0
390
0
100
AcDbVertex
100
AcDb2dVertex
 10
4.557278
 20
4.620961
 30
0.0
  0
SEQEND
  5
1C6
100
AcDbEntity
  8
0
370
     0
390
0
  0
SPLINE
  5
1C7
100
AcDbEntity
  8
0
370
    35
390
0
 62
     7
 48
0.03937
100
AcDbSpline
210
0.0
220
0.0
230
1.0
 70
     8
 71
     5
 72
    30
 73
    24
 74
     0
 42
0.0
 43
0.0
 40
0.0
 40
0.0
 40
0.0
 40
0.0
 40
0.0
 40
0.0
 40
5.4131078245142712
 40
5.4131078245142712
 40
5.4131078245142712
 40
7.2088567918768325
 40
7.2088567918768325
 40
7.2088567918768325
 40
12.602046097153526
 40
12.602046097153526
 40
12.602046097153526
 40
13.494906508325297
 40
13.494906508325297
 40
13.494906508325297
 40
14.387766919497073
 40
14.387766919497073
 40
14.387766919497073
 40
16.154373786598121
 40
16.154373786598121
 40
16.154373786598121
 40
17.843827365853073
 40
17.843827365853073
 40
17.843827365853073
 40
17.843827365853073
 40
17.843827365853073
 40
17.843827365853073
 10
4.3551058336911384
 20
4.8578013927208481
 30
0.0
 10
4.3768552622047716
 20
4.8570515979699902
 30
0.0
 10
4.3984537133111585
 20
4.8535486790931479
 30
0.0
 10
4.4195437023023016
 20
4.847318275676284
 30
0.0
 10
4.4462380021752592
 20
4.8354673229449956
 30
0.0
 10
4.4701521789928202
 20
4.8195920173449709
 30
0.0
 10
4.4759321039036832
 20
4.8153925268124951
 30
0.0
 10
4.4982779120111189
 20
4.7976747713705032
 30
0.0
 10
4.5175111902599721
 20
4.7762743494510111
 30
0.0
 10
4.529793934298235
 20
4.7584490457913606
 30
0.0
 10
4.5412302891884391
 20
4.7361386596549844
 30
0.0
 10
4.549141489110176
 20
4.7127865443781021
 30
0.0
 10
4.5501935072027129
 20
4.7094520730549272
 30
0.0
 10
4.5521585449803075
 20
4.7027299346100699
 30
0.0
 10
4.5538290958533336
 20
4.6959693645395264
 30
0.0
 10
4.5545877370190402
 20
4.6925934456805729
 30
0.0
 10
4.5566207005938226
 20
4.6825812409952583
 30
0.0
 10
4.5579987512115414
 20
4.6726974399013299
 30
0.0
 10
4.5586433236829462
 20
4.6661923372028511
 30
0.0
 10
4.5594113046024605
 20
4.6534437159750484
 30
0.0
 10
4.5591758251737593
 20
4.6404503534733346
 30
0.0
 10
4.5588137720437123
 20
4.6339925013002201
 30
0.0
 10
4.5581757611247564
 20
4.6274560817295587
 30
0.0
 10
4.5572784621950992
 20
4.6209615147646099
 30
0.0
  0
SPLINE
  5
1C8
100
AcDbEntity
  8
0
370
    35
390
0
 62
     7
 48
0.03937
100
AcDbSpline
210
0.0
220
0.0
230
1.0
 70
     8
 71
     5
 72
    21
 73
    15
 74
     0
 42
0.0
 43
0.0
 40
0.0
 40
0.0
 40
0.0
 40
0.0
 40
0.0
 40
0.0
 40
6.8785956432565749
 40
6.8785956432565749
 40
6.8785956432565749
 40
9.1510635517555361
 40
9.1510635517555361
 40
9.1510635517555361
 40
10.27716977999809
 40
10.27716977999809
 40
10.27716977999809
 40
11.380519872521456
 40
11.380519872521456
 40
11.380519872521456
 40
11.380519872521456
 40
11.380519872521456
 40
11.380519872521456
 10
4.1594972231164062
 20
4.749095990014303
 30
0.0
 10
4.1737077166446843
 20
4.7734966012945952
 30
0.0
 10
4.1917641789340054
 20
4.7955508548131842
 30
0.0
 10
4.2136204402836892
 20
4.8151925230247148
 30
0.0
 10
4.2473204319305591
 20
4.8358793147946697
 30
0.0
 10
4.2832317834314155
 20
4.8483839019573978
 30
0.0
 10
4.2922574591727658
 20
4.8509829637286828
 30
0.0
 10
4.3057726407220782
 20
4.8541058029827839
 30
0.0
 10
4.3193581074898413
 20
4.8561268337984567
 30
0.0
 10
4.3238686298053874
 20
4.856677098735819
 30
0.0
 10
4.3328171160802702
 20
4.8575305767110804
 30
0.0
 10
4.3417887494851302
 20
4.8579164015996827
 30
0.0
 10
4.3462332193029889
 20
4.8579926705797503
 30
0.0
 10
4.3506726624451799
 20
4.8579542228784058
 30
0.0
 10
4.3551058336911392
 20
4.8578013927208481
 30
0.0
  0
POLYLINE
  5
1C9
100
AcDbEntity
  8
0
370
    35
390
0
 62
     7
 48
0.03937
100
AcDb2dPolyline
 66
     1
 10
0.0
 20
0.0
 30
0.0
 71
     2
  0
VERTEX
  5
1CA
100
AcDbEntity
  8
0
370
     0
390
0
100
AcDbVertex
100
AcDb2dVertex
 10
4.564721
 20
4.527721
 30
0.0
 42
0.089172
  0
VERTEX
  5
1CB
100
AcDbEntity
  8
0
370
     0
390
0
100
AcDbVertex
100
AcDb2dVertex
 10
4.593773
 20
4.608047
 30
0.0
  0
SEQEND
  5
1CC
100
AcDbEntity
  8
0
370
     0
390
0
  0
POLYLINE
  5
1CD
100
AcDbEntity
  8
0
370
    35
390
0
 62
     7
 48
0.03937
100
AcDb2dPolyline
 66
     1
 10
0.0
 20
0.0
 30
0.0
 71
     2
  0
VERTEX
  5
1CE
100
AcDbEntity
  8
0
370
     0
390
0
100
AcDbVertex
100
AcDb2dVertex
 10
4.551094
 20
4.588518
 30
0.0
 42
0.055723
  0
VERTEX
  5
1CF
100
AcDbEntity
  8
0
370
     0
390
0
100
AcDbVertex
100
AcDb2dVertex
 10
4.593771
 20
4.608053
 30
0.0
  0
SEQEND
  5
1D0
100
AcDbEntity
  8
0
370
     0
390
0
  0
SPLINE
  5
1D1
100
AcDbEntity
  8
0
370
    35
390
0
 62
     7
 48
0.03937
100
AcDbSpline
210
0.0
220
0.0
230
1.0
 70
     8
 71
     5
 72
    33
 73
    27
 74
     0
 42
0.0
 43
0.0
 40
0.0
 40
0.0
 40
0.0
 40
0.0
 40
0.0
 40
0.0
 40
6.5299595333263367
 40
6.5299595333263367
 40
6.5299595333263367
 40
9.4348588134507043
 40
9.4348588134507043
 40
9.4348588134507043
 40
13.055047451581217
 40
13.055047451581217
 40
13.055047451581217
 40
15.24201800934342
 40
15.24201800934342
 40
15.24201800934342
 40
18.913133075840282
 40
18.913133075840282
 40
18.913133075840282
 40
20.401974022403881
 40
20.401974022403881
 40
20.401974022403881
 40
21.868511914931027
 40
21.868511914931027
 40
21.868511914931027
 40
22.64676438624414
 40
22.64676438624414
 40
22.64676438624414
 40
22.64676438624414
 40
22.64676438624414
 40
22.64676438624414
 10
4.3533363277178667
 20
4.4090796221858826
 30
0.0
 10
4.3254751907661078
 20
4.409851509958421
 30
0.0
 10
4.2978028648086557
 20
4.4147728354581099
 30
0.0
 10
4.2710939557297527
 20
4.4238032852843263
 30
0.0
 10
4.2351482204371553
 20
4.4424164568175355
 30
0.0
 10
4.2044939921508382
 20
4.4678321168370898
 30
0.0
 10
4.1955712768572671
 20
4.4762841370380091
 30
0.0
 10
4.1768036875237859
 20
4.4966329810589158
 30
0.0
 10
4.1612628276707087
 20
4.5196353184764098
 30
0.0
 10
4.153780333815309
 20
4.5330452364984186
 30
0.0
 10
4.1436866931007135
 20
4.5553214701878817
 30
0.0
 10
4.1367105422531072
 20
4.5785301930409181
 30
0.0
 10
4.134544907427868
 20
4.5873262658618454
 30
0.0
 10
4.1299614370477364
 20
4.6110154451161192
 30
0.0
 10
4.1286051107815185
 20
4.6342958654438089
 30
0.0
 10
4.128908330489983
 20
4.6487538014824663
 30
0.0
 10
4.1309266995356086
 20
4.669044148944427
 30
0.0
 10
4.1354111855072002
 20
4.6894544341966204
 30
0.0
 10
4.1369176868441162
 20
4.6953541008749884
 30
0.0
 10
4.1403310561496509
 20
4.7070185987124811
 30
0.0
 10
4.1445504094483976
 20
4.7184697549721744
 30
0.0
 10
4.1468383741621393
 20
4.7240786362516118
 30
0.0
 10
4.1506166149113675
 20
4.7325113201394586
 30
0.0
 10
4.1548218129019405
 20
4.7407240234713655
 30
0.0
 10
4.1563308709642923
 20
4.7435445263157323
 30
0.0
 10
4.1578894310203838
 20
4.7463352759070485
 30
0.0
 10
4.1594972231164062
 20
4.749095990014303
 30
0.0
  0
SPLINE
  5
1D2
100
AcDbEntity
  8
0
370
    35
390
0
 62
     7
 48
0.03937
100
AcDbSpline
210
0.0
220
0.0
230
1.0
 70
     8
 71
     5
 72
    15
 73
     9
 74
     0
 42
0.0
 43
0.0
 40
0.0
 40
0.0
 40
0.0
 40
0.0
 40
0.0
 40
0.0
 40
7.1141820931977628
 40
7.1141820931977628
 40
7.1141820931977628
 40
11.815669708636143
 40
11.815669708636143
 40
11.815669708636143
 40
11.815669708636143
 40
11.815669708636143
 40
11.815669708636143
 10
4.5647202086905256
 20
4.5277216640532272
 30
0.0
 10
4.5492165577087089
 20
4.5009680863760488
 30
0.0
 10
4.5294546831714033
 20
4.4767854974503241
 30
0.0
 10
4.5059943704033802
 20
4.4560803499670412
 30
0.0
 10
4.4623037495526177
 20
4.4286569934695468
 30
0.0
 10
4.4134979491996678
 20
4.4138821089138256
 30
0.0
 10
4.3935535161800807
 20
4.4101191180631174
 30
0.0
 10
4.373395991128417
 20
4.4085238728241745
 30
0.0
 10
4.3533363277178667
 20
4.4090796221858826
 30
0.0
  0
POLYLINE
  5
1D3
100
AcDbEntity
  8
0
370
    35
390
0
 62
     7
 48
0.03937
100
AcDb2dPolyline
 66
     1
 10
0.0
 20
0.0
 30
0.0
 71
     2
  0
VERTEX
  5
1D4
100
AcDbEntity
  8
0
370
     0
390
0
100
AcDbVertex
100
AcDb2dVertex
 10
4.408205
 20
6.980688
 30
0.0
 42
0.040395
  0
VERTEX
  5
1D5
100
AcDbEntity
  8
0
370
     0
390
0
100
AcDbVertex
100
AcDb2dVertex
 10
4.375767
 20
6.986875
 30
0.0
  0
SEQEND
  5
1D6
100
AcDbEntity
  8
0
370
     0
390
0
  0
SPLINE
  5
1D7
100
AcDbEntity
  8
0
370
    35
390
0
 62
     7
 48
0.03937
100
AcDbSpline
210
0.0
220
0.0
230
1.0
 70
     8
 71
     5
 72
    30
 73
    24
 74
     0
 42
0.0
 43
0.0
 40
0.0
 40
0.0
 40
0.0
 40
0.0
 40
0.0
 40
0.0
 40
5.4131073108781012
 40
5.4131073108781012
 40
5.4131073108781012
 40
7.2088561075461417
 40
7.2088561075461417
 40
7.2088561075461417
 40
12.602044878726517
 40
12.602044878726517
 40
12.602044878726517
 40
13.49490520514078
 40
13.49490520514078
 40
13.49490520514078
 40
14.387765531555047
 40
14.387765531555047
 40
14.387765531555047
 40
16.154372404441794
 40
16.154372404441794
 40
16.154372404441794
 40
17.843826075666477
 40
17.843826075666477
 40
17.843826075666477
 40
17.843826075666477
 40
17.843826075666477
 40
17.843826075666477
 10
4.138927158948535
 20
6.7847024417704622
 30
0.0
 10
4.1396769536282463
 20
6.8064518682203463
 30
0.0
 10
4.1431798719114115
 20
6.8280503172916376
 30
0.0
 10
4.1494102742255405
 20
6.8491403045060659
 30
0.0
 10
4.1612612249850951
 20
6.8758346024519774
 30
0.0
 10
4.1771365279336772
 20
6.8997487778958302
 30
0.0
 10
4.1813360177624626
 20
6.905528702498958
 30
0.0
 10
4.1990537701724282
 20
6.9278745094632193
 30
0.0
 10
4.2204541883974773
 20
6.9471077872805518
 30
0.0
 10
4.2382794891485336
 20
6.9593905317243214
 30
0.0
 10
4.2605898721017148
 20
6.9708268878324295
 30
0.0
 10
4.2839419843050601
 20
6.9787380897163089
 30
0.0
 10
4.2872764552196188
 20
6.9797901081067755
 30
0.0
 10
4.2939985926861182
 20
6.981755146477771
 30
0.0
 10
4.3007591623523798
 20
6.983425698137677
 30
0.0
 10
4.3041350812605526
 20
6.9841843397599597
 30
0.0
 10
4.3141472876369038
 20
6.9862173049575356
 30
0.0
 10
4.3240310928868535
 20
6.9875953572732117
 30
0.0
 10
4.3305361995598819
 20
6.9882399307089944
 30
0.0
 10
4.3432848285570964
 20
6.9890079127758362
 30
0.0
 10
4.3562781960511652
 20
6.9887724334536614
 30
0.0
 10
4.3627360496574159
 20
6.9884103801925113
 30
0.0
 10
4.3692724695862797
 20
6.9877723692529266
 30
0.0
 10
4.3757670369047759
 20
6.9868750702744222
 30
0.0
  0
SPLINE
  5
1D8
100
AcDbEntity
  8
0
370
    35
390
0
 62
     7
 48
0.03937
100
AcDbSpline
210
0.0
220
0.0
230
1.0
 70
     8
 71
     5
 72
    21
 73
    15
 74
     0
 42
0.0
 43
0.0
 40
0.0
 40
0.0
 40
0.0
 40
0.0
 40
0.0
 40
0.0
 40
6.87859544782415
 40
6.87859544782415
 40
6.87859544782415
 40
9.1510632657630318
 40
9.1510632657630318
 40
9.1510632657630318
 40
10.277169427669335
 40
10.277169427669335
 40
10.277169427669335
 40
11.38051944900899
 40
11.38051944900899
 40
11.38051944900899
 40
11.38051944900899
 40
11.38051944900899
 40
11.38051944900899
 10
4.2476325616550801
 20
6.5890938311957301
 30
0.0
 10
4.2232319510680494
 20
6.6033043243202645
 30
0.0
 10
4.2011776981091451
 20
6.6213607859870995
 30
0.0
 10
4.1815360285053229
 20
6.6432170476707819
 30
0.0
 10
4.1608492356362401
 20
6.6769170420912332
 30
0.0
 10
4.1483446487361091
 20
6.7128283946132656
 30
0.0
 10
4.1457455871212101
 20
6.7218540703792868
 30
0.0
 10
4.1426227481550315
 20
6.7353692516016297
 30
0.0
 10
4.1406017175837873
 20
6.7489547177963205
 30
0.0
 10
4.1400514527238697
 20
6.7534652398444051
 30
0.0
 10
4.1391979748748531
 20
6.7624137255725421
 30
0.0
 10
4.1388121500549291
 20
6.7713853584246699
 30
0.0
 10
4.1387358810945925
 20
6.7758298279551417
 30
0.0
 10
4.1387743288008378
 20
6.7802692708105132
 30
0.0
 10
4.138927158948535
 20
6.7847024417704622
 30
0.0
  0
POLYLINE
  5
1D9
100
AcDbEntity
  8
0
370
    35
390
0
 62
     7
 48
0.03937
100
AcDb2dPolyline
 66
     1
 10
0.0
 20
0.0
 30
0.0
 71
     2
  0
VERTEX
  5
1DA
100
AcDbEntity
  8
0
370
     0
390
0
100
AcDbVertex
100
AcDb2dVertex
 10
4.469008
 20
6.994318
 30
0.0
 42
0.089172
  0
VERTEX
  5
1DB
100
AcDbEntity
  8
0
370
     0
390
0
100
AcDbVertex
100
AcDb2dVertex
 10
4.388681
 20
7.02337
 30
0.0
  0
SEQEND
  5
1DC
100
AcDbEntity
  8
0
370
     0
390
0
  0
POLYLINE
  5
1DD
100
AcDbEntity
  8
0
370
    35
390
0
 62
     7
 48
0.03937
100
AcDb2dPolyline
 66
     1
 10
0.0
 20
0.0
 30
0.0
 71
     2
  0
VERTEX
  5
1DE
100
AcDbEntity
  8
0
370
     0
390
0
100
AcDbVertex
100
AcDb2dVertex
 10
4.40821
 20
6.98069
 30
0.0
 42
0.055723
  0
VERTEX
  5
1DF
100
AcDbEntity
  8
0
370
     0
390
0
100
AcDbVertex
100
AcDb2dVertex
 10
4.388676
 20
7.023368
 30
0.0
  0
SEQEND
  5
1E0
100
AcDbEntity
  8
0
370
     0
390
0
  0
SPLINE
  5
1E1
100
AcDbEntity
  8
0
370
    35
390
0
 62
     7
 48
0.03937
100
AcDbSpline
210
0.0
220
0.0
230
1.0
 70
     8
 71
     5
 72
    33
 73
    27
 74
     0
 42
0.0
 43
0.0
 40
0.0
 40
0.0
 40
0.0
 40
0.0
 40
0.0
 40
0.0
 40
6.5299595417917731
 40
6.5299595417917731
 40
6.5299595417917731
 40
9.4348588347240785
 40
9.4348588347240785
 40
9.4348588347240785
 40
13.055047508189595
 40
13.055047508189595
 40
13.055047508189595
 40
15.242018520617464
 40
15.242018520617464
 40
15.242018520617464
 40
18.913131246126095
 40
18.913131246126095
 40
18.913131246126095
 40
20.401972151946428
 40
20.401972151946428
 40
20.401972151946428
 40
21.868508613234841
 40
21.868508613234841
 40
21.868508613234841
 40
22.646780735379366
 40
22.646780735379366
 40
22.646780735379366
 40
22.646780735379366
 40
22.646780735379366
 40
22.646780735379366
 10
4.5876489294834997
 20
6.7829329357971906
 30
0.0
 10
4.5868770417099611
 20
6.755071798809313
 30
0.0
 10
4.581955716197859
 20
6.727399472816141
 30
0.0
 10
4.5729252663631046
 20
6.700690563818962
 30
0.0
 10
4.5543120949123228
 20
6.6647448285930828
 30
0.0
 10
4.5288964348032463
 20
6.6340906001883146
 30
0.0
 10
4.5204444145704938
 20
6.6251678848805771
 30
0.0
 10
4.5000955705682832
 20
6.6064002955786725
 30
0.0
 10
4.4770932333027567
 20
6.5908594358257764
 30
0.0
 10
4.4636833153051461
 20
6.5833769419578507
 30
0.0
 10
4.4414070798550638
 20
6.5732833004246665
 30
0.0
 10
4.4181983549514072
 20
6.5663071492276917
 30
0.0
 10
4.4094022866919014
 20
6.5641415159206984
 30
0.0
 10
4.3857131369912024
 20
6.5595580521317824
 30
0.0
 10
4.362432814190087
 20
6.5582017275795135
 30
0.0
 10
4.3479749593185328
 20
6.5585049357659253
 30
0.0
 10
4.3276847121720516
 20
6.5605232669713507
 30
0.0
 10
4.3072744711262807
 20
6.5650077086849929
 30
0.0
 10
4.3013748094981228
 20
6.5665141980930439
 30
0.0
 10
4.2897103183757395
 20
6.5699275439596647
 30
0.0
 10
4.2782591581502771
 20
6.5741468760292676
 30
0.0
 10
4.2726502772774531
 20
6.5764348291577166
 30
0.0
 10
4.2642175178865802
 20
6.5802130856228969
 30
0.0
 10
4.2560047418512283
 20
6.5844183066714077
 30
0.0
 10
4.2531841662862133
 20
6.5859274003365398
 30
0.0
 10
4.2503933454702114
 20
6.5874859985030465
 30
0.0
 10
4.2476325616550792
 20
6.5890938311957301
 30
0.0
  0
SPLINE
  5
1E2
100
AcDbEntity
  8
0
370
    35
390
0
 62
     7
 48
0.03937
100
AcDbSpline
210
0.0
220
0.0
230
1.0
 70
     8
 71
     5
 72
    15
 73
     9
 74
     0
 42
0.0
 43
0.0
 40
0.0
 40
0.0
 40
0.0
 40
0.0
 40
0.0
 40
0.0
 40
7.1141820932500899
 40
7.1141820932500899
 40
7.1141820932500899
 40
11.815669708672035
 40
11.815669708672035
 40
11.815669708672035
 40
11.815669708672035
 40
11.815669708672035
 40
11.815669708672035
 10
4.4690068876161559
 20
6.9943168167698495
 30
0.0
 10
4.4957604652935306
 20
6.9788131657879182
 30
0.0
 10
4.5199430542195218
 20
6.9590512912512947
 30
0.0
 10
4.5406482017016456
 20
6.9355909784829786
 30
0.0
 10
4.5680715582000344
 20
6.8919003576322888
 30
0.0
 10
4.5828464427553133
 20
6.8430945572790849
 30
0.0
 10
4.5866094336064158
 20
6.8231501242592181
 30
0.0
 10
4.588204678845206
 20
6.8029925992076707
 30
0.0
 10
4.5876489294834997
 20
6.7829329357971906
 30
0.0
  0
POLYLINE
  5
1E3
100
AcDbEntity
  8
0
370
    35
390
0
 62
     7
 48
0.03937
100
AcDb2dPolyline
 66
     1
 10
0.0
 20
0.0
 30
0.0
 71
     2
  0
VERTEX
  5
1E4
100
AcDbEntity
  8
0
370
     0
390
0
100
AcDbVertex
100
AcDb2dVertex
 10
2.016041
 20
6.837802
 30
0.0
 42
0.040395
  0
VERTEX
  5
1E5
100
AcDbEntity
  8
0
370
     0
390
0
100
AcDbVertex
100
AcDb2dVertex
 10
2.009854
 20
6.805364
 30
0.0
  0
SEQEND
  5
1E6
100
AcDbEntity
  8
0
370
     0
390
0
  0
SPLINE
  5
1E7
100
AcDbEntity
  8
0
370
    35
390
0
 62
     7
 48
0.03937
100
AcDbSpline
210
0.0
220
0.0
230
1.0
 70
     8
 71
     5
 72
    30
 73
    24
 74
     0
 42
0.0
 43
0.0
 40
0.0
 40
0.0
 40
0.0
 40
0.0
 40
0.0
 40
0.0
 40
5.413107614360003
 40
5.413107614360003
 40
5.413107614360003
 40
7.208856510995175
 40
7.208856510995175
 40
7.208856510995175
 40
12.602045643319661
 40
12.602045643319661
 40
12.602045643319661
 40
13.494906020130344
 40
13.494906020130344
 40
13.494906020130344
 40
14.387766396941014
 40
14.387766396941014
 40
14.387766396941014
 40
16.154373255202788
 40
16.154373255202788
 40
16.154373255202788
 40
17.843826856837772
 40
17.843826856837772
 40
17.843826856837772
 40
17.843826856837772
 40
17.843826856837772
 40
17.843826856837772
 10
2.2120261098989196
 20
6.5685237670278598
 30
0.0
 10
2.1902766822296695
 20
6.5692735617496076
 30
0.0
 10
2.1686782319559423
 20
6.5727764803834967
 30
0.0
 10
2.1475882436699734
 20
6.5790068833500701
 30
0.0
 10
2.1208939445493495
 20
6.5908578353024216
 30
0.0
 10
2.096979768295685
 20
6.6067331398284157
 30
0.0
 10
2.0911998435153225
 20
6.6109326300733047
 30
0.0
 10
2.068854035760515
 20
6.628650384370923
 30
0.0
 10
2.0496207573910046
 20
6.6500508051337315
 30
0.0
 10
2.037338012972175
 20
6.6678761080631439
 30
0.0
 10
2.0259016575505138
 20
6.6901864934347337
 30
0.0
 10
2.0179904569682723
 20
6.71353860771847
 30
0.0
 10
2.0169384387835736
 20
6.7168730788831352
 30
0.0
 10
2.0149734008211597
 20
6.7235952169532318
 30
0.0
 10
2.0133028496928813
 20
6.7303557868475048
 30
0.0
 10
2.0125442083763754
 20
6.7337317057069734
 30
0.0
 10
2.0105112442584487
 20
6.7437439109327171
 30
0.0
 10
2.0091331930621386
 20
6.7536277134442493
 30
0.0
 10
2.0084886202608923
 20
6.7601328175154736
 30
0.0
 10
2.0077206389529572
 20
6.7728814414301501
 30
0.0
 10
2.007956118351625
 20
6.7858748056310176
 30
0.0
 10
2.0083181715294409
 20
6.7923326582752805
 30
0.0
 10
2.0089561824534163
 20
6.7988690779331202
 30
0.0
 10
2.0098534813949605
 20
6.8053636449841015
 30
0.0
  0
SPLINE
  5
1E8
100
AcDbEntity
  8
0
370
    35
390
0
 62
     7
 48
0.03937
100
AcDbSpline
210
0.0
220
0.0
230
1.0
 70
     8
 71
     5
 72
    21
 73
    15
 74
     0
 42
0.0
 43
0.0
 40
0.0
 40
0.0
 40
0.0
 40
0.0
 40
0.0
 40
0.0
 40
6.8785958492575299
 40
6.8785958492575299
 40
6.8785958492575299
 40
9.1510638536930493
 40
9.1510638536930493
 40
9.1510638536930493
 40
10.277170152209811
 40
10.277170152209811
 40
10.277170152209811
 40
11.380520320141345
 40
11.380520320141345
 40
11.380520320141345
 40
11.380520320141345
 40
11.380520320141345
 40
11.380520320141345
 10
2.4076347204736521
 20
6.6772291697344039
 30
0.0
 10
2.3934242265197967
 20
6.6528285577233595
 30
0.0
 10
2.3753677635745394
 20
6.6307743036147073
 30
0.0
 10
2.3535115025653321
 20
6.6111326368675458
 30
0.0
 10
2.3198115138605364
 20
6.5904458462649718
 30
0.0
 10
2.2839001634454053
 20
6.577941258825259
 30
0.0
 10
2.2748744877301701
 20
6.5753421968882879
 30
0.0
 10
2.2613593058344477
 20
6.5722193573290468
 30
0.0
 10
2.2477738384595591
 20
6.5701983262544434
 30
0.0
 10
2.243263315860661
 20
6.569648061235033
 30
0.0
 10
2.2343148290066073
 20
6.5687945831260253
 30
0.0
 10
2.2253431950161904
 20
6.5684087581646784
 30
0.0
 10
2.2208987248938921
 20
6.5683324891636952
 30
0.0
 10
2.2164592814478628
 20
6.5683709368598571
 30
0.0
 10
2.2120261098989196
 20
6.5685237670278598
 30
0.0
  0
POLYLINE
  5
1E9
100
AcDbEntity
  8
0
370
    35
390
0
 62
     7
 48
0.03937
100
AcDb2dPolyline
 66
     1
 10
0.0
 20
0.0
 30
0.0
 71
     2
  0
VERTEX
  5
1EA
100
AcDbEntity
  8
0
370
     0
390
0
100
AcDbVertex
100
AcDb2dVertex
 10
2.002411
 20
6.898604
 30
0.0
 42
0.089172
  0
VERTEX
  5
1EB
100
AcDbEntity
  8
0
370
     0
390
0
100
AcDbVertex
100
AcDb2dVertex
 10
1.973359
 20
6.818278
 30
0.0
  0
SEQEND
  5
1EC
100
AcDbEntity
  8
0
370
     0
390
0
  0
POLYLINE
  5
1ED
100
AcDbEntity
  8
0
370
    35
390
0
 62
     7
 48
0.03937
100
AcDb2dPolyline
 66
     1
 10
0.0
 20
0.0
 30
0.0
 71
     2
  0
VERTEX
  5
1EE
100
AcDbEntity
  8
0
370
     0
390
0
100
AcDbVertex
100
AcDb2dVertex
 10
2.016038
 20
6.837807
 30
0.0
 42
0.055723
  0
VERTEX
  5
1EF
100
AcDbEntity
  8
0
370
     0
390
0
100
AcDbVertex
100
AcDb2dVertex
 10
1.973361
 20
6.818272
 30
0.0
  0
SEQEND
  5
1F0
100
AcDbEntity
  8
0
370
     0
390
0
  0
SPLINE
  5
1F1
100
AcDbEntity
  8
0
370
    35
390
0
 62
     7
 48
0.03937
100
AcDbSpline
210
0.0
220
0.0
230
1.0
 70
     8
 71
     5
 72
    33
 73
    27
 74
     0
 42
0.0
 43
0.0
 40
0.0
 40
0.0
 40
0.0
 40
0.0
 40
0.0
 40
0.0
 40
6.5299595465148688
 40
6.5299595465148688
 40
6.5299595465148688
 40
9.4348588431384268
 40
9.4348588431384268
 40
9.4348588431384268
 40
13.055047477801295
 40
13.055047477801295
 40
13.055047477801295
 40
15.242017601410753
 40
15.242017601410753
 40
15.242017601410753
 40
18.913135012882762
 40
18.913135012882762
 40
18.913135012882762
 40
20.401976016093606
 40
20.401976016093606
 40
20.401976016093606
 40
21.868515331075564
 40
21.868515331075564
 40
21.868515331075564
 40
22.646748200183072
 40
22.646748200183072
 40
22.646748200183072
 40
22.646748200183072
 40
22.646748200183072
 40
22.646748200183072
 10
2.2137956158721916
 20
7.0172455375628244
 30
0.0
 10
2.2416567528802216
 20
7.0164736497887272
 30
0.0
 10
2.2693290788933624
 20
7.011552324270264
 30
0.0
 10
2.2960379878454673
 20
7.0025218744297462
 30
0.0
 10
2.3319837230189928
 20
6.9839087030330047
 30
0.0
 10
2.3626379514813491
 20
6.9584930428856211
 30
0.0
 10
2.3715606668294749
 20
6.9500410226230436
 30
0.0
 10
2.3903282562005312
 20
6.9296921785281338
 30
0.0
 10
2.4058691160758139
 20
6.9066898410146171
 30
0.0
 10
2.4133516099125503
 20
6.8932799229816357
 30
0.0
 10
2.4234452498405847
 20
6.8710036909492684
 30
0.0
 10
2.430421400365895
 20
6.847794969908958
 30
0.0
 10
2.4325870366949744
 20
6.8389988924866127
 30
0.0
 10
2.4371705135907753
 20
6.8153096837120728
 30
0.0
 10
2.438526841490726
 20
6.792029166303954
 30
0.0
 10
2.4382236102757449
 20
6.7775711495065805
 30
0.0
 10
2.4362052035144695
 20
6.7572807021749366
 30
0.0
 10
2.4317206734082393
 20
6.7368703728398494
 30
0.0
 10
2.4302141601624725
 20
6.7309707010778688
 30
0.0
 10
2.426800767466085
 20
6.719306196511214
 30
0.0
 10
2.4225813929700477
 20
6.7078550441623008
 30
0.0
 10
2.4202934167047325
 20
6.7022461624937293
 30
0.0
 10
2.4165151916406251
 20
6.6938135539421939
 30
0.0
 10
2.4123100166609506
 20
6.6856009231529239
 30
0.0
 10
2.4108009941133872
 20
6.6827804928491883
 30
0.0
 10
2.40924247207347
 20
6.679989814306273
 30
0.0
 10
2.4076347204736526
 20
6.6772291697344039
 30
0.0
  0
SPLINE
  5
1F2
100
AcDbEntity
  8
0
370
    35
390
0
 62
     7
 48
0.03937
100
AcDbSpline
210
0.0
220
0.0
230
1.0
 70
     8
 71
     5
 72
    15
 73
     9
 74
     0
 42
0.0
 43
0.0
 40
0.0
 40
0.0
 40
0.0
 40
0.0
 40
0.0
 40
0.0
 40
7.1141820933778286
 40
7.1141820933778286
 40
7.1141820933778286
 40
11.815669708934633
 40
11.815669708934633
 40
11.815669708934633
 40
11.815669708934633
 40
11.815669708934633
 40
11.815669708934633
 10
2.0024117348995323
 20
6.8986034956954807
 30
0.0
 10
2.017915385881742
 20
6.9253570733733349
 30
0.0
 10
2.0376772604190112
 20
6.9495396622995536
 30
0.0
 10
2.0611375731856882
 20
6.9702448097799516
 30
0.0
 10
2.1048281940369242
 20
6.9976681662797962
 30
0.0
 10
2.1536339943914942
 20
7.0124430508347855
 30
0.0
 10
2.1735784274090095
 20
7.0162060416855301
 30
0.0
 10
2.1937359524611373
 20
7.0178012869245467
 30
0.0
 10
2.2137956158721925
 20
7.0172455375628244
 30
0.0
  0
CIRCLE
  5
1F3
100
AcDbEntity
  8
0
370
    35
390
0
 62
     7
 48
0.03937
100
AcDbCircle
 10
3.283566
 20
5.713163
 30
0.0
 40
0.485089
210
0.0
220
0.0
230
1.0
  0
POLYLINE
  5
1F4
100
AcDbEntity
  8
0
370
    35
390
0
 62
     7
 48
0.03937
100
AcDb2dPolyline
 66
     1
 10
0.0
 20
0.0
 30
0.0
 71
     2
  0
VERTEX
  5
1F5
100
AcDbEntity
  8
0
370
     0
390
0
100
AcDbVertex
100
AcDb2dVertex
 10
2.009854
 20
6.805365
 30
0.0
 42
1.055371
  0
VERTEX
  5
1F6
100
AcDbEntity
  8
0
370
     0
390
0
100
AcDbVertex
100
AcDb2dVertex
 10
2.418082
 20
6.783354
 30
0.0
  0
SEQEND
  5
1F7
100
AcDbEntity
  8
0
370
     0
390
0
  0
POLYLINE
  5
1F8
100
AcDbEntity
  8
0
370
    35
390
0
 62
     7
 48
0.03937
100
AcDb2dPolyline
 66
     1
 10
0.0
 20
0.0
 30
0.0
 71
     2
  0
VERTEX
  5
1F9
100
AcDbEntity
  8
0
370
     0
390
0
100
AcDbVertex
100
AcDb2dVertex
 10
4.451899
 20
6.963002
 30
0.0
 42
1.287427
  0
VERTEX
  5
1FA
100
AcDbEntity
  8
0
370
     0
390
0
100
AcDbVertex
100
AcDb2dVertex
 10
4.353757
 20
6.578646
 30
0.0
  0
SEQEND
  5
1FB
100
AcDbEntity
  8
0
370
     0
390
0
  0
POLYLINE
  5
1FC
100
AcDbEntity
  8
0
370
    35
390
0
 62
     7
 48
0.03937
100
AcDb2dPolyline
 66
     1
 10
0.0
 20
0.0
 30
0.0
 71
     2
  0
VERTEX
  5
1FD
100
AcDbEntity
  8
0
370
     0
390
0
100
AcDbVertex
100
AcDb2dVertex
 10
4.533405
 20
4.544829
 30
0.0
 42
1.287427
  0
VERTEX
  5
1FE
100
AcDbEntity
  8
0
370
     0
390
0
100
AcDbVertex
100
AcDb2dVertex
 10
4.14905
 20
4.642971
 30
0.0
  0
SEQEND
  5
1FF
100
AcDbEntity
  8
0
370
     0
390
0
  0
POLYLINE
  5
200
100
AcDbEntity
  8
0
370
    35
390
0
 62
     7
 48
0.03937
100
AcDb2dPolyline
 66
     1
 10
0.0
 20
0.0
 30
0.0
 71
     2
  0
VERTEX
  5
201
100
AcDbEntity
  8
0
370
     0
390
0
100
AcDbVertex
100
AcDb2dVertex
 10
4.14905
 20
4.642971
 30
0.0
 42
0.8737
  0
VERTEX
  5
202
100
AcDbEntity
  8
0
370
     0
390
0
100
AcDbVertex
100
AcDb2dVertex
 10
4.551091
 20
4.588523
 30
0.0
  0
SEQEND
  5
203
100
AcDbEntity
  8
0
370
     0
390
0
  0
POLYLINE
  5
204
100
AcDbEntity
  8
0
370
    35
390
0
 62
     7
 48
0.03937
100
AcDb2dPolyline
 66
     1
 10
0.0
 20
0.0
 30
0.0
 71
     2
  0
VERTEX
  5
205
100
AcDbEntity
  8
0
370
     0
390
0
100
AcDbVertex
100
AcDb2dVertex
 10
4.353757
 20
6.578646
 30
0.0
 42
0.8737
  0
VERTEX
  5
206
100
AcDbEntity
  8
0
370
     0
390
0
100
AcDbVertex
100
AcDb2dVertex
 10
4.408205
 20
6.980688
 30
0.0
  0
SEQEND
  5
207
100
AcDbEntity
  8
0
370
     0
390
0
  0
POLYLINE
  5
208
100
AcDbEntity
  8
0
370
    35
390
0
 62
     7
 48
0.03937
100
AcDb2dPolyline
 66
     1
 10
0.0
 20
0.0
 30
0.0
 71
     2
  0
VERTEX
  5
209
100
AcDbEntity
  8
0
370
     0
390
0
100
AcDbVertex
100
AcDb2dVertex
 10
2.418082
 20
6.783354
 30
0.0
 42
0.8737
  0
VERTEX
  5
20A
100
AcDbEntity
  8
0
370
     0
390
0
100
AcDbVertex
100
AcDb2dVertex
 10
2.016041
 20
6.837802
 30
0.0
  0
SEQEND
  5
20B
100
AcDbEntity
  8
0
370
     0
390
0
  0
LINE
  5
20C
100
AcDbEntity
  8
0
370
    35
390
0
 62
     7
 48
0.03937
100
AcDbLine
 10
2.798476
 20
1.353077
 30
0.0
 11
2.798476
 21
2.626437
 31
0.0
210
0.0
220
0.0
230
1.0
  0
LINE
  5
20D
100
AcDbEntity
  8
0
370
    35
390
0
 62
     7
 48
0.012127
100
AcDbLine
 10
2.798476
 20
2.626437
 30
0.0
 11
2.313387
 21
2.626437
 31
0.0
210
0.0
220
0.0
230
1.0
  0
LINE
  5
20E
100
AcDbEntity
  8
0
370
    35
390
0
 62
     7
 48
0.001516
100
AcDbLine
 10
2.313387
 20
2.565801
 30
0.0
 11
2.313387
 21
2.626437
 31
0.0
210
0.0
220
0.0
230
1.0
  0
LINE
  5
20F
100
AcDbEntity
  8
0
370
    35
390
0
 62
     7
 48
0.03937
100
AcDbLine
 10
2.313387
 20
2.565801
 30
0.0
 11
1.221936
 21
2.565801
 31
0.0
210
0.0
220
0.0
230
1.0
  0
LINE
  5
210
100
AcDbEntity
  8
0
370
    35
390
0
 62
     7
 48
0.03937
100
AcDbLine
 10
1.221936
 20
1.353077
 30
0.0
 11
1.221936
 21
2.565801
 31
0.0
210
0.0
220
0.0
230
1.0
  0
LINE
  5
211
100
AcDbEntity
  8
0
370
    35
390
0
 62
     7
 48
0.03937
100
AcDbLine
 10
2.798476
 20
1.353077
 30
0.0
 11
1.221936
 21
1.353077
 31
0.0
210
0.0
220
0.0
230
1.0
  0
LINE
  5
212
100
AcDbEntity
  8
0
370
    35
390
0
 62
     7
 48
0.03937
100
AcDbLine
 10
5.345196
 20
1.353077
 30
0.0
 11
3.768655
 21
1.353077
 31
0.0
210
0.0
220
0.0
230
1.0
  0
LINE
  5
213
100
AcDbEntity
  8
0
370
    35
390
0
 62
     7
 48
0.03937
100
AcDbLine
 10
5.345196
 20
1.353077
 30
0.0
 11
5.345196
 21
2.565801
 31
0.0
210
0.0
220
0.0
230
1.0
  0
LINE
  5
214
100
AcDbEntity
  8
0
370
    35
390
0
 62
     7
 48
0.03937
100
AcDbLine
 10
5.345196
 20
2.565801
 30
0.0
 11
4.253745
 21
2.565801
 31
0.0
210
0.0
220
0.0
230
1.0
  0
LINE
  5
215
100
AcDbEntity
  8
0
370
    35
390
0
 62
     7
 48
0.001516
100
AcDbLine
 10
4.253745
 20
2.565801
 30
0.0
 11
4.253745
 21
2.626437
 31
0.0
210
0.0
220
0.0
230
1.0
  0
LINE
  5
216
100
AcDbEntity
  8
0
370
    35
390
0
 62
     7
 48
0.012127
100
AcDbLine
 10
4.253745
 20
2.626437
 30
0.0
 11
3.768655
 21
2.626437
 31
0.0
210
0.0
220
0.0
230
1.0
  0
LINE
  5
217
100
AcDbEntity
  8
0
370
    35
390
0
 62
     7
 48
0.03937
100
AcDbLine
 10
3.768655
 20
1.353077
 30
0.0
 11
3.768655
 21
2.626437
 31
0.0
210
0.0
220
0.0
230
1.0
  0
POLYLINE
  5
218
100
AcDbEntity
  8
0
370
    35
390
0
 62
     7
 48
0.03937
100
AcDb2dPolyline
 66
     1
 10
0.0
 20
0.0
 30
0.0
 71
     2
  0
VERTEX
  5
219
100
AcDbEntity
  8
0
370
     0
390
0
100
AcDbVertex
100
AcDb2dVertex
 10
7.048035
 20
4.56594
 30
0.0
 42
0.021265
  0
VERTEX
  5
21A
100
AcDbEntity
  8
0
370
     0
390
0
100
AcDbVertex
100
AcDb2dVertex
 10
7.047263
 20
4.538301
 30
0.0
  0
SEQEND
  5
21B
100
AcDbEntity
  8
0
370
     0
390
0
  0
SPLINE
  5
21C
100
AcDbEntity
  8
0
370
    35
390
0
 62
     7
 48
0.03937
100
AcDbSpline
210
0.0
220
0.0
230
1.0
 70
     8
 71
     5
 72
    15
 73
     9
 74
     0
 42
0.0
 43
0.0
 40
0.0
 40
0.0
 40
0.0
 40
0.0
 40
0.0
 40
0.0
 40
6.0750570408149533
 40
6.0750570408149533
 40
6.0750570408149533
 40
8.7478996672486282
 40
8.7478996672486282
 40
8.7478996672486282
 40
8.7478996672486282
 40
8.7478996672486282
 40
8.7478996672486282
 10
7.1252918896417912
 20
4.3140843049782491
 30
0.0
 10
7.1052754957758539
 20
4.3388907760032991
 30
0.0
 10
7.0880102110430494
 20
4.3675734550535301
 30
0.0
 10
7.0738871887459354
 20
4.398676744049892
 30
0.0
 10
7.0583124686836225
 20
4.4456247600532555
 30
0.0
 10
7.0502119307165261
 20
4.4939755092565408
 30
0.0
 10
7.0484608999787808
 20
4.5088053031995807
 30
0.0
 10
7.0474656287669752
 20
4.5236122752039245
 30
0.0
 10
7.0472622275766268
 20
4.5383014713604828
 30
0.0
  0
POLYLINE
  5
21D
100
AcDbEntity
  8
0
370
    35
390
0
 62
     7
 48
0.03937
100
AcDb2dPolyline
 66
     1
 10
0.0
 20
0.0
 30
0.0
 71
     2
  0
VERTEX
  5
21E
100
AcDbEntity
  8
0
370
     0
390
0
100
AcDbVertex
100
AcDb2dVertex
 10
7.046396
 20
4.554367
 30
0.0
 42
0.029225
  0
VERTEX
  5
21F
100
AcDbEntity
  8
0
370
     0
390
0
100
AcDbVertex
100
AcDb2dVertex
 10
7.044633
 20
4.523118
 30
0.0
  0
SEQEND
  5
220
100
AcDbEntity
  8
0
370
     0
390
0
  0
POLYLINE
  5
221
100
AcDbEntity
  8
0
370
    35
390
0
 62
     7
 48
0.03937
100
AcDb2dPolyline
 66
     1
 10
0.0
 20
0.0
 30
0.0
 71
     2
  0
VERTEX
  5
222
100
AcDbEntity
  8
0
370
     0
390
0
100
AcDbVertex
100
AcDb2dVertex
 10
7.048158
 20
4.566665
 30
0.0
 42
0.012962
  0
VERTEX
  5
223
100
AcDbEntity
  8
0
370
     0
390
0
100
AcDbVertex
100
AcDb2dVertex
 10
7.046399
 20
4.554367
 30
0.0
  0
SEQEND
  5
224
100
AcDbEntity
  8
0
370
     0
390
0
  0
SPLINE
  5
225
100
AcDbEntity
  8
0
370
    35
390
0
 62
     7
 48
0.03937
100
AcDbSpline
210
0.0
220
0.0
230
1.0
 70
     8
 71
     5
 72
    15
 73
     9
 74
     0
 42
0.0
 43
0.0
 40
0.0
 40
0.0
 40
0.0
 40
0.0
 40
0.0
 40
0.0
 40
6.0893421128340108
 40
6.0893421128340108
 40
6.0893421128340108
 40
10.058297499516849
 40
10.058297499516849
 40
10.058297499516849
 40
10.058297499516849
 40
10.058297499516849
 40
10.058297499516849
 10
7.0432077977972982
 20
4.5191085781416271
 30
0.0
 10
7.0435320269852149
 20
4.4938120521385123
 30
0.0
 10
7.0466164178072299
 20
4.4679233770670095
 30
0.0
 10
7.0522977800907576
 20
4.4422007102290184
 30
0.0
 10
7.0655938057938519
 20
4.4010688249365133
 30
0.0
 10
7.0847660277255748
 20
4.3638956358737389
 30
0.0
 10
7.0932365449638199
 20
4.349912987949935
 30
0.0
 10
7.10253040941772
 20
4.3369515892337711
 30
0.0
 10
7.1124215143324383
 20
4.3253156810744366
 30
0.0
  0
POLYLINE
  5
226
100
AcDbEntity
  8
0
370
    35
390
0
 62
     7
 48
0.03937
100
AcDb2dPolyline
 66
     1
 10
0.0
 20
0.0
 30
0.0
 71
     2
  0
VERTEX
  5
227
100
AcDbEntity
  8
0
370
     0
390
0
100
AcDbVertex
100
AcDb2dVertex
 10
7.047044
 20
4.568162
 30
0.0
 42
0.047347
  0
VERTEX
  5
228
100
AcDbEntity
  8
0
370
     0
390
0
100
AcDbVertex
100
AcDb2dVertex
 10
7.043218
 20
4.519109
 30
0.0
  0
SEQEND
  5
229
100
AcDbEntity
  8
0
370
     0
390
0
  0
SPLINE
  5
22A
100
AcDbEntity
  8
0
370
    35
390
0
 62
     7
 48
0.03937
100
AcDbSpline
210
0.0
220
0.0
230
1.0
 70
     8
 71
     5
 72
    15
 73
     9
 74
     0
 42
0.0
 43
0.0
 40
0.0
 40
0.0
 40
0.0
 40
0.0
 40
0.0
 40
0.0
 40
9.2591229607472929
 40
9.2591229607472929
 40
9.2591229607472929
 40
10.243929917143253
 40
10.243929917143253
 40
10.243929917143253
 40
10.243929917143253
 40
10.243929917143253
 40
10.243929917143253
 10
7.0446307481730672
 20
4.5231175590924515
 30
0.0
 10
7.0446526100043334
 20
4.4847592769031168
 30
0.0
 10
7.0510876550108073
 20
4.4448846830349744
 30
0.0
 10
7.0633708749961457
 20
4.4060225163601716
 30
0.0
 10
7.082633857690225
 20
4.366697382652216
 30
0.0
 10
7.1066820121522305
 20
4.3346093368186533
 30
0.0
 10
7.1090375420571625
 20
4.3315934386661858
 30
0.0
 10
7.1114329854986957
 20
4.3286523938352452
 30
0.0
 10
7.1138674570982428
 20
4.3257883272160047
 30
0.0
  0
POLYLINE
  5
22B
100
AcDbEntity
  8
0
370
    35
390
0
 62
     7
 48
0.03937
100
AcDb2dPolyline
 66
     1
 10
0.0
 20
0.0
 30
0.0
 71
     2
  0
VERTEX
  5
22C
100
AcDbEntity
  8
0
370
     0
390
0
100
AcDbVertex
100
AcDb2dVertex
 10
7.113868
 20
4.325788
 30
0.0
 42
0.010948
  0
VERTEX
  5
22D
100
AcDbEntity
  8
0
370
     0
390
0
100
AcDbVertex
100
AcDb2dVertex
 10
7.120096
 20
4.318774
 30
0.0
  0
SEQEND
  5
22E
100
AcDbEntity
  8
0
370
     0
390
0
  0
LINE
  5
22F
100
AcDbEntity
  8
0
370
    35
390
0
 62
     7
 48
0.000186
100
AcDbLine
 10
7.120096
 20
4.318774
 30
0.0
 11
7.125259
 21
4.313414
 31
0.0
210
0.0
220
0.0
230
1.0
  0
POLYLINE
  5
230
100
AcDbEntity
  8
0
370
    35
390
0
 62
     7
 48
0.03937
100
AcDb2dPolyline
 66
     1
 10
0.0
 20
0.0
 30
0.0
 71
     2
  0
VERTEX
  5
231
100
AcDbEntity
  8
0
370
     0
390
0
100
AcDbVertex
100
AcDb2dVertex
 10
6.991769
 20
4.547548
 30
0.0
 42
0.021265
  0
VERTEX
  5
232
100
AcDbEntity
  8
0
370
     0
390
0
100
AcDbVertex
100
AcDb2dVertex
 10
6.990998
 20
4.51991
 30
0.0
  0
SEQEND
  5
233
100
AcDbEntity
  8
0
370
     0
390
0
  0
SPLINE
  5
234
100
AcDbEntity
  8
0
370
    35
390
0
 62
     7
 48
0.03937
100
AcDbSpline
210
0.0
220
0.0
230
1.0
 70
     8
 71
     5
 72
    15
 73
     9
 74
     0
 42
0.0
 43
0.0
 40
0.0
 40
0.0
 40
0.0
 40
0.0
 40
0.0
 40
0.0
 40
6.1922135049737816
 40
6.1922135049737816
 40
6.1922135049737816
 40
8.9240812970368921
 40
8.9240812970368921
 40
8.9240812970368921
 40
8.9240812970368921
 40
8.9240812970368921
 40
8.9240812970368921
 10
7.071958274880104
 20
4.2921206814449091
 30
0.0
 10
7.0512322059409858
 20
4.3169382992369334
 30
0.0
 10
7.0333231634673332
 20
4.3459224789572861
 30
0.0
 10
7.0186698224911535
 20
4.3774927399259287
 30
0.0
 10
7.0024872885662912
 20
4.4252892776395907
 30
0.0
 10
6.9940635610696891
 20
4.474601051300052
 30
0.0
 10
6.9922397635236111
 20
4.4897593566321925
 30
0.0
 10
6.991204640551782
 20
4.5048959705296285
 30
0.0
 10
6.990996747581355
 20
4.5199095525015984
 30
0.0
  0
POLYLINE
  5
235
100
AcDbEntity
  8
0
370
    35
390
0
 62
     7
 48
0.03937
100
AcDb2dPolyline
 66
     1
 10
0.0
 20
0.0
 30
0.0
 71
     2
  0
VERTEX
  5
236
100
AcDbEntity
  8
0
370
     0
390
0
100
AcDbVertex
100
AcDb2dVertex
 10
7.112422
 20
4.325316
 30
0.0
 42
0.02268
  0
VERTEX
  5
237
100
AcDbEntity
  8
0
370
     0
390
0
100
AcDbVertex
100
AcDb2dVertex
 10
7.125163
 20
4.311603
 30
0.0
  0
SEQEND
  5
238
100
AcDbEntity
  8
0
370
     0
390
0
  0
POLYLINE
  5
239
100
AcDbEntity
  8
0
370
    35
390
0
 62
     7
 48
0.03937
100
AcDb2dPolyline
 66
     1
 10
0.0
 20
0.0
 30
0.0
 71
     2
  0
VERTEX
  5
23A
100
AcDbEntity
  8
0
370
     0
390
0
100
AcDbVertex
100
AcDb2dVertex
 10
6.990131
 20
4.535976
 30
0.0
 42
0.029225
  0
VERTEX
  5
23B
100
AcDbEntity
  8
0
370
     0
390
0
100
AcDbVertex
100
AcDb2dVertex
 10
6.988368
 20
4.504726
 30
0.0
  0
SEQEND
  5
23C
100
AcDbEntity
  8
0
370
     0
390
0
  0
ELLIPSE
  5
23D
100
AcDbEntity
  8
0
370
    35
390
0
 62
     7
 48
0.03937
100
AcDbEllipse
 10
7.134828
 20
4.449299
 30
0.0
 11
0.0646716206079763
 21
-0.2085978243137217
 31
0.0
210
0.0
220
0.0
230
1.0
 40
0.629981
 41
3.6958702112511195
 42
4.0994477697852236
  0
SPLINE
  5
23E
100
AcDbEntity
  8
0
370
    35
390
0
 62
     7
 48
0.03937
100
AcDbSpline
210
0.0
220
0.0
230
1.0
 70
     8
 71
     5
 72
    15
 73
     9
 74
     0
 42
0.0
 43
0.0
 40
0.0
 40
0.0
 40
0.0
 40
0.0
 40
0.0
 40
0.0
 40
6.0893453431691285
 40
6.0893453431691285
 40
6.0893453431691285
 40
10.058298517217724
 40
10.058298517217724
 40
10.058298517217724
 40
10.058298517217724
 40
10.058298517217724
 40
10.058298517217724
 10
6.9869423178020256
 20
4.5007166592827437
 30
0.0
 10
6.9872665471728403
 20
4.4754201198621404
 30
0.0
 10
6.9903509433690996
 20
4.4495314243691846
 30
0.0
 10
6.9960323184227979
 20
4.4238087312281502
 30
0.0
 10
7.0093283620491853
 20
4.3826768295369858
 30
0.0
 10
7.0285005976698578
 20
4.3455036386981538
 30
0.0
 10
7.0369711050870762
 20
4.3315210194581146
 30
0.0
 10
7.0462649472664189
 20
4.3185596519578331
 30
0.0
 10
7.0561560352955119
 20
4.3069237625288137
 30
0.0
  0
ELLIPSE
  5
23F
100
AcDbEntity
  8
0
370
    35
390
0
 62
     7
 48
0.03937
100
AcDbEllipse
 10
7.131776
 20
4.450279
 30
0.0
 11
0.0627948929326395
 21
-0.2071424144714343
 31
0.0
210
0.0
220
0.0
230
1.0
 40
0.630192
 41
3.6941373898202507
 42
4.2821158653450899
  0
SPLINE
  5
240
100
AcDbEntity
  8
0
370
    35
390
0
 62
     7
 48
0.03937
100
AcDbSpline
210
0.0
220
0.0
230
1.0
 70
     8
 71
     5
 72
    15
 73
     9
 74
     0
 42
0.0
 43
0.0
 40
0.0
 40
0.0
 40
0.0
 40
0.0
 40
0.0
 40
0.0
 40
6.1917469864272663
 40
6.1917469864272663
 40
6.1917469864272663
 40
10.230227217825046
 40
10.230227217825046
 40
10.230227217825046
 40
10.230227217825046
 40
10.230227217825046
 40
10.230227217825046
 10
6.9883652681777955
 20
4.504725640233568
 30
0.0
 10
6.9883798875948653
 20
4.4790747466045362
 30
0.0
 10
6.9912623818532671
 20
4.45274577665342
 30
0.0
 10
6.9968426574733478
 20
4.4265635327689408
 30
0.0
 10
7.0101046060249743
 20
4.3846618233193873
 30
0.0
 10
7.0295057375630821
 20
4.3467039614256446
 30
0.0
 10
7.0381034872241397
 20
4.3324322620301716
 30
0.0
 10
7.0475462909871585
 20
4.3192265033004951
 30
0.0
 10
7.0576019588261776
 20
4.3073964023828477
 30
0.0
  0
POLYLINE
  5
241
100
AcDbEntity
  8
0
370
    35
390
0
 62
     7
 48
0.03937
100
AcDb2dPolyline
 66
     1
 10
0.0
 20
0.0
 30
0.0
 71
     2
  0
VERTEX
  5
242
100
AcDbEntity
  8
0
370
     0
390
0
100
AcDbVertex
100
AcDb2dVertex
 10
7.057602
 20
4.307396
 30
0.0
 42
0.010949
  0
VERTEX
  5
243
100
AcDbEntity
  8
0
370
     0
390
0
100
AcDbVertex
100
AcDb2dVertex
 10
7.063832
 20
4.300381
 30
0.0
  0
SEQEND
  5
244
100
AcDbEntity
  8
0
370
     0
390
0
  0
ELLIPSE
  5
245
100
AcDbEntity
  8
0
370
    35
390
0
 62
     7
 48
0.03937
100
AcDbEllipse
 10
7.110764
 20
4.441041
 30
0.0
 11
0.0569878639047076
 21
-0.1819357926952053
 31
0.0
210
0.0
220
0.0
230
1.0
 40
0.586755
 41
5.3945525388491262
 42
5.7925273034732436
  0
POLYLINE
  5
246
100
AcDbEntity
  8
0
370
    35
390
0
 62
     7
 48
0.03937
100
AcDb2dPolyline
 66
     1
 10
0.0
 20
0.0
 30
0.0
 71
     2
  0
VERTEX
  5
247
100
AcDbEntity
  8
0
370
     0
390
0
100
AcDbVertex
100
AcDb2dVertex
 10
6.935504
 20
4.529156
 30
0.0
 42
0.021265
  0
VERTEX
  5
248
100
AcDbEntity
  8
0
370
     0
390
0
100
AcDbVertex
100
AcDb2dVertex
 10
6.934732
 20
4.501518
 30
0.0
  0
SEQEND
  5
249
100
AcDbEntity
  8
0
370
     0
390
0
  0
SPLINE
  5
24A
100
AcDbEntity
  8
0
370
    35
390
0
 62
     7
 48
0.03937
100
AcDbSpline
210
0.0
220
0.0
230
1.0
 70
     8
 71
     5
 72
    15
 73
     9
 74
     0
 42
0.0
 43
0.0
 40
0.0
 40
0.0
 40
0.0
 40
0.0
 40
0.0
 40
0.0
 40
6.1922118683416469
 40
6.1922118683416469
 40
6.1922118683416469
 40
8.9240788349348605
 40
8.9240788349348605
 40
8.9240788349348605
 40
8.9240788349348605
 40
8.9240788349348605
 40
8.9240788349348605
 10
7.0156927971638217
 20
4.2737287595537481
 30
0.0
 10
6.9949667289178361
 20
4.298546375547911
 30
0.0
 10
6.9770576850576056
 20
4.3275305552351098
 30
0.0
 10
6.9624043425466358
 20
4.359100819158952
 30
0.0
 10
6.9462218081617326
 20
4.4068973635222353
 30
0.0
 10
6.9377980808526258
 20
4.4562091394338026
 30
0.0
 10
6.9359742834258382
 20
4.4713674441932341
 30
0.0
 10
6.9349391604909059
 20
4.4865040562067255
 30
0.0
 10
6.934731267586085
 20
4.501517633642715
 30
0.0
  0
ELLIPSE
  5
24B
100
AcDbEntity
  8
0
370
    35
390
0
 62
     7
 48
0.03937
100
AcDbEllipse
 10
7.109277
 20
4.440859
 30
0.0
 11
0.0569811887743101
 21
-0.1822339938909276
 31
0.0
210
0.0
220
0.0
230
1.0
 40
0.586296
 41
5.3390911803281922
 42
5.8011221565195443
  0
POLYLINE
  5
24C
100
AcDbEntity
  8
0
370
    35
390
0
 62
     7
 48
0.03937
100
AcDb2dPolyline
 66
     1
 10
0.0
 20
0.0
 30
0.0
 71
     2
  0
VERTEX
  5
24D
100
AcDbEntity
  8
0
370
     0
390
0
100
AcDbVertex
100
AcDb2dVertex
 10
6.933865
 20
4.517584
 30
0.0
 42
0.029225
  0
VERTEX
  5
24E
100
AcDbEntity
  8
0
370
     0
390
0
100
AcDbVertex
100
AcDb2dVertex
 10
6.932102
 20
4.486334
 30
0.0
  0
SEQEND
  5
24F
100
AcDbEntity
  8
0
370
     0
390
0
  0
SPLINE
  5
250
100
AcDbEntity
  8
0
370
    35
390
0
 62
     7
 48
0.03937
100
AcDbSpline
210
0.0
220
0.0
230
1.0
 70
     8
 71
     5
 72
    15
 73
     9
 74
     0
 42
0.0
 43
0.0
 40
0.0
 40
0.0
 40
0.0
 40
0.0
 40
0.0
 40
0.0
 40
4.6002348234748913
 40
4.6002348234748913
 40
4.6002348234748913
 40
6.4758977013188854
 40
6.4758977013188854
 40
6.4758977013188854
 40
6.4758977013188854
 40
6.4758977013188854
 40
6.4758977013188854
 10
6.9338679095705471
 20
4.517583345997001
 30
0.0
 10
6.936021876482469
 20
4.5359987181862467
 30
0.0
 10
6.9398439504560967
 20
4.5537711070339366
 30
0.0
 10
6.9453848992946563
 20
4.5702958024663429
 30
0.0
 10
6.9554698313572514
 20
4.5913533374440592
 30
0.0
 10
6.968755780674889
 20
4.6087125475701933
 30
0.0
 10
6.972887693479179
 20
4.6134274267088244
 30
0.0
 10
6.9772678106398054
 20
4.6177615706232089
 30
0.0
 10
6.9818851315503778
 20
4.62169848344187
 30
0.0
  0
SPLINE
  5
251
100
AcDbEntity
  8
0
370
    35
390
0
 62
     7
 48
0.03937
100
AcDbSpline
210
0.0
220
0.0
230
1.0
 70
     8
 71
     5
 72
    15
 73
     9
 74
     0
 42
0.0
 43
0.0
 40
0.0
 40
0.0
 40
0.0
 40
0.0
 40
0.0
 40
0.0
 40
6.0893448112845876
 40
6.0893448112845876
 40
6.0893448112845876
 40
10.058296491012628
 40
10.058296491012628
 40
10.058296491012628
 40
10.058296491012628
 40
10.058296491012628
 40
10.058296491012628
 10
6.9306768378067556
 20
4.4823247404238584
 30
0.0
 10
6.931001067146715
 20
4.4570282032129445
 30
0.0
 10
6.9340854628925195
 20
4.4311395089417829
 30
0.0
 10
6.9397668373206836
 20
4.40541681679899
 30
0.0
 10
6.9530628766136582
 20
4.364284922410703
 30
0.0
 10
6.9722351087902945
 20
4.3271117333433455
 30
0.0
 10
6.9807056168930472
 20
4.3131291090702426
 30
0.0
 10
6.98999946408708
 20
4.3001677350659824
 30
0.0
 10
6.9998905543350673
 20
4.2885318433544359
 30
0.0
  0
SPLINE
  5
252
100
AcDbEntity
  8
0
370
    35
390
0
 62
     7
 48
0.03937
100
AcDbSpline
210
0.0
220
0.0
230
1.0
 70
     8
 71
     5
 72
    15
 73
     9
 74
     0
 42
0.0
 43
0.0
 40
0.0
 40
0.0
 40
0.0
 40
0.0
 40
0.0
 40
0.0
 40
6.703794206035111
 40
6.703794206035111
 40
6.703794206035111
 40
8.2727634257563487
 40
8.2727634257563487
 40
8.2727634257563487
 40
8.2727634257563487
 40
8.2727634257563487
 40
8.2727634257563487
 10
6.9306768378067556
 20
4.4823247404238584
 30
0.0
 10
6.9303198918894866
 20
4.5101738415672079
 30
0.0
 10
6.9333082547391855
 20
4.5373052212046936
 30
0.0
 10
6.9398739122376849
 20
4.5627945121283986
 30
0.0
 10
6.9525570330467392
 20
4.5904136515029856
 30
0.0
 10
6.9702297574033221
 20
4.6115051969571814
 30
0.0
 10
6.9737631113405651
 20
4.6152630614297712
 30
0.0
 10
6.9774546050697923
 20
4.6187472691423181
 30
0.0
 10
6.9813021553877128
 20
4.62195377035132
 30
0.0
  0
SPLINE
  5
253
100
AcDbEntity
  8
0
370
    35
390
0
 62
     7
 48
0.03937
100
AcDbSpline
210
0.0
220
0.0
230
1.0
 70
     8
 71
     5
 72
    15
 73
     9
 74
     0
 42
0.0
 43
0.0
 40
0.0
 40
0.0
 40
0.0
 40
0.0
 40
0.0
 40
0.0
 40
6.1917499379086491
 40
6.1917499379086491
 40
6.1917499379086491
 40
10.23022886908919
 40
10.23022886908919
 40
10.23022886908919
 40
10.23022886908919
 40
10.23022886908919
 40
10.23022886908919
 10
6.9320997881825255
 20
4.4863337213746846
 30
0.0
 10
6.9321144076081369
 20
4.4606828155237865
 30
0.0
 10
6.9349969034116725
 20
4.4343538248445569
 30
0.0
 10
6.9405771857283343
 20
4.4081715445199521
 30
0.0
 10
6.9538391571294706
 20
4.3662698029588389
 30
0.0
 10
6.973240305184512
 20
4.3283119492752702
 30
0.0
 10
6.9818380452791091
 20
4.3140402857511075
 30
0.0
 10
6.99128082496284
 20
4.3008345640437105
 30
0.0
 10
7.0013364771203959
 20
4.2890044829648364
 30
0.0
  0
POLYLINE
  5
254
100
AcDbEntity
  8
0
370
    35
390
0
 62
     7
 48
0.03937
100
AcDb2dPolyline
 66
     1
 10
0.0
 20
0.0
 30
0.0
 71
     2
  0
VERTEX
  5
255
100
AcDbEntity
  8
0
370
     0
390
0
100
AcDbVertex
100
AcDb2dVertex
 10
7.001337
 20
4.289005
 30
0.0
 42
0.010949
  0
VERTEX
  5
256
100
AcDbEntity
  8
0
370
     0
390
0
100
AcDbVertex
100
AcDb2dVertex
 10
7.007566
 20
4.281989
 30
0.0
  0
SEQEND
  5
257
100
AcDbEntity
  8
0
370
     0
390
0
  0
ELLIPSE
  5
258
100
AcDbEntity
  8
0
370
    35
390
0
 62
     7
 48
0.03937
100
AcDbEllipse
 10
7.054399
 20
4.422014
 30
0.0
 11
0.0571298270416522
 21
-0.18126683755001
 31
0.0
210
0.0
220
0.0
230
1.0
 40
0.586953
 41
5.3921557258007962
 42
5.8567331112332246
  0
POLYLINE
  5
259
100
AcDbEntity
  8
0
370
    35
390
0
 62
     7
 48
0.03937
100
AcDb2dPolyline
 66
     1
 10
0.0
 20
0.0
 30
0.0
 71
     2
  0
VERTEX
  5
25A
100
AcDbEntity
  8
0
370
     0
390
0
100
AcDbVertex
100
AcDb2dVertex
 10
7.062408
 20
4.243125
 30
0.0
 42
0.084723
  0
VERTEX
  5
25B
100
AcDbEntity
  8
0
370
     0
390
0
100
AcDbVertex
100
AcDb2dVertex
 10
7.090051
 20
4.237673
 30
0.0
  0
SEQEND
  5
25C
100
AcDbEntity
  8
0
370
     0
390
0
  0
POLYLINE
  5
25D
100
AcDbEntity
  8
0
370
    35
390
0
 62
     7
 48
0.03937
100
AcDb2dPolyline
 66
     1
 10
0.0
 20
0.0
 30
0.0
 71
     2
  0
VERTEX
  5
25E
100
AcDbEntity
  8
0
370
     0
390
0
100
AcDbVertex
100
AcDb2dVertex
 10
6.879238
 20
4.510764
 30
0.0
 42
0.021265
  0
VERTEX
  5
25F
100
AcDbEntity
  8
0
370
     0
390
0
100
AcDbVertex
100
AcDb2dVertex
 10
6.878467
 20
4.483126
 30
0.0
  0
SEQEND
  5
260
100
AcDbEntity
  8
0
370
     0
390
0
  0
SPLINE
  5
261
100
AcDbEntity
  8
0
370
    35
390
0
 62
     7
 48
0.03937
100
AcDbSpline
210
0.0
220
0.0
230
1.0
 70
     8
 71
     5
 72
    15
 73
     9
 74
     0
 42
0.0
 43
0.0
 40
0.0
 40
0.0
 40
0.0
 40
0.0
 40
0.0
 40
0.0
 40
6.1924437956763159
 40
6.1924437956763159
 40
6.1924437956763159
 40
8.9244280689543043
 40
8.9244280689543043
 40
8.9244280689543043
 40
8.9244280689543043
 40
8.9244280689543043
 40
8.9244280689543043
 10
6.9594331871032633
 20
4.2553298140168607
 30
0.0
 10
6.9387057032061135
 20
4.2801474176090171
 30
0.0
 10
6.9207953699951998
 20
4.3091321785504144
 30
0.0
 10
6.9061409648514704
 20
4.3407033612666313
 30
0.0
 10
6.8899572116458021
 20
4.3885015843989414
 30
0.0
 10
6.8815328359463646
 20
4.4378152667221329
 30
0.0
 10
6.879708892336847
 20
4.4529742249960655
 30
0.0
 10
6.8786736894218272
 20
4.468111492664038
 30
0.0
 10
6.8784657875908115
 20
4.4831257147838315
 30
0.0
  0
POLYLINE
  5
262
100
AcDbEntity
  8
0
370
    35
390
0
 62
     7
 48
0.03937
100
AcDb2dPolyline
 66
     1
 10
0.0
 20
0.0
 30
0.0
 71
     2
  0
VERTEX
  5
263
100
AcDbEntity
  8
0
370
     0
390
0
100
AcDbVertex
100
AcDb2dVertex
 10
7.060962
 20
4.242654
 30
0.0
 42
0.087954
  0
VERTEX
  5
264
100
AcDbEntity
  8
0
370
     0
390
0
100
AcDbVertex
100
AcDb2dVertex
 10
7.089521
 20
4.237191
 30
0.0
  0
SEQEND
  5
265
100
AcDbEntity
  8
0
370
     0
390
0
  0
ELLIPSE
  5
266
100
AcDbEntity
  8
0
370
    35
390
0
 62
     7
 48
0.03937
100
AcDbEllipse
 10
7.052961
 20
4.422186
 30
0.0
 11
0.0570479596743246
 21
-0.1819377675109827
 31
0.0
210
0.0
220
0.0
230
1.0
 40
0.586356
 41
5.3379840586450076
 42
5.8582579806892641
  0
POLYLINE
  5
267
100
AcDbEntity
  8
0
370
    35
390
0
 62
     7
 48
0.03937
100
AcDb2dPolyline
 66
     1
 10
0.0
 20
0.0
 30
0.0
 71
     2
  0
VERTEX
  5
268
100
AcDbEntity
  8
0
370
     0
390
0
100
AcDbVertex
100
AcDb2dVertex
 10
6.8776
 20
4.499192
 30
0.0
 42
0.029225
  0
VERTEX
  5
269
100
AcDbEntity
  8
0
370
     0
390
0
100
AcDbVertex
100
AcDb2dVertex
 10
6.875837
 20
4.467942
 30
0.0
  0
SEQEND
  5
26A
100
AcDbEntity
  8
0
370
     0
390
0
  0
SPLINE
  5
26B
100
AcDbEntity
  8
0
370
    35
390
0
 62
     7
 48
0.03937
100
AcDbSpline
210
0.0
220
0.0
230
1.0
 70
     8
 71
     5
 72
    15
 73
     9
 74
     0
 42
0.0
 43
0.0
 40
0.0
 40
0.0
 40
0.0
 40
0.0
 40
0.0
 40
0.0
 40
4.4696352269983732
 40
4.4696352269983732
 40
4.4696352269983732
 40
8.7169269582808351
 40
8.7169269582808351
 40
8.7169269582808351
 40
8.7169269582808351
 40
8.7169269582808351
 40
8.7169269582808351
 10
6.877602429500171
 20
4.4991914266076538
 30
0.0
 10
6.879695246526853
 20
4.517083997340662
 30
0.0
 10
6.8833628026199021
 20
4.5343695803498667
 30
0.0
 10
6.8886626636344426
 20
4.5505264263098786
 30
0.0
 10
6.9019885131425021
 20
4.5791280885794601
 30
0.0
 10
6.9211037641869062
 20
4.6010973835659499
 30
0.0
 10
6.9317486032951789
 20
4.6099374517509792
 30
0.0
 10
6.9435255429868183
 20
4.616488485957059
 30
0.0
 10
6.9559880000896577
 20
4.620674809854278
 30
0.0
  0
SPLINE
  5
26C
100
AcDbEntity
  8
0
370
    35
390
0
 62
     7
 48
0.03937
100
AcDbSpline
210
0.0
220
0.0
230
1.0
 70
     8
 71
     5
 72
    18
 73
    12
 74
     0
 42
0.0
 43
0.0
 40
0.0
 40
0.0
 40
0.0
 40
0.0
 40
0.0
 40
0.0
 40
5.4077243456189024
 40
5.4077243456189024
 40
5.4077243456189024
 40
7.5566949139920192
 40
7.5566949139920192
 40
7.5566949139920192
 40
10.705192728153889
 40
10.705192728153889
 40
10.705192728153889
 40
10.705192728153889
 40
10.705192728153889
 40
10.705192728153889
 10
6.8758343081872537
 20
4.4679418025157993
 30
0.0
 10
6.875847076437954
 20
4.4455389229626077
 30
0.0
 10
6.8780474185164335
 20
4.4226188094898298
 30
0.0
 10
6.8823242476502928
 20
4.3996323562724706
 30
0.0
 10
6.8910608418649222
 20
4.368151662603081
 30
0.0
 10
6.903196834673996
 20
4.3386786080116426
 30
0.0
 10
6.9069334577349268
 20
4.3304350295598084
 30
0.0
 10
6.9167790766411947
 20
4.3106460694546875
 30
0.0
 10
6.9282056125381803
 20
4.2922024245416868
 30
0.0
 10
6.9355068061268819
 20
4.2818582027001355
 30
0.0
 10
6.9432329604628391
 20
4.2722876122532867
 30
0.0
 10
6.9512935592936804
 20
4.2636047301963291
 30
0.0
  0
ELLIPSE
  5
26D
100
AcDbEntity
  8
0
370
    35
390
0
 62
     7
 48
0.03937
100
AcDbEllipse
 10
6.998318
 20
4.404735
 30
0.0
 11
0.0568760927470418
 21
-0.1824392923511516
 31
0.0
210
0.0
220
0.0
230
1.0
 40
0.586647
 41
5.39627619990691
 42
5.7477361519462837
  0
ELLIPSE
  5
26E
100
AcDbEntity
  8
0
370
    35
390
0
 62
     7
 48
0.03937
100
AcDbEllipse
 10
6.996829
 20
4.418661
 30
0.0
 11
0.0636026413064428
 21
-0.1945763881154465
 31
0.0
210
0.0
220
0.0
230
1.0
 40
0.608973
 41
5.5978046326482565
 42
5.7592964202289156
  0
SPLINE
  5
26F
100
AcDbEntity
  8
0
370
    35
390
0
 62
     7
 48
0.03937
100
AcDbSpline
210
0.0
220
0.0
230
1.0
 70
     8
 71
     5
 72
    15
 73
     9
 74
     0
 42
0.0
 43
0.0
 40
0.0
 40
0.0
 40
0.0
 40
0.0
 40
0.0
 40
0.0
 40
8.634030382746813
 40
8.634030382746813
 40
8.634030382746813
 40
12.16857209454693
 40
12.16857209454693
 40
12.16857209454693
 40
12.16857209454693
 40
12.16857209454693
 40
12.16857209454693
 10
6.8744113578114847
 20
4.463932821564975
 30
0.0
 10
6.8748710798862946
 20
4.4280650759191325
 30
0.0
 10
6.8808798824507083
 20
4.3910068736173624
 30
0.0
 10
6.8919764420416696
 20
4.3547908127046409
 30
0.0
 10
6.9139369369738972
 20
4.3076137352537822
 30
0.0
 10
6.9429766961427948
 20
4.2699577930961974
 30
0.0
 10
6.9519431179594999
 20
4.2599690736760332
 30
0.0
 10
6.9613475113318071
 20
4.2511000115703474
 30
0.0
 10
6.9710670376020785
 20
4.243508049337124
 30
0.0
  0
SPLINE
  5
270
100
AcDbEntity
  8
0
370
    35
390
0
 62
     7
 48
0.03937
100
AcDbSpline
210
0.0
220
0.0
230
1.0
 70
     8
 71
     5
 72
    18
 73
    12
 74
     0
 42
0.0
 43
0.0
 40
0.0
 40
0.0
 40
0.0
 40
0.0
 40
0.0
 40
0.0
 40
4.3365330253515575
 40
4.3365330253515575
 40
4.3365330253515575
 40
7.456591088619791
 40
7.456591088619791
 40
7.456591088619791
 40
10.448896202724049
 40
10.448896202724049
 40
10.448896202724049
 40
10.448896202724049
 40
10.448896202724049
 40
10.448896202724049
 10
6.8744113578114829
 20
4.4639328215649741
 30
0.0
 10
6.8741804575613505
 20
4.4819477759523174
 30
0.0
 10
6.8753494030408042
 20
4.499662406043397
 30
0.0
 10
6.8779813520797299
 20
4.5169418282156535
 30
0.0
 10
6.8851982692510365
 20
4.5451205014557123
 30
0.0
 10
6.8967666806612957
 20
4.569400282693274
 30
0.0
 10
6.9023696771562806
 20
4.5788012873070958
 30
0.0
 10
6.9148040484139637
 20
4.5954750283078809
 30
0.0
 10
6.9299768854333053
 20
4.6083088951330602
 30
0.0
 10
6.937977277857641
 20
4.6135101729445838
 30
0.0
 10
6.9464323246387618
 20
4.6175547368109955
 30
0.0
 10
6.9552246169540668
 20
4.6204283403766562
 30
0.0
  0
POLYLINE
  5
271
100
AcDbEntity
  8
0
370
    35
390
0
 62
     7
 48
0.03937
100
AcDb2dPolyline
 66
     1
 10
0.0
 20
0.0
 30
0.0
 71
     2
  0
VERTEX
  5
272
100
AcDbEntity
  8
0
370
     0
390
0
100
AcDbVertex
100
AcDb2dVertex
 10
6.975101
 20
4.624479
 30
0.0
 42
0.057117
  0
VERTEX
  5
273
100
AcDbEntity
  8
0
370
     0
390
0
100
AcDbVertex
100
AcDb2dVertex
 10
6.955224
 20
4.620429
 30
0.0
  0
SEQEND
  5
274
100
AcDbEntity
  8
0
370
     0
390
0
  0
SPLINE
  5
275
100
AcDbEntity
  8
0
370
    35
390
0
 62
     7
 48
0.03937
100
AcDbSpline
210
0.0
220
0.0
230
1.0
 70
     8
 71
     5
 72
    24
 73
    18
 74
     0
 42
0.0
 43
0.0
 40
0.0
 40
0.0
 40
0.0
 40
0.0
 40
0.0
 40
0.0
 40
2.6524237159739008
 40
2.6524237159739008
 40
2.6524237159739008
 40
7.8118952419989522
 40
7.8118952419989522
 40
7.8118952419989522
 40
9.0824501151598511
 40
9.0824501151598511
 40
9.0824501151598511
 40
11.612354754438721
 40
11.612354754438721
 40
11.612354754438721
 40
12.848643646829977
 40
12.848643646829977
 40
12.848643646829977
 40
12.848643646829977
 40
12.848643646829977
 40
12.848643646829977
 10
7.1244512330635432
 20
4.3016255866463986
 30
0.0
 10
7.1223379976292831
 20
4.2928574719383539
 30
0.0
 10
7.1197559249487368
 20
4.284474462415905
 30
0.0
 10
7.1167015428914073
 20
4.2765246705099225
 30
0.0
 10
7.1064643181051679
 20
4.2547379184685141
 30
0.0
 10
7.0924853593991442
 20
4.2376647621076788
 30
0.0
 10
7.0817082002384861
 20
4.2287846771404238
 30
0.0
 10
7.0666975446066047
 20
4.2213406710882264
 30
0.0
 10
7.0506104233389024
 20
4.2184166301520909
 30
0.0
 10
7.0473907683411072
 20
4.2180126143257128
 30
0.0
 10
7.0376324243540962
 20
4.2173367045965069
 30
0.0
 10
7.0279023891325316
 20
4.2181983032510537
 30
0.0
 10
7.0215223957213446
 20
4.2193926921868563
 30
0.0
 10
7.0121133105263445
 20
4.2219486428074813
 30
0.0
 10
7.0023761677161298
 20
4.2259299566133546
 30
0.0
 10
6.9991359964836679
 20
4.22739908425722
 30
0.0
 10
6.9958718607039465
 20
4.2290324193179112
 30
0.0
 10
6.9926255032482425
 20
4.2308053218523165
 30
0.0
  0
POLYLINE
  5
276
100
AcDbEntity
  8
0
370
    35
390
0
 62
     7
 48
0.03937
100
AcDb2dPolyline
 66
     1
 10
0.0
 20
0.0
 30
0.0
 71
     2
  0
VERTEX
  5
277
100
AcDbEntity
  8
0
370
     0
390
0
100
AcDbVertex
100
AcDb2dVertex
 10
6.823846
 20
4.502328
 30
0.0
 42
0.029532
  0
VERTEX
  5
278
100
AcDbEntity
  8
0
370
     0
390
0
100
AcDbVertex
100
AcDb2dVertex
 10
6.822203
 20
4.464734
 30
0.0
  0
SEQEND
  5
279
100
AcDbEntity
  8
0
370
     0
390
0
  0
ELLIPSE
  5
27A
100
AcDbEntity
  8
0
370
    35
390
0
 62
     7
 48
0.03937
100
AcDbEllipse
 10
6.952942
 20
4.404315
 30
0.0
 11
-0.0816887004457157
 21
0.2499061667264738
 31
0.0
210
0.0
220
0.0
230
1.0
 40
0.608973
 41
5.4078383217504342
 42
10.300142937124631
  0
ELLIPSE
  5
27B
100
AcDbEntity
  8
0
370
    35
390
0
 62
     7
 48
0.03937
100
AcDbEllipse
 10
6.952942
 20
4.404315
 30
0.0
 11
-0.0816887004457157
 21
0.2499061667264738
 31
0.0
210
0.0
220
0.0
230
1.0
 40
0.608973
 41
4.016957629945046
 42
5.3670233043288675
  0
POLYLINE
  5
27C
100
AcDbEntity
  8
0
370
    35
390
0
 62
     7
 48
0.03937
100
AcDb2dPolyline
 66
     1
 10
0.0
 20
0.0
 30
0.0
 71
     2
  0
VERTEX
  5
27D
100
AcDbEntity
  8
0
370
     0
390
0
100
AcDbVertex
100
AcDb2dVertex
 10
6.911002
 20
4.228026
 30
0.0
 42
0.072834
  0
VERTEX
  5
27E
100
AcDbEntity
  8
0
370
     0
390
0
100
AcDbVertex
100
AcDb2dVertex
 10
6.957452
 20
4.189656
 30
0.0
  0
SEQEND
  5
27F
100
AcDbEntity
  8
0
370
     0
390
0
  0
LINE
  5
280
100
AcDbEntity
  8
0
370
    35
390
0
 62
     7
 48
0.000223
100
AcDbLine
 10
6.910975
 20
4.228001
 30
0.0
 11
6.905021
 21
4.234664
 31
0.0
210
0.0
220
0.0
230
1.0
  0
POLYLINE
  5
281
100
AcDbEntity
  8
0
370
    35
390
0
 62
     7
 48
0.03937
100
AcDb2dPolyline
 66
     1
 10
0.0
 20
0.0
 30
0.0
 71
     2
  0
VERTEX
  5
282
100
AcDbEntity
  8
0
370
     0
390
0
100
AcDbVertex
100
AcDb2dVertex
 10
6.971066
 20
4.243508
 30
0.0
 42
0.032209
  0
VERTEX
  5
283
100
AcDbEntity
  8
0
370
     0
390
0
100
AcDbVertex
100
AcDb2dVertex
 10
6.957473
 20
4.189687
 30
0.0
  0
SEQEND
  5
284
100
AcDbEntity
  8
0
370
     0
390
0
  0
SPLINE
  5
285
100
AcDbEntity
  8
0
370
    35
390
0
 62
     7
 48
0.03937
100
AcDbSpline
210
0.0
220
0.0
230
1.0
 70
     8
 71
     5
 72
    15
 73
     9
 74
     0
 42
0.0
 43
0.0
 40
0.0
 40
0.0
 40
0.0
 40
0.0
 40
0.0
 40
0.0
 40
5.5633946520888085
 40
5.5633946520888085
 40
5.5633946520888085
 40
9.430227634473745
 40
9.430227634473745
 40
9.430227634473745
 40
9.430227634473745
 40
9.430227634473745
 40
9.430227634473745
 10
6.9118108281501449
 20
4.2270972508552509
 30
0.0
 10
6.8923816804404439
 20
4.2481107261982238
 30
0.0
 10
6.8751183168767245
 20
4.2728269404716857
 30
0.0
 10
6.8604094751445865
 20
4.3000054202352338
 30
0.0
 10
6.840039635498262
 20
4.3488278667194944
 30
0.0
 10
6.8279459302102508
 20
4.4005258524392969
 30
0.0
 10
6.8244461986948899
 20
4.4219852271360809
 30
0.0
 10
6.8224945704854445
 20
4.4434827624341979
 30
0.0
 10
6.8222003075955415
 20
4.4647337959249471
 30
0.0
  0
POLYLINE
  5
286
100
AcDbEntity
  8
0
370
    35
390
0
 62
     7
 48
0.03937
100
AcDb2dPolyline
 66
     1
 10
0.0
 20
0.0
 30
0.0
 71
     2
  0
VERTEX
  5
287
100
AcDbEntity
  8
0
370
     0
390
0
100
AcDbVertex
100
AcDb2dVertex
 10
6.823442
 20
4.498957
 30
0.0
 42
0.031972
  0
VERTEX
  5
288
100
AcDbEntity
  8
0
370
     0
390
0
100
AcDbVertex
100
AcDb2dVertex
 10
6.821602
 20
4.461262
 30
0.0
  0
SEQEND
  5
289
100
AcDbEntity
  8
0
370
     0
390
0
  0
SPLINE
  5
28A
100
AcDbEntity
  8
0
370
    35
390
0
 62
     7
 48
0.03937
100
AcDbSpline
210
0.0
220
0.0
230
1.0
 70
     8
 71
     5
 72
    36
 73
    30
 74
     0
 42
0.0
 43
0.0
 40
0.0
 40
0.0
 40
0.0
 40
0.0
 40
0.0
 40
0.0
 40
3.7929424911323784
 40
3.7929424911323784
 40
3.7929424911323784
 40
5.6320817716196636
 40
5.6320817716196636
 40
5.6320817716196636
 40
9.2345484753249121
 40
9.2345484753249121
 40
9.2345484753249121
 40
10.123782798210692
 40
10.123782798210692
 40
10.123782798210692
 40
11.013017121096476
 40
11.013017121096476
 40
11.013017121096476
 40
12.79063047513278
 40
12.79063047513278
 40
12.79063047513278
 40
16.35004891397918
 40
16.35004891397918
 40
16.35004891397918
 40
17.217020596607931
 40
17.217020596607931
 40
17.217020596607931
 40
18.083992279236675
 40
18.083992279236675
 40
18.083992279236675
 40
18.083992279236675
 40
18.083992279236675
 40
18.083992279236675
 10
6.8234457745726207
 20
4.498956997472348
 30
0.0
 10
6.8251646243430182
 20
4.51386003159406
 30
0.0
 10
6.8278824291773796
 20
4.5283144340556198
 30
0.0
 10
6.8316243192008397
 20
4.5421011856288107
 30
0.0
 10
6.8386670970950982
 20
4.5612483304998888
 30
0.0
 10
6.8477998476785134
 20
4.5780599811040226
 30
0.0
 10
6.8510058558256741
 20
4.5832940262615383
 30
0.0
 10
6.8611308947779763
 20
4.5979575078317234
 30
0.0
 10
6.8731657759717333
 20
4.6101071054070246
 30
0.0
 10
6.8819126441978451
 20
4.6168756802282536
 30
0.0
 10
6.893634063538804
 20
4.6235188479772811
 30
0.0
 10
6.9060545797156987
 20
4.627856434424114
 30
0.0
 10
6.9085400316737342
 20
4.6286248508427104
 30
0.0
 10
6.9135532870477432
 20
4.6299792618511484
 30
0.0
 10
6.9186511632318695
 20
4.6309720140655335
 30
0.0
 10
6.9212192689079455
 20
4.6313783986021528
 30
0.0
 10
6.928987510614796
 20
4.6323282533241104
 30
0.0
 10
6.936878605592157
 20
4.6324711831683238
 30
0.0
 10
6.9421300873700496
 20
4.6322089435634428
 30
0.0
 10
6.9577301180940632
 20
4.6304556514513999
 30
0.0
 10
6.9729509372144065
 20
4.6259579135608169
 30
0.0
 10
6.9830808038924737
 20
4.6218731928086356
 30
0.0
 10
6.9958421964994297
 20
4.6152455971463162
 30
0.0
 10
7.0085738639225168
 20
4.6067293691537534
 30
0.0
 10
7.011063952998847
 20
4.6049895100512472
 30
0.0
 10
7.016022996766476
 20
4.6013745357172189
 30
0.0
 10
7.0209169456370626
 20
4.5975082576619819
 30
0.0
 10
7.0233411098859131
 20
4.5955177951093109
 30
0.0
 10
7.0257441381424623
 20
4.5934698070711937
 30
0.0
 10
7.0281244820289706
 20
4.5913662639694115
 30
0.0
  0
ELLIPSE
  5
28B
100
AcDbEntity
  8
0
370
    35
390
0
 62
     7
 48
0.03937
100
AcDbEllipse
 10
6.952942
 20
4.404315
 30
0.0
 11
-0.0816887004457158
 21
0.2499061667264738
 31
0.0
210
0.0
220
0.0
230
1.0
 40
0.608973
 41
5.3670233043288667
 42
5.4078383217504342
  0
SPLINE
  5
28C
100
AcDbEntity
  8
0
370
    35
390
0
 62
     7
 48
0.03937
100
AcDbSpline
210
0.0
220
0.0
230
1.0
 70
     8
 71
     5
 72
    15
 73
     9
 74
     0
 42
0.0
 43
0.0
 40
0.0
 40
0.0
 40
0.0
 40
0.0
 40
0.0
 40
0.0
 40
10.514303431804445
 40
10.514303431804445
 40
10.514303431804445
 40
11.684359261886623
 40
11.684359261886623
 40
11.684359261886623
 40
11.684359261886623
 40
11.684359261886623
 40
11.684359261886623
 10
6.9050213226658057
 20
4.234663601131861
 30
0.0
 10
6.8777978587333735
 20
4.2661771511860076
 30
0.0
 10
6.8547863773228306
 20
4.3050670522565193
 30
0.0
 10
6.8374561709245798
 20
4.3482927721119609
 30
0.0
 10
6.8253781911483111
 20
4.3981735421733088
 30
0.0
 10
6.8220596678870429
 20
4.4467769263572627
 30
0.0
 10
6.8218160317890728
 20
4.4516288884511042
 30
0.0
 10
6.8216621178840287
 20
4.4564581210501579
 30
0.0
 10
6.8215986305324838
 20
4.4612620561397884
 30
0.0
  0
ELLIPSE
  5
28D
100
AcDbEntity
  8
0
370
    35
390
0
 62
     7
 48
0.03937
100
AcDbEllipse
 10
7.600241
 20
5.190564
 30
0.0
 11
-0.640547927849246
 21
1.9595963258072218
 31
0.0
210
0.0
220
0.0
230
1.0
 40
0.608973
 41
3.1415595233208986
 42
6.2831521769106917
  0
ELLIPSE
  5
28E
100
AcDbEntity
  8
0
370
    35
390
0
 62
     7
 48
0.03937
100
AcDbEllipse
 10
7.600241
 20
5.190564
 30
0.0
 11
-0.640547927849246
 21
1.9595963258072218
 31
0.0
210
0.0
220
0.0
230
1.0
 40
0.608973
 41
6.2831521769106917
 42
7.9378196311237605
  0
ELLIPSE
  5
28F
100
AcDbEntity
  8
0
370
    35
390
0
 62
     7
 48
0.03937
100
AcDbEllipse
 10
7.600241
 20
5.190564
 30
0.0
 11
-0.640547927849246
 21
1.9595963258072218
 31
0.0
210
0.0
220
0.0
230
1.0
 40
0.608973
 41
1.6546343239441788
 42
3.1415595233208986
  0
ELLIPSE
  5
290
100
AcDbEntity
  8
0
370
    35
390
0
 62
     7
 48
0.03937
100
AcDbEllipse
 10
7.600241
 20
5.190564
 30
0.0
 11
-0.3014343189878804
 21
0.9221629768504572
 31
0.0
210
0.0
220
0.0
230
1.0
 40
0.608973
 41
3.1415595233208986
 42
4.796226977533971
  0
ELLIPSE
  5
291
100
AcDbEntity
  8
0
370
    35
390
0
 62
     7
 48
0.03937
100
AcDbEllipse
 10
7.600241
 20
5.190564
 30
0.0
 11
-0.3014343189878804
 21
0.9221629768504572
 31
0.0
210
0.0
220
0.0
230
1.0
 40
0.608973
 41
4.796226977533971
 42
6.2831521769106935
  0
ELLIPSE
  5
292
100
AcDbEntity
  8
0
370
    35
390
0
 62
     7
 48
0.03937
100
AcDbEllipse
 10
8.354957
 20
3.952294
 30
0.0
 11
-0.0816887004457158
 21
0.2499061667264739
 31
0.0
210
0.0
220
0.0
230
1.0
 40
0.608973
 41
0.6546343239441782
 42
4.0169576299450434
  0
ELLIPSE
  5
293
100
AcDbEntity
  8
0
370
    35
390
0
 62
     7
 48
0.03937
100
AcDbEllipse
 10
8.354957
 20
3.952294
 30
0.0
 11
-0.0816887004457154
 21
0.249906166726474
 31
0.0
210
0.0
220
0.0
230
1.0
 40
0.608973
 41
4.0169576299450451
 42
5.4078383217504351
  0
ELLIPSE
  5
294
100
AcDbEntity
  8
0
370
    35
390
0
 62
     7
 48
0.03937
100
AcDbEllipse
 10
8.354957
 20
3.952294
 30
0.0
 11
-0.0816887004457154
 21
0.249906166726474
 31
0.0
210
0.0
220
0.0
230
1.0
 40
0.608973
 41
5.4078383217504351
 42
6.9378196311237641
  0
ELLIPSE
  5
295
100
AcDbEntity
  8
0
370
    35
390
0
 62
     7
 48
0.03937
100
AcDbEllipse
 10
8.247541
 20
5.976812
 30
0.0
 11
-0.0816887004457154
 21
0.2499061667264738
 31
0.0
210
0.0
220
0.0
230
1.0
 40
0.608973
 41
4.0169576299450469
 42
5.4078383217504324
  0
ELLIPSE
  5
296
100
AcDbEntity
  8
0
370
    35
390
0
 62
     7
 48
0.03937
100
AcDbEllipse
 10
8.247541
 20
5.976812
 30
0.0
 11
-0.0816887004457157
 21
0.2499061667264737
 31
0.0
210
0.0
220
0.0
230
1.0
 40
0.608973
 41
5.4078383217504324
 42
8.5086159579186642
  0
ELLIPSE
  5
297
100
AcDbEntity
  8
0
370
    35
390
0
 62
     7
 48
0.03937
100
AcDbEllipse
 10
8.247541
 20
5.976812
 30
0.0
 11
-0.0816887004457154
 21
0.2499061667264738
 31
0.0
210
0.0
220
0.0
230
1.0
 40
0.608973
 41
2.2254306507390749
 42
4.0169576299450469
  0
ELLIPSE
  5
298
100
AcDbEntity
  8
0
370
    35
390
0
 62
     7
 48
0.03937
100
AcDbEllipse
 10
6.845526
 20
6.428834
 30
0.0
 11
-0.0816887004457155
 21
0.249906166726474
 31
0.0
210
0.0
220
0.0
230
1.0
 40
0.608973
 41
5.4078383217504351
 42
10.300142937124635
  0
ELLIPSE
  5
299
100
AcDbEntity
  8
0
370
    35
390
0
 62
     7
 48
0.03937
100
AcDbEllipse
 10
6.845526
 20
6.428834
 30
0.0
 11
-0.0816887004457154
 21
0.249906166726474
 31
0.0
210
0.0
220
0.0
230
1.0
 40
0.608973
 41
4.0169576299450451
 42
5.4078383217504351
  0
ELLIPSE
  5
29A
100
AcDbEntity
  8
0
370
    35
390
0
 62
     7
 48
0.03937
100
AcDbEllipse
 10
8.514555
 20
5.489432
 30
0.0
 11
-0.6405479278492469
 21
1.9595963258072211
 31
0.0
210
0.0
220
0.0
230
1.0
 40
0.608973
 41
3.1415595233208986
 42
6.2831521769106917
  0
ELLIPSE
  5
29B
100
AcDbEntity
  8
0
370
    35
390
0
 62
     7
 48
0.03937
100
AcDbEllipse
 10
7.554526
 20
5.17562
 30
0.0
 11
-0.3014343189878804
 21
0.9221629768504572
 31
0.0
210
0.0
220
0.0
230
1.0
 40
0.608973
 41
6.2831521769106953
 42
9.4247448305004866
  0
ELLIPSE
  5
29C
100
AcDbEntity
  8
0
370
    35
390
0
 62
     7
 48
0.03937
100
AcDbEllipse
 10
7.554526
 20
5.17562
 30
0.0
 11
-0.3014343189878804
 21
0.9221629768504572
 31
0.0
210
0.0
220
0.0
230
1.0
 40
0.608973
 41
3.1415595233208977
 42
4.796226977533971
  0
ELLIPSE
  5
29D
100
AcDbEntity
  8
0
370
    35
390
0
 62
     7
 48
0.03937
100
AcDbEllipse
 10
7.554526
 20
5.17562
 30
0.0
 11
-0.3014343189878804
 21
0.9221629768504572
 31
0.0
210
0.0
220
0.0
230
1.0
 40
0.608973
 41
4.796226977533971
 42
6.2831521769106953
  0
ELLIPSE
  5
29E
100
AcDbEntity
  8
0
370
    35
390
0
 62
     7
 48
0.03937
100
AcDbEllipse
 10
8.387064
 20
3.959587
 30
0.0
 11
0.069028344669839
 21
-0.2094055142285866
 31
0.0
210
0.0
220
0.0
230
1.0
 40
0.624421
 41
2.3421854297058027
 42
2.6947826464980467
  0
SPLINE
  5
29F
100
AcDbEntity
  8
0
370
    35
390
0
 62
     7
 48
0.03937
100
AcDbSpline
210
0.0
220
0.0
230
1.0
 70
     8
 71
     5
 72
    18
 73
    12
 74
     0
 42
0.0
 43
0.0
 40
0.0
 40
0.0
 40
0.0
 40
0.0
 40
0.0
 40
0.0
 40
4.2215717194907283
 40
4.2215717194907283
 40
4.2215717194907283
 40
8.3695080319830772
 40
8.3695080319830772
 40
8.3695080319830772
 40
10.414219977499101
 40
10.414219977499101
 40
10.414219977499101
 40
10.414219977499101
 40
10.414219977499101
 40
10.414219977499101
 10
8.2537183855077032
 20
4.1039410740245446
 30
0.0
 10
8.259364998891634
 20
4.1171476724403284
 30
0.0
 10
8.2661854520976252
 20
4.1291937569143489
 30
0.0
 10
8.2742854309467546
 20
4.1401720349241851
 30
0.0
 10
8.2930232649244271
 20
4.1587248628228082
 30
0.0
 10
8.3156441658274414
 20
4.1696067544704523
 30
0.0
 10
8.3274244077193202
 20
4.1727735909577417
 30
0.0
 10
8.3452902278856556
 20
4.1744998066630945
 30
0.0
 10
8.3633512156729317
 20
4.172063911411545
 30
0.0
 10
8.3693195430331446
 20
4.1708269119184305
 30
0.0
 10
8.3753243706767453
 20
4.1691509172573236
 30
0.0
 10
8.3813110311146204
 20
4.1670596475813309
 30
0.0
  0
POLYLINE
  5
2A0
100
AcDbEntity
  8
0
370
    35
390
0
 62
     7
 48
0.03937
100
AcDb2dPolyline
 66
     1
 10
0.0
 20
0.0
 30
0.0
 71
     2
  0
VERTEX
  5
2A1
100
AcDbEntity
  8
0
370
     0
390
0
100
AcDbVertex
100
AcDb2dVertex
 10
8.51592
 20
3.804279
 30
0.0
 42
0.043687
  0
VERTEX
  5
2A2
100
AcDbEntity
  8
0
370
     0
390
0
100
AcDbVertex
100
AcDb2dVertex
 10
8.525237
 20
3.838195
 30
0.0
  0
SEQEND
  5
2A3
100
AcDbEntity
  8
0
370
     0
390
0
  0
ELLIPSE
  5
2A4
100
AcDbEntity
  8
0
370
    35
390
0
 62
     7
 48
0.03937
100
AcDbEllipse
 10
8.383182
 20
3.948313
 30
0.0
 11
0.0680547176321955
 21
-0.2133614548736577
 31
0.0
210
0.0
220
0.0
230
1.0
 40
0.60473
 41
5.3716326420553848
 42
5.8329305290546891
  0
SPLINE
  5
2A5
100
AcDbEntity
  8
0
370
    35
390
0
 62
     7
 48
0.03937
100
AcDbSpline
210
0.0
220
0.0
230
1.0
 70
     8
 71
     5
 72
    24
 73
    18
 74
     0
 42
0.0
 43
0.0
 40
0.0
 40
0.0
 40
0.0
 40
0.0
 40
0.0
 40
0.0
 40
2.7631376933420833
 40
2.7631376933420833
 40
2.7631376933420833
 40
8.4606953565651768
 40
8.4606953565651768
 40
8.4606953565651768
 40
9.8916887578559631
 40
9.8916887578559631
 40
9.8916887578559631
 40
12.677514449980018
 40
12.677514449980018
 40
12.677514449980018
 40
14.028658293474109
 40
14.028658293474109
 40
14.028658293474109
 40
14.028658293474109
 40
14.028658293474109
 40
14.028658293474109
 10
8.3228778175038425
 20
3.7850938360297293
 30
0.0
 10
8.3157167801655429
 20
3.7928273792490375
 30
0.0
 10
8.3088443304344057
 20
3.8010788362699333
 30
0.0
 10
8.3022514013301478
 20
3.8098373179944978
 30
0.0
 10
8.2831908139443708
 20
3.8377423683536689
 30
0.0
 10
8.2672313003211908
 20
3.8693396684633656
 30
0.0
 10
8.2582078954171969
 20
3.8917133499267873
 30
0.0
 10
8.2492134754963402
 20
3.9203923777593896
 30
0.0
 10
8.2432223368962259
 20
3.9494025204682299
 30
0.0
 10
8.2421744800657741
 20
3.955056392900576
 30
0.0
 10
8.2393756253291315
 20
3.9720863841491676
 30
0.0
 10
8.2376897971757579
 20
3.988667793611322
 30
0.0
 10
8.237046095414442
 20
3.9993547482717586
 30
0.0
 10
8.2367353557923515
 20
4.0149570395860561
 30
0.0
 10
8.2374402669355469
 20
4.0303674056679171
 30
0.0
 10
8.2377816314726786
 20
4.03538994566936
 30
0.0
 10
8.2382391617296324
 20
4.0404010890343365
 30
0.0
 10
8.2388176078242648
 20
4.0453949677297079
 30
0.0
  0
POLYLINE
  5
2A6
100
AcDbEntity
  8
0
370
    35
390
0
 62
     7
 48
0.03937
100
AcDb2dPolyline
 66
     1
 10
0.0
 20
0.0
 30
0.0
 71
     2
  0
VERTEX
  5
2A7
100
AcDbEntity
  8
0
370
     0
390
0
100
AcDbVertex
100
AcDb2dVertex
 10
8.253686
 20
4.103954
 30
0.0
 42
0.071895
  0
VERTEX
  5
2A8
100
AcDbEntity
  8
0
370
     0
390
0
100
AcDbVertex
100
AcDb2dVertex
 10
8.238853
 20
4.045391
 30
0.0
  0
SEQEND
  5
2A9
100
AcDbEntity
  8
0
370
     0
390
0
  0
SPLINE
  5
2AA
100
AcDbEntity
  8
0
370
    35
390
0
 62
     7
 48
0.03937
100
AcDbSpline
210
0.0
220
0.0
230
1.0
 70
     8
 71
     5
 72
    15
 73
     9
 74
     0
 42
0.0
 43
0.0
 40
0.0
 40
0.0
 40
0.0
 40
0.0
 40
0.0
 40
0.0
 40
5.393359245571145
 40
5.393359245571145
 40
5.393359245571145
 40
10.650568185929643
 40
10.650568185929643
 40
10.650568185929643
 40
10.650568185929643
 40
10.650568185929643
 40
10.650568185929643
 10
8.5159120003770727
 20
3.8042818310275788
 30
0.0
 10
8.5091906264277224
 20
3.7864354398286038
 30
0.0
 10
8.5004216220847315
 20
3.7705497989322945
 30
0.0
 10
8.4896680447831923
 20
3.7571746706221161
 30
0.0
 10
8.464978837272545
 20
3.7368451702894667
 30
0.0
 10
8.4352335497250177
 20
3.7294977614466842
 30
0.0
 10
8.419744440789886
 20
3.7292694244025948
 30
0.0
 10
8.4039566813069175
 20
3.7323138364083257
 30
0.0
 10
8.3883030489257795
 20
3.7383054338471613
 30
0.0
  0
ELLIPSE
  5
2AB
100
AcDbEntity
  8
0
370
    35
390
0
 62
     7
 48
0.03937
100
AcDbEllipse
 10
8.291428
 20
5.991157
 30
0.0
 11
0.0636026413064436
 21
-0.1945763881154461
 31
0.0
210
0.0
220
0.0
230
1.0
 40
0.608973
 41
2.4562119790584611
 42
2.617703766639123
  0
POLYLINE
  5
2AC
100
AcDbEntity
  8
0
370
    35
390
0
 62
     7
 48
0.03937
100
AcDb2dPolyline
 66
     1
 10
0.0
 20
0.0
 30
0.0
 71
     2
  0
VERTEX
  5
2AD
100
AcDbEntity
  8
0
370
     0
390
0
100
AcDbVertex
100
AcDb2dVertex
 10
8.14475
 20
6.068353
 30
0.0
 42
0.030588
  0
VERTEX
  5
2AE
100
AcDbEntity
  8
0
370
     0
390
0
100
AcDbVertex
100
AcDb2dVertex
 10
8.143009
 20
6.035307
 30
0.0
  0
SEQEND
  5
2AF
100
AcDbEntity
  8
0
370
     0
390
0
  0
SPLINE
  5
2B0
100
AcDbEntity
  8
0
370
    35
390
0
 62
     7
 48
0.03937
100
AcDbSpline
210
0.0
220
0.0
230
1.0
 70
     8
 71
     5
 72
    27
 73
    21
 74
     0
 42
0.0
 43
0.0
 40
0.0
 40
0.0
 40
0.0
 40
0.0
 40
0.0
 40
0.0
 40
4.6675131827405858
 40
4.6675131827405858
 40
4.6675131827405858
 40
9.1611746733805504
 40
9.1611746733805504
 40
9.1611746733805504
 40
10.637644572749977
 40
10.637644572749977
 40
10.637644572749977
 40
11.375709413583511
 40
11.375709413583511
 40
11.375709413583511
 40
13.58074956746148
 40
13.58074956746148
 40
13.58074956746148
 40
14.991099100106069
 40
14.991099100106069
 40
14.991099100106069
 40
14.991099100106069
 40
14.991099100106069
 40
14.991099100106069
 10
8.1447532374396268
 20
6.0683527742447581
 30
0.0
 10
8.1467557282951262
 20
6.0855720538622506
 30
0.0
 10
8.1502051050508282
 20
6.1021203754314062
 30
0.0
 10
8.1551335657221973
 20
6.1175430532977888
 30
0.0
 10
8.1675154501878637
 20
6.1449722467444605
 30
0.0
 10
8.1849795347551044
 20
6.1660093596632564
 30
0.0
 10
8.1947423316860597
 20
6.1746308553166482
 30
0.0
 10
8.2091128355807026
 20
6.1833125419366501
 30
0.0
 10
8.2246180772181798
 20
6.1881652715051114
 30
0.0
 10
8.2285174305279458
 20
6.1891310024461177
 30
0.0
 10
8.2344325457251628
 20
6.1902267459143001
 30
0.0
 10
8.2404549312361475
 20
6.1908007806512275
 30
0.0
 10
8.2424755616681367
 20
6.1909341526254167
 30
0.0
 10
8.2505154521129018
 20
6.1912334454961488
 30
0.0
 10
8.2584699115573574
 20
6.1906406043745266
 30
0.0
 10
8.264350597236934
 20
6.1897432907745529
 30
0.0
 10
8.2739403269753868
 20
6.1876090282190512
 30
0.0
 10
8.283819004590379
 20
6.1842110977551794
 30
0.0
 10
8.2877367455328059
 20
6.1826808244633487
 30
0.0
 10
8.2916954933378246
 20
6.1809369228839328
 30
0.0
 10
8.2956314670983904
 20
6.1790133093347173
 30
0.0
  0
SPLINE
  5
2B1
100
AcDbEntity
  8
0
370
    35
390
0
 62
     7
 48
0.03937
100
AcDbSpline
210
0.0
220
0.0
230
1.0
 70
     8
 71
     5
 72
    21
 73
    15
 74
     0
 42
0.0
 43
0.0
 40
0.0
 40
0.0
 40
0.0
 40
0.0
 40
0.0
 40
0.0
 40
4.4559741559135144
 40
4.4559741559135144
 40
4.4559741559135144
 40
9.0161312142339725
 40
9.0161312142339725
 40
9.0161312142339725
 40
10.137053249356759
 40
10.137053249356759
 40
10.137053249356759
 40
11.250849491030852
 40
11.250849491030852
 40
11.250849491030852
 40
11.250849491030852
 40
11.250849491030852
 40
11.250849491030852
 10
8.2191089135424882
 20
5.8257219776775777
 30
0.0
 10
8.2083024463673055
 20
5.8383196758515306
 30
0.0
 10
8.1982131456058553
 20
5.8521996641226668
 30
0.0
 10
8.1887510208533243
 20
5.8673836821925853
 30
0.0
 10
8.1713353089857304
 20
5.9005533581614262
 30
0.0
 10
8.1582960581716577
 20
5.9366111982538952
 30
0.0
 10
8.1530344887458543
 20
5.9550895374777486
 30
0.0
 10
8.1481139104140361
 20
5.9779215169376387
 30
0.0
 10
8.1451959829854985
 20
6.0003943794454218
 30
0.0
 10
8.1446976439871328
 20
6.0048147137725865
 30
0.0
 10
8.143857949868293
 20
6.0136091503155509
 30
0.0
 10
8.143328355274992
 20
6.0223503810542445
 30
0.0
 10
8.1431420912227317
 20
6.0266916416744891
 30
0.0
 10
8.1430342852787874
 20
6.0310112303258219
 30
0.0
 10
8.1430054596741233
 20
6.0353067558066824
 30
0.0
  0
POLYLINE
  5
2B2
100
AcDbEntity
  8
0
370
    35
390
0
 62
     7
 48
0.03937
100
AcDb2dPolyline
 66
     1
 10
0.0
 20
0.0
 30
0.0
 71
     2
  0
VERTEX
  5
2B3
100
AcDbEntity
  8
0
370
     0
390
0
100
AcDbVertex
100
AcDb2dVertex
 10
8.31771
 20
6.169267
 30
0.0
 42
0.06512
  0
VERTEX
  5
2B4
100
AcDbEntity
  8
0
370
     0
390
0
100
AcDbVertex
100
AcDb2dVertex
 10
8.273744
 20
6.201504
 30
0.0
  0
SEQEND
  5
2B5
100
AcDbEntity
  8
0
370
     0
390
0
  0
POLYLINE
  5
2B6
100
AcDbEntity
  8
0
370
    35
390
0
 62
     7
 48
0.03937
100
AcDb2dPolyline
 66
     1
 10
0.0
 20
0.0
 30
0.0
 71
     2
  0
VERTEX
  5
2B7
100
AcDbEntity
  8
0
370
     0
390
0
100
AcDbVertex
100
AcDb2dVertex
 10
8.317188
 20
6.16631
 30
0.0
 42
0.016098
  0
VERTEX
  5
2B8
100
AcDbEntity
  8
0
370
     0
390
0
100
AcDbVertex
100
AcDb2dVertex
 10
8.273733
 20
6.201483
 30
0.0
  0
SEQEND
  5
2B9
100
AcDbEntity
  8
0
370
     0
390
0
  0
SPLINE
  5
2BA
100
AcDbEntity
  8
0
370
    35
390
0
 62
     7
 48
0.03937
100
AcDbSpline
210
0.0
220
0.0
230
1.0
 70
     8
 71
     5
 72
    27
 73
    21
 74
     0
 42
0.0
 43
0.0
 40
0.0
 40
0.0
 40
0.0
 40
0.0
 40
0.0
 40
0.0
 40
3.5246286291838316
 40
3.5246286291838316
 40
3.5246286291838316
 40
8.6194052765255513
 40
8.6194052765255513
 40
8.6194052765255513
 40
10.294107507800211
 40
10.294107507800211
 40
10.294107507800211
 40
13.637746651146472
 40
13.637746651146472
 40
13.637746651146472
 40
15.342747730399742
 40
15.342747730399742
 40
15.342747730399742
 40
17.023906133543047
 40
17.023906133543047
 40
17.023906133543047
 40
17.023906133543047
 40
17.023906133543047
 40
17.023906133543047
 10
8.4182726259750211
 20
5.8663981249078114
 30
0.0
 10
8.4156685804209186
 20
5.8536082127488829
 30
0.0
 10
8.4121866858258141
 20
5.8414475814078939
 30
0.0
 10
8.4078583697011826
 20
5.8301734574203534
 30
0.0
 10
8.3952547349173976
 20
5.8048141650486729
 30
0.0
 10
8.3777611993529142
 20
5.7855837855604761
 30
0.0
 10
8.3658640948634666
 20
5.7768760591972104
 30
0.0
 10
8.3484799870730821
 20
5.7693475622469608
 30
0.0
 10
8.3298951580243621
 20
5.7671451475945954
 30
0.0
 10
8.3252441041864227
 20
5.7669255547602223
 30
0.0
 10
8.3112260207090802
 20
5.7672319807408652
 30
0.0
 10
8.2974027212750983
 20
5.7702303404867425
 30
0.0
 10
8.288323836882201
 20
5.7732751845574892
 30
0.0
 10
8.2747301845589352
 20
5.7793248416743044
 30
0.0
 10
8.261008433387353
 20
5.7878648235832406
 30
0.0
 10
8.2563518218307728
 20
5.7910460207373857
 30
0.0
 10
8.2471332262106483
 20
5.7979338664886679
 30
0.0
 10
8.2381248081725627
 20
5.8058252675720068
 30
0.0
 10
8.2337970382115273
 20
5.8099052390103418
 30
0.0
 10
8.2295054728032984
 20
5.8142384273479149
 30
0.0
 10
8.2253097042474757
 20
5.8187655961287401
 30
0.0
  0
POLYLINE
  5
2BB
100
AcDbEntity
  8
0
370
    35
390
0
 62
     7
 48
0.03937
100
AcDb2dPolyline
 66
     1
 10
0.0
 20
0.0
 30
0.0
 71
     2
  0
VERTEX
  5
2BC
100
AcDbEntity
  8
0
370
     0
390
0
100
AcDbVertex
100
AcDb2dVertex
 10
8.219109
 20
5.825722
 30
0.0
 42
0.009602
  0
VERTEX
  5
2BD
100
AcDbEntity
  8
0
370
     0
390
0
100
AcDbVertex
100
AcDb2dVertex
 10
8.22531
 20
5.818766
 30
0.0
  0
SEQEND
  5
2BE
100
AcDbEntity
  8
0
370
     0
390
0
  0
ELLIPSE
  5
2BF
100
AcDbEntity
  8
0
370
    35
390
0
 62
     7
 48
0.03937
100
AcDbEllipse
 10
6.889413
 20
6.443179
 30
0.0
 11
0.0636026413064423
 21
-0.1945763881154466
 31
0.0
210
0.0
220
0.0
230
1.0
 40
0.608973
 41
4.027008305853359
 42
4.1885000934340209
  0
ELLIPSE
  5
2C0
100
AcDbEntity
  8
0
370
    35
390
0
 62
     7
 48
0.03937
100
AcDbEllipse
 10
6.888085
 20
6.429565
 30
0.0
 11
0.0621465071509107
 21
-0.1953039072405265
 31
0.0
210
0.0
220
0.0
230
1.0
 40
0.604345
 41
5.3738784484696085
 42
5.8254709331582326
  0
SPLINE
  5
2C1
100
AcDbEntity
  8
0
370
    35
390
0
 62
     7
 48
0.03937
100
AcDbSpline
210
0.0
220
0.0
230
1.0
 70
     8
 71
     5
 72
    24
 73
    18
 74
     0
 42
0.0
 43
0.0
 40
0.0
 40
0.0
 40
0.0
 40
0.0
 40
0.0
 40
0.0
 40
3.8555506813260796
 40
3.8555506813260796
 40
3.8555506813260796
 40
8.4656229829490819
 40
8.4656229829490819
 40
8.4656229829490819
 40
9.1232571161884177
 40
9.1232571161884177
 40
9.1232571161884177
 40
11.710095184701128
 40
11.710095184701128
 40
11.710095184701128
 40
12.987085880864614
 40
12.987085880864614
 40
12.987085880864614
 40
12.987085880864614
 40
12.987085880864614
 40
12.987085880864614
 10
6.8331250380137893
 20
6.2799548006735435
 30
0.0
 10
6.8237720742909733
 20
6.2900383374700839
 30
0.0
 10
6.8149451044527067
 20
6.3011006381900101
 30
0.0
 10
6.8066853487258738
 20
6.3130246739455043
 30
0.0
 10
6.7899583131440409
 20
6.3407551510604474
 30
0.0
 10
6.7764827191573467
 20
6.3715170239658603
 30
0.0
 10
6.7703022413538108
 20
6.3887867469112924
 30
0.0
 10
6.7645916378332149
 20
6.4087736997806664
 30
0.0
 10
6.7604669348634783
 20
6.4289050269066559
 30
0.0
 10
6.7599774525542742
 20
6.4314174710142984
 30
0.0
 10
6.7576959629953572
 20
6.4437617972694063
 30
0.0
 10
6.7560666428865277
 20
6.4558198220254583
 30
0.0
 10
6.7551707199161362
 20
6.4651146486225883
 30
0.0
 10
6.7543390501551208
 20
6.4789616217031529
 30
0.0
 10
6.7543635757316398
 20
6.4930009347864832
 30
0.0
 10
6.7544694940797037
 20
6.4976694165916768
 30
0.0
 10
6.7546812154062179
 20
6.5023470743423717
 30
0.0
 10
6.754996066574031
 20
6.5069787621245023
 30
0.0
  0
SPLINE
  5
2C2
100
AcDbEntity
  8
0
370
    35
390
0
 62
     7
 48
0.03937
100
AcDbSpline
210
0.0
220
0.0
230
1.0
 70
     8
 71
     5
 72
    18
 73
    12
 74
     0
 42
0.0
 43
0.0
 40
0.0
 40
0.0
 40
0.0
 40
0.0
 40
0.0
 40
0.0
 40
4.1869427220357363
 40
4.1869427220357363
 40
4.1869427220357363
 40
8.2945146870875348
 40
8.2945146870875348
 40
8.2945146870875348
 40
10.320989152252654
 40
10.320989152252654
 40
10.320989152252654
 40
10.320989152252654
 40
10.320989152252654
 40
10.320989152252654
 10
7.0094318440737426
 20
6.2976707287660503
 30
0.0
 10
7.0045502654800336
 20
6.2847280822996678
 30
0.0
 10
6.9985023621013944
 20
6.2729371769522135
 30
0.0
 10
6.9911940544451516
 20
6.2622065859784897
 30
0.0
 10
6.9740649228218814
 20
6.2441698984130545
 30
0.0
 10
6.9530617431689183
 20
6.2338186113754706
 30
0.0
 10
6.9420819152942661
 20
6.2309206804148518
 30
0.0
 10
6.9253918015773381
 20
6.2295861158098287
 30
0.0
 10
6.908493142277802
 20
6.2323978908483371
 30
0.0
 10
6.9029051317104235
 20
6.2337577263868296
 30
0.0
 10
6.8972815728539025
 20
6.2355560232554099
 30
0.0
 10
6.8916762512144585
 20
6.2377676663176764
 30
0.0
  0
LINE
  5
2C3
100
AcDbEntity
  8
0
370
    35
390
0
 62
     7
 48
0.000186
100
AcDbLine
 10
6.701915
 20
6.517577
 30
0.0
 11
6.702668
 21
6.524997
 31
0.0
210
0.0
220
0.0
230
1.0
  0
POLYLINE
  5
2C4
100
AcDbEntity
  8
0
370
    35
390
0
 62
     7
 48
0.03937
100
AcDb2dPolyline
 66
     1
 10
0.0
 20
0.0
 30
0.0
 71
     2
  0
VERTEX
  5
2C5
100
AcDbEntity
  8
0
370
     0
390
0
100
AcDbVertex
100
AcDb2dVertex
 10
6.718505
 20
6.587963
 30
0.0
 42
0.071186
  0
VERTEX
  5
2C6
100
AcDbEntity
  8
0
370
     0
390
0
100
AcDbVertex
100
AcDb2dVertex
 10
6.702705
 20
6.524993
 30
0.0
  0
SEQEND
  5
2C7
100
AcDbEntity
  8
0
370
     0
390
0
  0
POLYLINE
  5
2C8
100
AcDbEntity
  8
0
370
    35
390
0
 62
     7
 48
0.03937
100
AcDb2dPolyline
 66
     1
 10
0.0
 20
0.0
 30
0.0
 71
     2
  0
VERTEX
  5
2C9
100
AcDbEntity
  8
0
370
     0
390
0
100
AcDbVertex
100
AcDb2dVertex
 10
6.75742
 20
6.536354
 30
0.0
 42
0.044723
  0
VERTEX
  5
2CA
100
AcDbEntity
  8
0
370
     0
390
0
100
AcDbVertex
100
AcDb2dVertex
 10
6.701915
 20
6.517576
 30
0.0
  0
SEQEND
  5
2CB
100
AcDbEntity
  8
0
370
     0
390
0
  0
ELLIPSE
  5
2CC
100
AcDbEntity
  8
0
370
    35
390
0
 62
     7
 48
0.03937
100
AcDbEllipse
 10
6.863305
 20
6.43166
 30
0.0
 11
0.0749750353884131
 21
-0.227257387314012
 31
0.0
210
0.0
220
0.0
230
1.0
 40
0.623314
 41
2.3052463915706198
 42
2.7007125087735684
  0
POLYLINE
  5
2CD
100
AcDbEntity
  8
0
370
    35
390
0
 62
     7
 48
0.03937
100
AcDb2dPolyline
 66
     1
 10
0.0
 20
0.0
 30
0.0
 71
     2
  0
VERTEX
  5
2CE
100
AcDbEntity
  8
0
370
     0
390
0
100
AcDbVertex
100
AcDb2dVertex
 10
7.009435
 20
6.297669
 30
0.0
 42
0.035659
  0
VERTEX
  5
2CF
100
AcDbEntity
  8
0
370
     0
390
0
100
AcDbVertex
100
AcDb2dVertex
 10
7.016662
 20
6.322223
 30
0.0
  0
SEQEND
  5
2D0
100
AcDbEntity
  8
0
370
     0
390
0
  0
SPLINE
  5
2D1
100
AcDbEntity
  8
0
370
    35
390
0
 62
     7
 48
0.03937
100
AcDbSpline
210
0.0
220
0.0
230
1.0
 70
     8
 71
     5
 72
    15
 73
     9
 74
     0
 42
0.0
 43
0.0
 40
0.0
 40
0.0
 40
0.0
 40
0.0
 40
0.0
 40
0.0
 40
6.5058985835534457
 40
6.5058985835534457
 40
6.5058985835534457
 40
10.748141366246141
 40
10.748141366246141
 40
10.748141366246141
 40
10.748141366246141
 40
10.748141366246141
 40
10.748141366246141
 10
6.7185394947619166
 20
6.5879490014902533
 30
0.0
 10
6.727737955789836
 20
6.6096950048711882
 30
0.0
 10
6.7398843399134671
 20
6.6286131121763097
 30
0.0
 10
6.754853580673803
 20
6.6437618172617423
 30
0.0
 10
6.7834447968781131
 20
6.6610266654902519
 30
0.0
 10
6.8160280162299252
 20
6.6649224249717793
 30
0.0
 10
6.8292746091131642
 20
6.6643231126209539
 30
0.0
 10
6.8426538795810892
 20
6.6616719551711467
 30
0.0
 10
6.8559479900897617
 20
6.6571286489734636
 30
0.0
  0
ELLIPSE
  5
2D2
100
AcDbEntity
  8
0
370
    35
390
0
 62
     7
 48
0.03937
100
AcDbEllipse
 10
7.554526
 20
5.17562
 30
0.0
 11
-0.1507171594939402
 21
0.4610814884252286
 31
0.0
210
0.0
220
0.0
230
1.0
 40
0.608973
 41
6.2831401961152498
 42
9.4247328497050429
  0
ELLIPSE
  5
2D3
100
AcDbEntity
  8
0
370
    35
390
0
 62
     7
 48
0.03937
100
AcDbEllipse
 10
7.554526
 20
5.17562
 30
0.0
 11
-0.1507171594939402
 21
0.4610814884252286
 31
0.0
210
0.0
220
0.0
230
1.0
 40
0.608973
 41
3.1415475425254558
 42
4.7962269775339728
  0
ELLIPSE
  5
2D4
100
AcDbEntity
  8
0
370
    35
390
0
 62
     7
 48
0.03937
100
AcDbEllipse
 10
7.554526
 20
5.17562
 30
0.0
 11
-0.1507171594939402
 21
0.4610814884252286
 31
0.0
210
0.0
220
0.0
230
1.0
 40
0.608973
 41
4.7962269775339728
 42
6.2831401961152498
  0
POLYLINE
  5
2D5
100
AcDbEntity
  8
0
370
    35
390
0
 62
     7
 48
0.03937
100
AcDb2dPolyline
 66
     1
 10
0.0
 20
0.0
 30
0.0
 71
     2
  0
VERTEX
  5
2D6
100
AcDbEntity
  8
0
370
     0
390
0
100
AcDbVertex
100
AcDb2dVertex
 10
6.930472
 20
6.604467
 30
0.0
 42
0.0339
  0
VERTEX
  5
2D7
100
AcDbEntity
  8
0
370
     0
390
0
100
AcDbVertex
100
AcDb2dVertex
 10
6.924922
 20
6.574299
 30
0.0
  0
SEQEND
  5
2D8
100
AcDbEntity
  8
0
370
     0
390
0
  0
POLYLINE
  5
2D9
100
AcDbEntity
  8
0
370
    35
390
0
 62
     7
 48
0.03937
100
AcDb2dPolyline
 66
     1
 10
0.0
 20
0.0
 30
0.0
 71
     2
  0
VERTEX
  5
2DA
100
AcDbEntity
  8
0
370
     0
390
0
100
AcDbVertex
100
AcDb2dVertex
 10
6.924915
 20
6.5743
 30
0.0
 42
0.030766
  0
VERTEX
  5
2DB
100
AcDbEntity
  8
0
370
     0
390
0
100
AcDbVertex
100
AcDb2dVertex
 10
6.923158
 20
6.541272
 30
0.0
  0
SEQEND
  5
2DC
100
AcDbEntity
  8
0
370
     0
390
0
  0
POLYLINE
  5
2DD
100
AcDbEntity
  8
0
370
    35
390
0
 62
     7
 48
0.03937
100
AcDb2dPolyline
 66
     1
 10
0.0
 20
0.0
 30
0.0
 71
     2
  0
VERTEX
  5
2DE
100
AcDbEntity
  8
0
370
     0
390
0
100
AcDbVertex
100
AcDb2dVertex
 10
6.929444
 20
6.605696
 30
0.0
 42
0.066592
  0
VERTEX
  5
2DF
100
AcDbEntity
  8
0
370
     0
390
0
100
AcDbVertex
100
AcDb2dVertex
 10
6.92174
 20
6.540799
 30
0.0
  0
SEQEND
  5
2E0
100
AcDbEntity
  8
0
370
     0
390
0
  0
POLYLINE
  5
2E1
100
AcDbEntity
  8
0
370
    35
390
0
 62
     7
 48
0.03937
100
AcDb2dPolyline
 66
     1
 10
0.0
 20
0.0
 30
0.0
 71
     2
  0
VERTEX
  5
2E2
100
AcDbEntity
  8
0
370
     0
390
0
100
AcDbVertex
100
AcDb2dVertex
 10
6.882828
 20
6.611892
 30
0.0
 42
0.07051
  0
VERTEX
  5
2E3
100
AcDbEntity
  8
0
370
     0
390
0
100
AcDbVertex
100
AcDb2dVertex
 10
6.868683
 20
6.555904
 30
0.0
  0
SEQEND
  5
2E4
100
AcDbEntity
  8
0
370
     0
390
0
  0
POLYLINE
  5
2E5
100
AcDbEntity
  8
0
370
    35
390
0
 62
     7
 48
0.03937
100
AcDb2dPolyline
 66
     1
 10
0.0
 20
0.0
 30
0.0
 71
     2
  0
VERTEX
  5
2E6
100
AcDbEntity
  8
0
370
     0
390
0
100
AcDbVertex
100
AcDb2dVertex
 10
6.86865
 20
6.555908
 30
0.0
 42
0.030765
  0
VERTEX
  5
2E7
100
AcDbEntity
  8
0
370
     0
390
0
100
AcDbVertex
100
AcDb2dVertex
 10
6.866893
 20
6.52288
 30
0.0
  0
SEQEND
  5
2E8
100
AcDbEntity
  8
0
370
     0
390
0
  0
ELLIPSE
  5
2E9
100
AcDbEntity
  8
0
370
    35
390
0
 62
     7
 48
0.03937
100
AcDbEllipse
 10
7.009432
 20
6.470807
 30
0.0
 11
0.0618708432401608
 21
-0.2064657191684133
 31
0.0
210
0.0
220
0.0
230
1.0
 40
0.62977
 41
3.7927624604573702
 42
4.2777390055848894
  0
POLYLINE
  5
2EA
100
AcDbEntity
  8
0
370
    35
390
0
 62
     7
 48
0.03937
100
AcDb2dPolyline
 66
     1
 10
0.0
 20
0.0
 30
0.0
 71
     2
  0
VERTEX
  5
2EB
100
AcDbEntity
  8
0
370
     0
390
0
100
AcDbVertex
100
AcDb2dVertex
 10
6.826563
 20
6.5935
 30
0.0
 42
0.07051
  0
VERTEX
  5
2EC
100
AcDbEntity
  8
0
370
     0
390
0
100
AcDbVertex
100
AcDb2dVertex
 10
6.812417
 20
6.537512
 30
0.0
  0
SEQEND
  5
2ED
100
AcDbEntity
  8
0
370
     0
390
0
  0
POLYLINE
  5
2EE
100
AcDbEntity
  8
0
370
    35
390
0
 62
     7
 48
0.03937
100
AcDb2dPolyline
 66
     1
 10
0.0
 20
0.0
 30
0.0
 71
     2
  0
VERTEX
  5
2EF
100
AcDbEntity
  8
0
370
     0
390
0
100
AcDbVertex
100
AcDb2dVertex
 10
6.812384
 20
6.537516
 30
0.0
 42
0.030765
  0
VERTEX
  5
2F0
100
AcDbEntity
  8
0
370
     0
390
0
100
AcDbVertex
100
AcDb2dVertex
 10
6.810627
 20
6.504488
 30
0.0
  0
SEQEND
  5
2F1
100
AcDbEntity
  8
0
370
     0
390
0
  0
ELLIPSE
  5
2F2
100
AcDbEntity
  8
0
370
    35
390
0
 62
     7
 48
0.03937
100
AcDbEllipse
 10
6.953167
 20
6.452415
 30
0.0
 11
0.0618707548118377
 21
-0.2064656614817499
 31
0.0
210
0.0
220
0.0
230
1.0
 40
0.62977
 41
3.7927626840518758
 42
4.2777393753104436
  0
SPLINE
  5
2F3
100
AcDbEntity
  8
0
370
    35
390
0
 62
     7
 48
0.03937
100
AcDbSpline
210
0.0
220
0.0
230
1.0
 70
     8
 71
     5
 72
    15
 73
     9
 74
     0
 42
0.0
 43
0.0
 40
0.0
 40
0.0
 40
0.0
 40
0.0
 40
0.0
 40
0.0
 40
5.9139031780909725
 40
5.9139031780909725
 40
5.9139031780909725
 40
9.9495586272506866
 40
9.9495586272506866
 40
9.9495586272506866
 40
9.9495586272506866
 40
9.9495586272506866
 40
9.9495586272506866
 10
8.3757020880704456
 20
3.8076817493566169
 30
0.0
 10
8.3558875018343066
 20
3.8313542392598379
 30
0.0
 10
8.3386398666865276
 20
3.858835610584268
 30
0.0
 10
8.3243459564462867
 20
3.8887427745914649
 30
0.0
 10
8.3055238956521578
 20
3.9416442128739804
 30
0.0
 10
8.2962299545085862
 20
3.9967666299396511
 30
0.0
 10
8.2941119596184318
 20
4.0192514758276596
 30
0.0
 10
8.2937663061452618
 20
4.0415638439324928
 30
0.0
 10
8.295320958788011
 20
4.0633424349655876
 30
0.0
  0
SPLINE
  5
2F4
100
AcDbEntity
  8
0
370
    35
390
0
 62
     7
 48
0.03937
100
AcDbSpline
210
0.0
220
0.0
230
1.0
 70
     8
 71
     5
 72
    18
 73
    12
 74
     0
 42
0.0
 43
0.0
 40
0.0
 40
0.0
 40
0.0
 40
0.0
 40
0.0
 40
0.0
 40
2.4313783587425584
 40
2.4313783587425584
 40
2.4313783587425584
 40
6.6025042739187825
 40
6.6025042739187825
 40
6.6025042739187825
 40
8.3385758339454572
 40
8.3385758339454572
 40
8.3385758339454572
 40
8.3385758339454572
 40
8.3385758339454572
 40
8.3385758339454572
 10
8.3665432983971151
 20
4.1711857136568371
 30
0.0
 10
8.359572790133825
 20
4.1683112319571025
 30
0.0
 10
8.3529034418445143
 20
4.1646901862774968
 30
0.0
 10
8.3465668751707778
 20
4.1603474785565258
 30
0.0
 10
8.3303677313008553
 20
4.146718714549487
 30
0.0
 10
8.3169876348742182
 20
4.1282454661701538
 30
0.0
 10
8.309932844654508
 20
4.1149364333985918
 30
0.0
 10
8.3019801881031601
 20
4.0944761035387582
 30
0.0
 10
8.296819541857074
 20
4.0722091637106486
 30
0.0
 10
8.2955369626302051
 20
4.0655051413213981
 30
0.0
 10
8.2944938219068298
 20
4.0586909840416547
 30
0.0
 10
8.2936846111051867
 20
4.0517739360843414
 30
0.0
  0
POLYLINE
  5
2F5
100
AcDbEntity
  8
0
370
    35
390
0
 62
     7
 48
0.03937
100
AcDb2dPolyline
 66
     1
 10
0.0
 20
0.0
 30
0.0
 71
     2
  0
VERTEX
  5
2F6
100
AcDbEntity
  8
0
370
     0
390
0
100
AcDbVertex
100
AcDb2dVertex
 10
8.293682
 20
4.051774
 30
0.0
 42
0.03076
  0
VERTEX
  5
2F7
100
AcDbEntity
  8
0
370
     0
390
0
100
AcDbVertex
100
AcDb2dVertex
 10
8.291925
 20
4.018752
 30
0.0
  0
SEQEND
  5
2F8
100
AcDbEntity
  8
0
370
     0
390
0
  0
ELLIPSE
  5
2F9
100
AcDbEntity
  8
0
370
    35
390
0
 62
     7
 48
0.03937
100
AcDbEllipse
 10
8.414207
 20
3.956226
 30
0.0
 11
0.0571338576537392
 21
-0.181294599450214
 31
0.0
210
0.0
220
0.0
230
1.0
 40
0.586891
 41
5.392152648731166
 42
5.8474491156299973
  0
SPLINE
  5
2FA
100
AcDbEntity
  8
0
370
    35
390
0
 62
     7
 48
0.03937
100
AcDbSpline
210
0.0
220
0.0
230
1.0
 70
     8
 71
     5
 72
    21
 73
    15
 74
     0
 42
0.0
 43
0.0
 40
0.0
 40
0.0
 40
0.0
 40
0.0
 40
0.0
 40
0.0
 40
2.0613520262099181
 40
2.0613520262099181
 40
2.0613520262099181
 40
6.3215688518156385
 40
6.3215688518156385
 40
6.3215688518156385
 40
8.4742727007182115
 40
8.4742727007182115
 40
8.4742727007182115
 40
10.629463853113515
 40
10.629463853113515
 40
10.629463853113515
 40
10.629463853113515
 40
10.629463853113515
 40
10.629463853113515
 10
8.3673720361466088
 20
3.8161841984643363
 30
0.0
 10
8.3620865684028551
 20
3.821877916223031
 30
0.0
 10
8.3569717772810854
 20
3.8279243717735869
 30
0.0
 10
8.3520410738162969
 20
3.834295417812692
 30
0.0
 10
8.3375632359191361
 20
3.8546632971454122
 30
0.0
 10
8.324964570103063
 20
3.8776362081128939
 30
0.0
 10
8.3174230456314628
 20
3.8941082157840246
 30
0.0
 10
8.3077407886380108
 20
3.9199453589804136
 30
0.0
 10
8.3007636615977294
 20
3.9465273166184285
 30
0.0
 10
8.2987309230503961
 20
3.9555082426362622
 30
0.0
 10
8.2952892241056819
 20
3.9735751833618504
 30
0.0
 10
8.2931358843896188
 20
3.9917153530709313
 30
0.0
 10
8.2923887955081863
 20
4.0007912634257252
 30
0.0
 10
8.2919822265413536
 20
4.009810454269819
 30
0.0
 10
8.2919222551654403
 20
4.0187515554026163
 30
0.0
  0
ELLIPSE
  5
2FB
100
AcDbEntity
  8
0
370
    35
390
0
 62
     7
 48
0.03937
100
AcDbEllipse
 10
8.414261
 20
3.951429
 30
0.0
 11
0.0575262656526568
 21
-0.1763130378178023
 31
0.0
210
0.0
220
0.0
230
1.0
 40
0.591461
 41
5.8364771046711343
 42
6.2755545528421308
  0
SPLINE
  5
2FC
100
AcDbEntity
  8
0
370
    35
390
0
 62
     7
 48
0.03937
100
AcDbSpline
210
0.0
220
0.0
230
1.0
 70
     8
 71
     5
 72
    18
 73
    12
 74
     0
 42
0.0
 43
0.0
 40
0.0
 40
0.0
 40
0.0
 40
0.0
 40
0.0
 40
0.0
 40
5.6436805915420312
 40
5.6436805915420312
 40
5.6436805915420312
 40
14.658390406090268
 40
14.658390406090268
 40
14.658390406090268
 40
14.700936137332574
 40
14.700936137332574
 40
14.700936137332574
 40
14.700936137332574
 40
14.700936137332574
 40
14.700936137332574
 10
8.4781629580914348
 20
3.7948071330747761
 30
0.0
 10
8.4619066293142442
 20
3.8005816757669786
 30
0.0
 10
8.4456492838187032
 20
3.8103695955904944
 30
0.0
 10
8.430091582169025
 20
3.8237163759833646
 30
0.0
 10
8.3928307221087746
 20
3.8654874599111921
 30
0.0
 10
8.3654925634430164
 20
3.9218199971221641
 30
0.0
 10
8.3535358826377788
 20
3.9596060700000741
 30
0.0
 10
8.3470832923202511
 20
3.9985464336631127
 30
0.0
 10
8.3467450256137923
 20
4.0361409801590034
 30
0.0
 10
8.3467435716042271
 20
4.0363175476784061
 30
0.0
 10
8.3467422526237627
 20
4.0364940848652564
 30
0.0
 10
8.3467410687259687
 20
4.0366705915688472
 30
0.0
  0
SPLINE
  5
2FD
100
AcDbEntity
  8
0
370
    35
390
0
 62
     7
 48
0.03937
100
AcDbSpline
210
0.0
220
0.0
230
1.0
 70
     8
 71
     5
 72
    18
 73
    12
 74
     0
 42
0.0
 43
0.0
 40
0.0
 40
0.0
 40
0.0
 40
0.0
 40
0.0
 40
0.0
 40
4.3047580062083357
 40
4.3047580062083357
 40
4.3047580062083357
 40
7.2731416563166604
 40
7.2731416563166604
 40
7.2731416563166604
 40
7.295401078387032
 40
7.295401078387032
 40
7.295401078387032
 40
7.295401078387032
 40
7.295401078387032
 40
7.295401078387032
 10
8.3872295269016313
 20
4.1648276095781762
 30
0.0
 10
8.3776145951866798
 20
4.1543536159499501
 30
0.0
 10
8.3692286698195524
 20
4.1418643305584606
 30
0.0
 10
8.3623671184506598
 20
4.1277081689834576
 30
0.0
 10
8.3533608297441884
 20
4.1019339273042039
 30
0.0
 10
8.348550623993189
 20
4.0735763338450344
 30
0.0
 10
8.3472705773975804
 20
4.0616023626732121
 30
0.0
 10
8.3466710091207457
 20
4.0493513127653102
 30
0.0
 10
8.3467393214569725
 20
4.036947605156965
 30
0.0
 10
8.3467398668990942
 20
4.0368552756528162
 30
0.0
 10
8.3467404493246811
 20
4.0367629377831147
 30
0.0
 10
8.3467410687259687
 20
4.0366705915688472
 30
0.0
  0
POLYLINE
  5
2FE
100
AcDbEntity
  8
0
370
    35
390
0
 62
     7
 48
0.03937
100
AcDb2dPolyline
 66
     1
 10
0.0
 20
0.0
 30
0.0
 71
     2
  0
VERTEX
  5
2FF
100
AcDbEntity
  8
0
370
     0
390
0
100
AcDbVertex
100
AcDb2dVertex
 10
8.47736
 20
3.796115
 30
0.0
 42
0.057061
  0
VERTEX
  5
300
100
AcDbEntity
  8
0
370
     0
390
0
100
AcDbVertex
100
AcDb2dVertex
 10
8.496979
 20
3.790968
 30
0.0
  0
SEQEND
  5
301
100
AcDbEntity
  8
0
370
     0
390
0
  0
SPLINE
  5
302
100
AcDbEntity
  8
0
370
    35
390
0
 62
     7
 48
0.03937
100
AcDbSpline
210
0.0
220
0.0
230
1.0
 70
     8
 71
     5
 72
    15
 73
     9
 74
     0
 42
0.0
 43
0.0
 40
0.0
 40
0.0
 40
0.0
 40
0.0
 40
0.0
 40
0.0
 40
6.2551541765717831
 40
6.2551541765717831
 40
6.2551541765717831
 40
10.53671538289621
 40
10.53671538289621
 40
10.53671538289621
 40
10.53671538289621
 40
10.53671538289621
 40
10.53671538289621
 10
8.3253757448281345
 20
3.7824360144381712
 30
0.0
 10
8.3037865179580557
 20
3.8064903858399046
 30
0.0
 10
8.2849770316742397
 20
3.8350992370336674
 30
0.0
 10
8.2694609813681481
 20
3.8665467714603459
 30
0.0
 10
8.2491557883456004
 20
3.9224775154059097
 30
0.0
 10
8.239533416164786
 20
3.9809081193842815
 30
0.0
 10
8.2374875807004244
 20
4.0047801701852928
 30
0.0
 10
8.2374529543539072
 20
4.0284205458808495
 30
0.0
 10
8.2395830743356289
 20
4.0513834342969171
 30
0.0
  0
POLYLINE
  5
303
100
AcDbEntity
  8
0
370
    35
390
0
 62
     7
 48
0.03937
100
AcDb2dPolyline
 66
     1
 10
0.0
 20
0.0
 30
0.0
 71
     2
  0
VERTEX
  5
304
100
AcDbEntity
  8
0
370
     0
390
0
100
AcDbVertex
100
AcDb2dVertex
 10
8.478164
 20
3.794811
 30
0.0
 42
0.053732
  0
VERTEX
  5
305
100
AcDbEntity
  8
0
370
     0
390
0
100
AcDbVertex
100
AcDb2dVertex
 10
8.496369
 20
3.790386
 30
0.0
  0
SEQEND
  5
306
100
AcDbEntity
  8
0
370
     0
390
0
  0
SPLINE
  5
307
100
AcDbEntity
  8
0
370
    35
390
0
 62
     7
 48
0.03937
100
AcDbSpline
210
0.0
220
0.0
230
1.0
 70
     8
 71
     5
 72
    15
 73
     9
 74
     0
 42
0.0
 43
0.0
 40
0.0
 40
0.0
 40
0.0
 40
0.0
 40
0.0
 40
0.0
 40
5.9139032420809547
 40
5.9139032420809547
 40
5.9139032420809547
 40
9.9495590929644138
 40
9.9495590929644138
 40
9.9495590929644138
 40
9.9495590929644138
 40
9.9495590929644138
 40
9.9495590929644138
 10
8.4319675695618663
 20
3.8260736668475941
 30
0.0
 10
8.4121529852639672
 20
3.8497461539343436
 30
0.0
 10
8.3949053511925928
 20
3.8772275217162768
 30
0.0
 10
8.3806114410338157
 20
3.9071346823487727
 30
0.0
 10
8.3617893787512898
 20
3.9600361190696076
 30
0.0
 10
8.352495435704741
 20
4.0151585376426189
 30
0.0
 10
8.3503774399542117
 20
4.0376433866686083
 30
0.0
 10
8.3500317858590325
 20
4.0599557568244178
 30
0.0
 10
8.3515864386298801
 20
4.0817343503564292
 30
0.0
  0
ELLIPSE
  5
308
100
AcDbEntity
  8
0
370
    35
390
0
 62
     7
 48
0.03937
100
AcDbEllipse
 10
8.495711
 20
3.982519
 30
0.0
 11
0.0659141863289659
 21
-0.2095668458109553
 31
0.0
210
0.0
220
0.0
230
1.0
 40
0.62982
 41
3.4971606475845389
 42
4.0940881297850957
  0
POLYLINE
  5
309
100
AcDbEntity
  8
0
370
    35
390
0
 62
     7
 48
0.03937
100
AcDb2dPolyline
 66
     1
 10
0.0
 20
0.0
 30
0.0
 71
     2
  0
VERTEX
  5
30A
100
AcDbEntity
  8
0
370
     0
390
0
100
AcDbVertex
100
AcDb2dVertex
 10
8.349947
 20
4.070166
 30
0.0
 42
0.03076
  0
VERTEX
  5
30B
100
AcDbEntity
  8
0
370
     0
390
0
100
AcDbVertex
100
AcDb2dVertex
 10
8.348191
 20
4.037143
 30
0.0
  0
SEQEND
  5
30C
100
AcDbEntity
  8
0
370
     0
390
0
  0
ELLIPSE
  5
30D
100
AcDbEntity
  8
0
370
    35
390
0
 62
     7
 48
0.03937
100
AcDbEllipse
 10
8.470472
 20
3.974618
 30
0.0
 11
0.0571338590412645
 21
-0.1812946237123756
 31
0.0
210
0.0
220
0.0
230
1.0
 40
0.586891
 41
5.3921527390184867
 42
5.8474491659704722
  0
SPLINE
  5
30E
100
AcDbEntity
  8
0
370
    35
390
0
 62
     7
 48
0.03937
100
AcDbSpline
210
0.0
220
0.0
230
1.0
 70
     8
 71
     5
 72
    21
 73
    15
 74
     0
 42
0.0
 43
0.0
 40
0.0
 40
0.0
 40
0.0
 40
0.0
 40
0.0
 40
0.0
 40
2.0613523572339121
 40
2.0613523572339121
 40
2.0613523572339121
 40
6.3215696299602211
 40
6.3215696299602211
 40
6.3215696299602211
 40
8.4742739352300518
 40
8.4742739352300518
 40
8.4742739352300518
 40
10.629465771354171
 40
10.629465771354171
 40
10.629465771354171
 40
10.629465771354171
 40
10.629465771354171
 40
10.629465771354171
 10
8.4236375171875686
 20
3.8345761160646981
 30
0.0
 10
8.4183520511418948
 20
3.8402698318317916
 30
0.0
 10
8.4132372608671329
 20
3.8463162859277737
 30
0.0
 10
8.4083065570574291
 20
3.8526873317751527
 30
0.0
 10
8.393828717648093
 20
3.8730552119633419
 30
0.0
 10
8.3812300523150274
 20
3.8960281210912457
 30
0.0
 10
8.373688530059141
 20
3.9125001235702723
 30
0.0
 10
8.3640062743829748
 20
3.9383372583677985
 30
0.0
 10
8.3570291457886761
 20
3.9649192159798394
 30
0.0
 10
8.3549964063618969
 20
3.9739001438840833
 30
0.0
 10
8.351554705846242
 20
3.9919670889199708
 30
0.0
 10
8.349401365062592
 20
4.0101072633151311
 30
0.0
 10
8.348654275758804
 20
4.01918317655901
 30
0.0
 10
8.3482477065555152
 20
4.0282023702916074
 30
0.0
 10
8.348187735160705
 20
4.0371434742614989
 30
0.0
  0
SPLINE
  5
30F
100
AcDbEntity
  8
0
370
    35
390
0
 62
     7
 48
0.03937
100
AcDbSpline
210
0.0
220
0.0
230
1.0
 70
     8
 71
     5
 72
    24
 73
    18
 74
     0
 42
0.0
 43
0.0
 40
0.0
 40
0.0
 40
0.0
 40
0.0
 40
0.0
 40
0.0
 40
4.1852971905463034
 40
4.1852971905463034
 40
4.1852971905463034
 40
7.0897163086212478
 40
7.0897163086212478
 40
7.0897163086212478
 40
10.084166507723889
 40
10.084166507723889
 40
10.084166507723889
 40
11.596731363026137
 40
11.596731363026137
 40
11.596731363026137
 40
14.652047370620924
 40
14.652047370620924
 40
14.652047370620924
 40
14.652047370620924
 40
14.652047370620924
 40
14.652047370620924
 10
8.4218974780961648
 20
3.7764152142158918
 30
0.0
 10
8.4098419469471484
 20
3.7806975574343786
 30
0.0
 10
8.397785850704329
 20
3.7871870826740275
 30
0.0
 10
8.3859441514992419
 20
3.7957282362451763
 30
0.0
 10
8.3667288669614663
 20
3.813255893332467
 30
0.0
 10
8.3495893715571636
 20
3.8348408426146801
 30
0.0
 10
8.342929716660505
 20
3.8443097579343304
 30
0.0
 10
8.330253881692558
 20
3.8645950283850157
 30
0.0
 10
8.3193417230333626
 20
3.8869133192029879
 30
0.0
 10
8.3142964730937248
 20
3.898706542356325
 30
0.0
 10
8.3075744716400575
 20
3.9168289863938428
 30
0.0
 10
8.3021751939059794
 20
3.9353690996706154
 30
0.0
 10
8.3005140827792587
 20
3.9416293132303748
 30
0.0
 10
8.2959601711971516
 20
3.9606104154194872
 30
0.0
 10
8.2928047212059308
 20
3.9798433299426423
 30
0.0
 10
8.2913422524790672
 20
3.9927706884378567
 30
0.0
 10
8.2905606074100113
 20
4.0056032822254419
 30
0.0
 10
8.2904755887306987
 20
4.0182786727099629
 30
0.0
  0
SPLINE
  5
310
100
AcDbEntity
  8
0
370
    35
390
0
 62
     7
 48
0.03937
100
AcDbSpline
210
0.0
220
0.0
230
1.0
 70
     8
 71
     5
 72
    21
 73
    15
 74
     0
 42
0.0
 43
0.0
 40
0.0
 40
0.0
 40
0.0
 40
0.0
 40
0.0
 40
0.0
 40
2.9098154995695054
 40
2.9098154995695054
 40
2.9098154995695054
 40
6.9105444789733994
 40
6.9105444789733994
 40
6.9105444789733994
 40
8.9676934943231714
 40
8.9676934943231714
 40
8.9676934943231714
 40
10.04158720868036
 40
10.04158720868036
 40
10.04158720868036
 40
10.04158720868036
 40
10.04158720868036
 40
10.04158720868036
 10
8.3663623970752869
 20
4.1712233332746305
 30
0.0
 10
8.3579619617323893
 20
4.1679102647647843
 30
0.0
 10
8.3499832070465736
 20
4.1635199808174486
 30
0.0
 10
8.3424874382666427
 20
4.1580940471376744
 30
0.0
 10
8.3259935237703591
 20
4.1429491845861222
 30
0.0
 10
8.3127273131393569
 20
4.1226901014539123
 30
0.0
 10
8.3063605897979613
 20
4.1095417732591457
 30
0.0
 10
8.2987260726098349
 20
4.0881648994180866
 30
0.0
 10
8.2940174139676248
 20
4.0649741013476586
 30
0.0
 10
8.2927441656506353
 20
4.0568724880617655
 30
0.0
 10
8.2913184719394337
 20
4.0443659831246679
 30
0.0
 10
8.2906451018335652
 20
4.0315836181414397
 30
0.0
 10
8.2905018853337218
 20
4.0271696362910214
 30
0.0
 10
8.290445706052413
 20
4.0227338656047449
 30
0.0
 10
8.2904755887306987
 20
4.0182786727099629
 30
0.0
  0
SPLINE
  5
311
100
AcDbEntity
  8
0
370
    35
390
0
 62
     7
 48
0.03937
100
AcDbSpline
210
0.0
220
0.0
230
1.0
 70
     8
 71
     5
 72
    24
 73
    18
 74
     0
 42
0.0
 43
0.0
 40
0.0
 40
0.0
 40
0.0
 40
0.0
 40
0.0
 40
0.0
 40
3.8749265062384581
 40
3.8749265062384581
 40
3.8749265062384581
 40
5.2061490797211185
 40
5.2061490797211185
 40
5.2061490797211185
 40
9.3116305841530931
 40
9.3116305841530931
 40
9.3116305841530931
 40
10.694225400743656
 40
10.694225400743656
 40
10.694225400743656
 40
13.482271704224015
 40
13.482271704224015
 40
13.482271704224015
 40
13.482271704224015
 40
13.482271704224015
 40
13.482271704224015
 10
8.5175266764246107
 20
3.8209278646426266
 30
0.0
 10
8.5064429428012076
 20
3.8271263860637146
 30
0.0
 10
8.4955063945097429
 20
3.8351029341365175
 30
0.0
 10
8.4849750372086667
 20
3.8446742092038635
 30
0.0
 10
8.4716401459379789
 20
3.859235389562591
 30
0.0
 10
8.4595315839299019
 20
3.8757314159186
 30
0.0
 10
8.4565160202297012
 20
3.880071723870226
 30
0.0
 10
8.4445386704734844
 20
3.898274744417622
 30
0.0
 10
8.4339607380254424
 20
3.9183835796189221
 30
0.0
 10
8.4269047315451466
 20
3.9344229382169793
 30
0.0
 10
8.4188770368157329
 20
3.9566111086690001
 30
0.0
 10
8.412833977331589
 20
3.9793067311329748
 30
0.0
 10
8.411438593320625
 20
3.9850502381053636
 30
0.0
 10
8.4076137522695031
 20
4.0024495638792841
 30
0.0
 10
8.4049672933433666
 20
4.0200171947261589
 30
0.0
 10
8.4037417913543671
 20
4.0317984353505478
 30
0.0
 10
8.4030841302268353
 20
4.0434959243545485
 30
0.0
 10
8.4030065487212209
 20
4.0550625104277254
 30
0.0
  0
ELLIPSE
  5
312
100
AcDbEntity
  8
0
370
    35
390
0
 62
     7
 48
0.03937
100
AcDbEllipse
 10
8.547098
 20
4.003394
 30
0.0
 11
0.0619779517748305
 21
-0.2065447797128324
 31
0.0
210
0.0
220
0.0
230
1.0
 40
0.629832
 41
3.7770762886206315
 42
4.2772496231347201
  0
ELLIPSE
  5
313
100
AcDbEntity
  8
0
370
    35
390
0
 62
     7
 48
0.03937
100
AcDbEllipse
 10
8.4129
 20
3.950593
 30
0.0
 11
0.0574589657970364
 21
-0.1759434763684769
 31
0.0
210
0.0
220
0.0
230
1.0
 40
0.592058
 41
5.8548236693353291
 42
6.28334307246178
  0
SPLINE
  5
314
100
AcDbEntity
  8
0
370
    35
390
0
 62
     7
 48
0.03937
100
AcDbSpline
210
0.0
220
0.0
230
1.0
 70
     8
 71
     5
 72
    15
 73
     9
 74
     0
 42
0.0
 43
0.0
 40
0.0
 40
0.0
 40
0.0
 40
0.0
 40
0.0
 40
0.0
 40
4.9318600774429013
 40
4.9318600774429013
 40
4.9318600774429013
 40
6.213891488041309
 40
6.213891488041309
 40
6.213891488041309
 40
6.213891488041309
 40
6.213891488041309
 40
6.213891488041309
 10
8.4703751872215189
 20
3.7746545181405327
 30
0.0
 10
8.483063235739932
 20
3.7788019412016269
 30
0.0
 10
8.4946805124196221
 20
3.7862115072339635
 30
0.0
 10
8.5047358910073836
 20
3.7967193817866196
 30
0.0
 10
8.5150846340421555
 20
3.8131779962916483
 30
0.0
 10
8.5223738473774642
 20
3.8327988169037468
 30
0.0
 10
8.5237475170193662
 20
3.8369766344365104
 30
0.0
 10
8.5249870632147857
 20
3.8412647693793769
 30
0.0
 10
8.5260939633520483
 20
3.8456584726146836
 30
0.0
  0
SPLINE
  5
315
100
AcDbEntity
  8
0
370
    35
390
0
 62
     7
 48
0.03937
100
AcDbSpline
210
0.0
220
0.0
230
1.0
 70
     8
 71
     5
 72
    15
 73
     9
 74
     0
 42
0.0
 43
0.0
 40
0.0
 40
0.0
 40
0.0
 40
0.0
 40
0.0
 40
0.0
 40
5.9139029329450175
 40
5.9139029329450175
 40
5.9139029329450175
 40
9.9495572189497175
 40
9.9495572189497175
 40
9.9495572189497175
 40
9.9495572189497175
 40
9.9495572189497175
 40
9.9495572189497175
 10
8.4882330536546924
 20
3.8444655808727211
 30
0.0
 10
8.4684184610028144
 20
3.8681380776163943
 30
0.0
 10
8.45117082165706
 20
3.8956194580883272
 30
0.0
 10
8.436876909919258
 20
3.9255266308305292
 30
0.0
 10
8.4180548510343716
 20
3.9784280726405998
 30
0.0
 10
8.4087609129292673
 20
4.0335504850112365
 30
0.0
 10
8.4066429196741144
 20
4.05603532255987
 30
0.0
 10
8.4062972664525102
 20
4.0783476840052586
 30
0.0
 10
8.4078519186251892
 20
4.1001262690112021
 30
0.0
  0
POLYLINE
  5
316
100
AcDbEntity
  8
0
370
    35
390
0
 62
     7
 48
0.03937
100
AcDb2dPolyline
 66
     1
 10
0.0
 20
0.0
 30
0.0
 71
     2
  0
VERTEX
  5
317
100
AcDbEntity
  8
0
370
     0
390
0
100
AcDbVertex
100
AcDb2dVertex
 10
8.420914
 20
4.145778
 30
0.0
 42
0.072515
  0
VERTEX
  5
318
100
AcDbEntity
  8
0
370
     0
390
0
100
AcDbVertex
100
AcDb2dVertex
 10
8.406248
 20
4.088554
 30
0.0
  0
SEQEND
  5
319
100
AcDbEntity
  8
0
370
     0
390
0
  0
POLYLINE
  5
31A
100
AcDbEntity
  8
0
370
    35
390
0
 62
     7
 48
0.03937
100
AcDb2dPolyline
 66
     1
 10
0.0
 20
0.0
 30
0.0
 71
     2
  0
VERTEX
  5
31B
100
AcDbEntity
  8
0
370
     0
390
0
100
AcDbVertex
100
AcDb2dVertex
 10
8.406213
 20
4.088558
 30
0.0
 42
0.03076
  0
VERTEX
  5
31C
100
AcDbEntity
  8
0
370
     0
390
0
100
AcDbVertex
100
AcDb2dVertex
 10
8.404456
 20
4.055535
 30
0.0
  0
SEQEND
  5
31D
100
AcDbEntity
  8
0
370
     0
390
0
  0
POLYLINE
  5
31E
100
AcDbEntity
  8
0
370
    35
390
0
 62
     7
 48
0.03937
100
AcDb2dPolyline
 66
     1
 10
0.0
 20
0.0
 30
0.0
 71
     2
  0
VERTEX
  5
31F
100
AcDbEntity
  8
0
370
     0
390
0
100
AcDbVertex
100
AcDb2dVertex
 10
8.479929
 20
3.852991
 30
0.0
 42
0.075533
  0
VERTEX
  5
320
100
AcDbEntity
  8
0
370
     0
390
0
100
AcDbVertex
100
AcDb2dVertex
 10
8.517974
 20
3.821926
 30
0.0
  0
SEQEND
  5
321
100
AcDbEntity
  8
0
370
     0
390
0
  0
SPLINE
  5
322
100
AcDbEntity
  8
0
370
    35
390
0
 62
     7
 48
0.03937
100
AcDbSpline
210
0.0
220
0.0
230
1.0
 70
     8
 71
     5
 72
    21
 73
    15
 74
     0
 42
0.0
 43
0.0
 40
0.0
 40
0.0
 40
0.0
 40
0.0
 40
0.0
 40
0.0
 40
2.0613520657846331
 40
2.0613520657846331
 40
2.0613520657846331
 40
6.3215681002723407
 40
6.3215681002723407
 40
6.3215681002723407
 40
8.4742714638066374
 40
8.4742714638066374
 40
8.4742714638066374
 40
10.629461802966363
 40
10.629461802966363
 40
10.629461802966363
 40
10.629461802966363
 40
10.629461802966363
 40
10.629461802966363
 10
8.4799030003146694
 20
3.8529680311426477
 30
0.0
 10
8.4746175256168002
 20
3.8586617561317023
 30
0.0
 10
8.4695027298513335
 20
3.8647082179256755
 30
0.0
 10
8.4645720251809795
 20
3.8710792669579588
 30
0.0
 10
8.4500941869883661
 20
3.8914471508543791
 30
0.0
 10
8.4374955218942418
 20
3.914420066305988
 30
0.0
 10
8.429953998673021
 20
3.9308920752840804
 30
0.0
 10
8.4202717435300691
 20
3.9567292188999481
 30
0.0
 10
8.4132946180444641
 20
3.9833111748392627
 30
0.0
 10
8.4112618800417831
 20
3.9922920997498528
 30
0.0
 10
8.4078201824015384
 20
4.0103590363100272
 30
0.0
 10
8.4056668436606365
 20
4.028499200979371
 30
0.0
 10
8.4049197552108907
 20
4.0375751079563695
 30
0.0
 10
8.4045131865111422
 20
4.046594295362846
 30
0.0
 10
8.4044532151561295
 20
4.055535393120433
 30
0.0
  0
SPLINE
  5
323
100
AcDbEntity
  8
0
370
    35
390
0
 62
     7
 48
0.03937
100
AcDbSpline
210
0.0
220
0.0
230
1.0
 70
     8
 71
     5
 72
    21
 73
    15
 74
     0
 42
0.0
 43
0.0
 40
0.0
 40
0.0
 40
0.0
 40
0.0
 40
0.0
 40
0.0
 40
1.9598925401365679
 40
1.9598925401365679
 40
1.9598925401365679
 40
5.9996313056438488
 40
5.9996313056438488
 40
5.9996313056438488
 40
8.0336437039515243
 40
8.0336437039515243
 40
8.0336437039515243
 40
10.068637633646638
 40
10.068637633646638
 40
10.068637633646638
 40
10.068637633646638
 40
10.068637633646638
 40
10.068637633646638
 10
8.5276799211328225
 20
3.8788656080496891
 30
0.0
 10
8.5228423809306335
 20
3.8846229312200813
 30
0.0
 10
8.5181720803463428
 20
3.8906717503161516
 30
0.0
 10
8.5136759318059472
 20
3.8969902759248742
 30
0.0
 10
8.5004630465899016
 20
3.9171047055720201
 30
0.0
 10
8.4889777369750785
 20
3.9394973251497012
 30
0.0
 10
8.4821662953624664
 20
3.9553674344363379
 30
0.0
 10
8.473467058565225
 20
3.9799903700013877
 30
0.0
 10
8.4672043303649627
 20
4.0052053542228681
 30
0.0
 10
8.465377821278576
 20
4.0137224291930691
 30
0.0
 10
8.4622936078601043
 20
4.0308056360663063
 30
0.0
 10
8.4603639954883416
 20
4.0479358588012824
 30
0.0
 10
8.4596943215617628
 20
4.0564997968108472
 30
0.0
 10
8.4593286554275569
 20
4.0650119825369329
 30
0.0
 10
8.4592720287165086
 20
4.0734544292866142
 30
0.0
  0
POLYLINE
  5
324
100
AcDbEntity
  8
0
370
    35
390
0
 62
     7
 48
0.03937
100
AcDb2dPolyline
 66
     1
 10
0.0
 20
0.0
 30
0.0
 71
     2
  0
VERTEX
  5
325
100
AcDbEntity
  8
0
370
     0
390
0
100
AcDbVertex
100
AcDb2dVertex
 10
8.46036
 20
4.099992
 30
0.0
 42
0.024325
  0
VERTEX
  5
326
100
AcDbEntity
  8
0
370
     0
390
0
100
AcDbVertex
100
AcDb2dVertex
 10
8.459273
 20
4.073454
 30
0.0
  0
SEQEND
  5
327
100
AcDbEntity
  8
0
370
     0
390
0
  0
SPLINE
  5
328
100
AcDbEntity
  8
0
370
    35
390
0
 62
     7
 48
0.03937
100
AcDbSpline
210
0.0
220
0.0
230
1.0
 70
     8
 71
     5
 72
    15
 73
     9
 74
     0
 42
0.0
 43
0.0
 40
0.0
 40
0.0
 40
0.0
 40
0.0
 40
0.0
 40
0.0
 40
6.4237186318685104
 40
6.4237186318685104
 40
6.4237186318685104
 40
8.0428589919160753
 40
8.0428589919160753
 40
8.0428589919160753
 40
8.0428589919160753
 40
8.0428589919160753
 40
8.0428589919160753
 10
8.5276052610479969
 20
3.8851919096915766
 30
0.0
 10
8.5081601804262554
 20
3.9135827047295395
 30
0.0
 10
8.4919752564308677
 20
3.9456241092802764
 30
0.0
 10
8.4794012670425225
 20
3.9798130454975249
 30
0.0
 10
8.468460751034506
 20
4.0241239981334926
 30
0.0
 10
8.4641934950063948
 20
4.0686610230416251
 30
0.0
 10
8.4636109055043445
 20
4.077634016633267
 30
0.0
 10
8.463314537649568
 20
4.0865630959037116
 30
0.0
 10
8.4633112053189841
 20
4.0954423247047815
 30
0.0
  0
POLYLINE
  5
329
100
AcDbEntity
  8
0
370
    35
390
0
 62
     7
 48
0.03937
100
AcDb2dPolyline
 66
     1
 10
0.0
 20
0.0
 30
0.0
 71
     2
  0
VERTEX
  5
32A
100
AcDbEntity
  8
0
370
     0
390
0
100
AcDbVertex
100
AcDb2dVertex
 10
8.461602
 20
4.098094
 30
0.0
 42
0.022021
  0
VERTEX
  5
32B
100
AcDbEntity
  8
0
370
     0
390
0
100
AcDbVertex
100
AcDb2dVertex
 10
8.46072
 20
4.073927
 30
0.0
  0
SEQEND
  5
32C
100
AcDbEntity
  8
0
370
     0
390
0
  0
SPLINE
  5
32D
100
AcDbEntity
  8
0
370
    35
390
0
 62
     7
 48
0.03937
100
AcDbSpline
210
0.0
220
0.0
230
1.0
 70
     8
 71
     5
 72
    18
 73
    12
 74
     0
 42
0.0
 43
0.0
 40
0.0
 40
0.0
 40
0.0
 40
0.0
 40
0.0
 40
0.0
 40
1.938512697486769
 40
1.938512697486769
 40
1.938512697486769
 40
6.9448141909730774
 40
6.9448141909730774
 40
6.9448141909730774
 40
9.9610320482755199
 40
9.9610320482755199
 40
9.9610320482755199
 40
9.9610320482755199
 40
9.9610320482755199
 40
9.9610320482755199
 10
8.5276666746377181
 20
3.8810931161938731
 30
0.0
 10
8.5229189630518718
 20
3.886861165365485
 30
0.0
 10
8.518337603787673
 20
3.8929094829144106
 30
0.0
 10
8.5139296296191187
 20
3.8992164943196577
 30
0.0
 10
8.4987793962865439
 20
3.9226731381394977
 30
0.0
 10
8.4859664987791437
 20
3.9491274192961923
 30
0.0
 10
8.4782428591557366
 20
3.9692304781003127
 30
0.0
 10
8.4684459087733028
 20
4.0022945026406651
 30
0.0
 10
8.4629830978622476
 20
4.0360561812720217
 30
0.0
 10
8.4615654152322417
 20
4.048747989513056
 30
0.0
 10
8.4608026258650071
 20
4.0614141254445215
 30
0.0
 10
8.4607186951511366
 20
4.0739273119792321
 30
0.0
  0
SPLINE
  5
32E
100
AcDbEntity
  8
0
370
    35
390
0
 62
     7
 48
0.03937
100
AcDbSpline
210
0.0
220
0.0
230
1.0
 70
     8
 71
     5
 72
    15
 73
     9
 74
     0
 42
0.0
 43
0.0
 40
0.0
 40
0.0
 40
0.0
 40
0.0
 40
0.0
 40
0.0
 40
6.1921835647637744
 40
6.1921835647637744
 40
6.1921835647637744
 40
8.9240362544393168
 40
8.9240362544393168
 40
8.9240362544393168
 40
8.9240362544393168
 40
8.9240362544393168
 40
8.9240362544393168
 10
8.2821588321849759
 20
5.837030002229227
 30
0.0
 10
8.2614329337936532
 20
5.8618476187942115
 30
0.0
 10
8.2435240440352668
 20
5.8908317285739562
 30
0.0
 10
8.2288708284588434
 20
5.9224018832944036
 30
0.0
 10
8.2126884395215338
 20
5.9701982291703226
 30
0.0
 10
8.2042647892441458
 20
6.0195097781298958
 30
0.0
 10
8.2024410091354572
 20
6.0346680047779326
 30
0.0
 10
8.2014058956149256
 20
6.049804537987205
 30
0.0
 10
8.2011980038106476
 20
6.0648180369589157
 30
0.0
  0
SPLINE
  5
32F
100
AcDbEntity
  8
0
370
    35
390
0
 62
     7
 48
0.03937
100
AcDbSpline
210
0.0
220
0.0
230
1.0
 70
     8
 71
     5
 72
    18
 73
    12
 74
     0
 42
0.0
 43
0.0
 40
0.0
 40
0.0
 40
0.0
 40
0.0
 40
0.0
 40
0.0
 40
5.4075400293983247
 40
5.4075400293983247
 40
5.4075400293983247
 40
7.5564413871045044
 40
7.5564413871045044
 40
7.5564413871045044
 40
10.704844980216201
 40
10.704844980216201
 40
10.704844980216201
 40
10.704844980216201
 40
10.704844980216201
 40
10.704844980216201
 10
8.1985665244070898
 20
6.0496341246908845
 30
0.0
 10
8.1985792921957703
 20
6.0272320087108477
 30
0.0
 10
8.200779484837021
 20
6.0043126931792781
 30
0.0
 10
8.2050560262457655
 20
5.9813270145531989
 30
0.0
 10
8.2137920570030083
 20
5.949847286571897
 30
0.0
 10
8.2259272898664495
 20
5.9203749893130331
 30
0.0
 10
8.2296636785685227
 20
5.9121316145024201
 30
0.0
 10
8.239508699428999
 20
5.892343065343959
 30
0.0
 10
8.2509345599656285
 20
5.8738996732038666
 30
0.0
 10
8.2582353474125156
 20
5.8635555052869943
 30
0.0
 10
8.2659611029267026
 20
5.8539848736522675
 30
0.0
 10
8.274021309983727
 20
5.8453018611739056
 30
0.0
  0
ELLIPSE
  5
330
100
AcDbEntity
  8
0
370
    35
390
0
 62
     7
 48
0.03937
100
AcDbEllipse
 10
8.320866
 20
5.985316
 30
0.0
 11
0.0571296351460596
 21
-0.1812679619749048
 31
0.0
210
0.0
220
0.0
230
1.0
 40
0.586952
 41
5.3920549025329709
 42
5.8567356297875932
  0
ELLIPSE
  5
331
100
AcDbEntity
  8
0
370
    35
390
0
 62
     7
 48
0.03937
100
AcDbEllipse
 10
8.320878
 20
5.980717
 30
0.0
 11
0.0575490998655447
 21
-0.1764882035665315
 31
0.0
210
0.0
220
0.0
230
1.0
 40
0.591195
 41
5.8462618817336347
 42
6.2762284764305862
  0
POLYLINE
  5
332
100
AcDbEntity
  8
0
370
    35
390
0
 62
     7
 48
0.03937
100
AcDb2dPolyline
 66
     1
 10
0.0
 20
0.0
 30
0.0
 71
     2
  0
VERTEX
  5
333
100
AcDbEntity
  8
0
370
     0
390
0
100
AcDbVertex
100
AcDb2dVertex
 10
8.145943
 20
6.077187
 30
0.0
 42
0.023818
  0
VERTEX
  5
334
100
AcDbEntity
  8
0
370
     0
390
0
100
AcDbVertex
100
AcDb2dVertex
 10
8.144934
 20
6.046426
 30
0.0
  0
SEQEND
  5
335
100
AcDbEntity
  8
0
370
     0
390
0
  0
POLYLINE
  5
336
100
AcDbEntity
  8
0
370
    35
390
0
 62
     7
 48
0.03937
100
AcDb2dPolyline
 66
     1
 10
0.0
 20
0.0
 30
0.0
 71
     2
  0
VERTEX
  5
337
100
AcDbEntity
  8
0
370
     0
390
0
100
AcDbVertex
100
AcDb2dVertex
 10
8.38369
 20
5.824335
 30
0.0
 42
0.053722
  0
VERTEX
  5
338
100
AcDbEntity
  8
0
370
     0
390
0
100
AcDbVertex
100
AcDb2dVertex
 10
8.402074
 20
5.819628
 30
0.0
  0
SEQEND
  5
339
100
AcDbEntity
  8
0
370
     0
390
0
  0
SPLINE
  5
33A
100
AcDbEntity
  8
0
370
    35
390
0
 62
     7
 48
0.03937
100
AcDbSpline
210
0.0
220
0.0
230
1.0
 70
     8
 71
     5
 72
    21
 73
    15
 74
     0
 42
0.0
 43
0.0
 40
0.0
 40
0.0
 40
0.0
 40
0.0
 40
0.0
 40
0.0
 40
5.9800689100932862
 40
5.9800689100932862
 40
5.9800689100932862
 40
10.394254933630323
 40
10.394254933630323
 40
10.394254933630323
 40
11.821718343222994
 40
11.821718343222994
 40
11.821718343222994
 40
14.517245696631754
 40
14.517245696631754
 40
14.517245696631754
 40
14.517245696631754
 40
14.517245696631754
 40
14.517245696631754
 10
8.2534090540265908
 20
6.0640170625989436
 30
0.0
 10
8.2537274649422336
 20
6.0391744825878311
 30
0.0
 10
8.2567078661133859
 20
6.0137608066455082
 30
0.0
 10
8.2621969071358574
 20
5.9884701540397423
 30
0.0
 10
8.2757470524351362
 20
5.9458422560389508
 30
0.0
 10
8.2955697773557127
 20
5.9074301087556549
 30
0.0
 10
8.3051099235921768
 20
5.8919567506434758
 30
0.0
 10
8.3190513407503364
 20
5.8732379919092255
 30
0.0
 10
8.3341886526572377
 20
5.8575241931649922
 30
0.0
 10
8.337955569526935
 20
5.8538702037128729
 30
0.0
 10
8.3489875291158189
 20
5.8438982271889968
 30
0.0
 10
8.3604937570280899
 20
5.8356041703301349
 30
0.0
 10
8.3681671145057805
 20
5.8309696876888024
 30
0.0
 10
8.3759244992027408
 20
5.8271946962687746
 30
0.0
 10
8.38368845798772
 20
5.8243307795775632
 30
0.0
  0
POLYLINE
  5
33B
100
AcDbEntity
  8
0
370
    35
390
0
 62
     7
 48
0.03937
100
AcDb2dPolyline
 66
     1
 10
0.0
 20
0.0
 30
0.0
 71
     2
  0
VERTEX
  5
33C
100
AcDbEntity
  8
0
370
     0
390
0
100
AcDbVertex
100
AcDb2dVertex
 10
8.20197
 20
6.092457
 30
0.0
 42
0.021265
  0
VERTEX
  5
33D
100
AcDbEntity
  8
0
370
     0
390
0
100
AcDbVertex
100
AcDb2dVertex
 10
8.201199
 20
6.064818
 30
0.0
  0
SEQEND
  5
33E
100
AcDbEntity
  8
0
370
     0
390
0
  0
POLYLINE
  5
33F
100
AcDbEntity
  8
0
370
    35
390
0
 62
     7
 48
0.03937
100
AcDb2dPolyline
 66
     1
 10
0.0
 20
0.0
 30
0.0
 71
     2
  0
VERTEX
  5
340
100
AcDbEntity
  8
0
370
     0
390
0
100
AcDbVertex
100
AcDb2dVertex
 10
8.200332
 20
6.080884
 30
0.0
 42
0.029225
  0
VERTEX
  5
341
100
AcDbEntity
  8
0
370
     0
390
0
100
AcDbVertex
100
AcDb2dVertex
 10
8.198569
 20
6.049634
 30
0.0
  0
SEQEND
  5
342
100
AcDbEntity
  8
0
370
     0
390
0
  0
SPLINE
  5
343
100
AcDbEntity
  8
0
370
    35
390
0
 62
     7
 48
0.03937
100
AcDbSpline
210
0.0
220
0.0
230
1.0
 70
     8
 71
     5
 72
    15
 73
     9
 74
     0
 42
0.0
 43
0.0
 40
0.0
 40
0.0
 40
0.0
 40
0.0
 40
0.0
 40
0.0
 40
4.3110051669081937
 40
4.3110051669081937
 40
4.3110051669081937
 40
7.049575041644121
 40
7.049575041644121
 40
7.049575041644121
 40
7.049575041644121
 40
7.049575041644121
 40
7.049575041644121
 10
8.200334647372058
 20
6.0808837730825323
 30
0.0
 10
8.2023531896780675
 20
6.098141325060948
 30
0.0
 10
8.2058366776249052
 20
6.1148342095857453
 30
0.0
 10
8.2108408827395483
 20
6.1305141952608997
 30
0.0
 10
8.221374455538502
 20
6.1539057204314904
 30
0.0
 10
8.2356814248207506
 20
6.1730017181789734
 30
0.0
 10
8.2418173945944879
 20
6.1797319950480034
 30
0.0
 10
8.2485092031197187
 20
6.1856472251602064
 30
0.0
 10
8.2556550935624369
 20
6.1906582844784053
 30
0.0
  0
SPLINE
  5
344
100
AcDbEntity
  8
0
370
    35
390
0
 62
     7
 48
0.03937
100
AcDbSpline
210
0.0
220
0.0
230
1.0
 70
     8
 71
     5
 72
    15
 73
     9
 74
     0
 42
0.0
 43
0.0
 40
0.0
 40
0.0
 40
0.0
 40
0.0
 40
0.0
 40
0.0
 40
6.3485154241282746
 40
6.3485154241282746
 40
6.3485154241282746
 40
9.1599968834065173
 40
9.1599968834065173
 40
9.1599968834065173
 40
9.1599968834065173
 40
9.1599968834065173
 40
9.1599968834065173
 10
8.2298933375848176
 20
5.8139590595992008
 30
0.0
 10
8.2082074165889924
 20
5.8387354258358011
 30
0.0
 10
8.1894199678593989
 20
5.8680939223911954
 30
0.0
 10
8.174042886533428
 20
5.9002742135647788
 30
0.0
 10
8.1570283170578826
 20
5.949195711169982
 30
0.0
 10
8.1481607998071919
 20
5.999792235699795
 30
0.0
 10
8.1462365755298372
 20
6.0153935744512985
 30
0.0
 10
8.1451464753046245
 20
6.0309750016639052
 30
0.0
 10
8.1449325238153776
 20
6.0464261181000323
 30
0.0
  0
SPLINE
  5
345
100
AcDbEntity
  8
0
370
    35
390
0
 62
     7
 48
0.03937
100
AcDbSpline
210
0.0
220
0.0
230
1.0
 70
     8
 71
     5
 72
    18
 73
    12
 74
     0
 42
0.0
 43
0.0
 40
0.0
 40
0.0
 40
0.0
 40
0.0
 40
0.0
 40
0.0
 40
4.5276820259495061
 40
4.5276820259495061
 40
4.5276820259495061
 40
7.1373000677940253
 40
7.1373000677940253
 40
7.1373000677940253
 40
8.8029622437230763
 40
8.8029622437230763
 40
8.8029622437230763
 40
8.8029622437230763
 40
8.8029622437230763
 40
8.8029622437230763
 10
8.197143574031319
 20
6.045625143740061
 30
0.0
 10
8.1969024959848049
 20
6.0644341749874382
 30
0.0
 10
8.1981873902358569
 20
6.082915824775041
 30
0.0
 10
8.2010710583664146
 20
6.1009072305587653
 30
0.0
 10
8.2083102359882201
 20
6.1276661842389508
 30
0.0
 10
8.2195136559875603
 20
6.1507290756084894
 30
0.0
 10
8.2241409959338192
 20
6.1586263561198535
 30
0.0
 10
8.2325680800033521
 20
6.1705633793896286
 30
0.0
 10
8.2423688875317236
 20
6.1807103154298328
 30
0.0
 10
8.2463997995638003
 20
6.1843787656092859
 30
0.0
 10
8.2506049863238022
 20
6.1877164894805849
 30
0.0
 10
8.2549741614754009
 20
6.1907167206541018
 30
0.0
  0
SPLINE
  5
346
100
AcDbEntity
  8
0
370
    35
390
0
 62
     7
 48
0.03937
100
AcDbSpline
210
0.0
220
0.0
230
1.0
 70
     8
 71
     5
 72
    12
 73
     6
 74
     0
 42
0.0
 43
0.0
 40
0.0
 40
0.0
 40
0.0
 40
0.0
 40
0.0
 40
0.0
 40
6.597391619179735
 40
6.597391619179735
 40
6.597391619179735
 40
6.597391619179735
 40
6.597391619179735
 40
6.597391619179735
 10
8.2534090540265908
 20
6.0640170625989436
 30
0.0
 10
8.2530577735532624
 20
6.0914241429529863
 30
0.0
 10
8.2559464509431049
 20
6.1181361037311426
 30
0.0
 10
8.2622956423660945
 20
6.1432690636270468
 30
0.0
 10
8.2722348773467385
 20
6.1654381174980628
 30
0.0
 10
8.2853680332638238
 20
6.1835121986756372
 30
0.0
  0
SPLINE
  5
347
100
AcDbEntity
  8
0
370
    35
390
0
 62
     7
 48
0.03937
100
AcDbSpline
210
0.0
220
0.0
230
1.0
 70
     8
 71
     5
 72
    15
 73
     9
 74
     0
 42
0.0
 43
0.0
 40
0.0
 40
0.0
 40
0.0
 40
0.0
 40
0.0
 40
0.0
 40
6.1921828533007819
 40
6.1921828533007819
 40
6.1921828533007819
 40
8.9240349592527011
 40
8.9240349592527011
 40
8.9240349592527011
 40
8.9240349592527011
 40
8.9240349592527011
 40
8.9240349592527011
 10
8.3384243138618146
 20
5.8554219213126517
 30
0.0
 10
8.3176984142689712
 20
5.8802395390730062
 30
0.0
 10
8.2997895219680906
 20
5.9092236509557665
 30
0.0
 10
8.2851363036211687
 20
5.9407938083843259
 30
0.0
 10
8.2689539148555085
 20
5.9885901565125277
 30
0.0
 10
8.2605302673040129
 20
6.0379017044099337
 30
0.0
 10
8.2587064882452541
 20
6.0530599292597564
 30
0.0
 10
8.2576713755676234
 20
6.0681964600558489
 30
0.0
 10
8.2574634838059193
 20
6.0832099558178001
 30
0.0
  0
SPLINE
  5
348
100
AcDbEntity
  8
0
370
    35
390
0
 62
     7
 48
0.03937
100
AcDbSpline
210
0.0
220
0.0
230
1.0
 70
     8
 71
     5
 72
    18
 73
    12
 74
     0
 42
0.0
 43
0.0
 40
0.0
 40
0.0
 40
0.0
 40
0.0
 40
0.0
 40
0.0
 40
5.4075346308945926
 40
5.4075346308945926
 40
5.4075346308945926
 40
7.5564320056985084
 40
7.5564320056985084
 40
7.5564320056985084
 40
10.704833500677921
 40
10.704833500677921
 40
10.704833500677921
 40
10.704833500677921
 40
10.704833500677921
 40
10.704833500677921
 10
8.2548320044023598
 20
6.0680260435497697
 30
0.0
 10
8.2548447721839189
 20
6.0456239499351856
 30
0.0
 10
8.2570449617284876
 20
6.0227046560101654
 30
0.0
 10
8.2613214975180043
 20
5.9997189827368933
 30
0.0
 10
8.2700575255709499
 20
5.9682392613702442
 30
0.0
 10
8.2821927382232374
 20
5.9387669947872563
 30
0.0
 10
8.2859291213107387
 20
5.9305236250956872
 30
0.0
 10
8.2957741348634233
 20
5.9107350718335212
 30
0.0
 10
8.3072000096880299
 20
5.8922916400628527
 30
0.0
 10
8.3145008150104438
 20
5.8819474425880749
 30
0.0
 10
8.3222265850525243
 20
5.8723767933643387
 30
0.0
 10
8.3302867968005838
 20
5.8636937755390317
 30
0.0
  0
ELLIPSE
  5
349
100
AcDbEntity
  8
0
370
    35
390
0
 62
     7
 48
0.03937
100
AcDbEllipse
 10
8.377132
 20
6.003708
 30
0.0
 11
0.05712954202412
 21
-0.1812682920970807
 31
0.0
210
0.0
220
0.0
230
1.0
 40
0.586952
 41
5.3920562031487034
 42
5.8567364548838006
  0
POLYLINE
  5
34A
100
AcDbEntity
  8
0
370
    35
390
0
 62
     7
 48
0.03937
100
AcDb2dPolyline
 66
     1
 10
0.0
 20
0.0
 30
0.0
 71
     2
  0
VERTEX
  5
34B
100
AcDbEntity
  8
0
370
     0
390
0
100
AcDbVertex
100
AcDb2dVertex
 10
8.385136
 20
5.824807
 30
0.0
 42
0.050186
  0
VERTEX
  5
34C
100
AcDbEntity
  8
0
370
     0
390
0
100
AcDbVertex
100
AcDb2dVertex
 10
8.402409
 20
5.820265
 30
0.0
  0
SEQEND
  5
34D
100
AcDbEntity
  8
0
370
     0
390
0
  0
POLYLINE
  5
34E
100
AcDbEntity
  8
0
370
    35
390
0
 62
     7
 48
0.03937
100
AcDb2dPolyline
 66
     1
 10
0.0
 20
0.0
 30
0.0
 71
     2
  0
VERTEX
  5
34F
100
AcDbEntity
  8
0
370
     0
390
0
100
AcDbVertex
100
AcDb2dVertex
 10
8.377026
 20
5.803762
 30
0.0
 42
0.102767
  0
VERTEX
  5
350
100
AcDbEntity
  8
0
370
     0
390
0
100
AcDbVertex
100
AcDb2dVertex
 10
8.401007
 20
5.817677
 30
0.0
  0
SEQEND
  5
351
100
AcDbEntity
  8
0
370
     0
390
0
  0
ELLIPSE
  5
352
100
AcDbEntity
  8
0
370
    35
390
0
 62
     7
 48
0.03937
100
AcDbEllipse
 10
8.319544
 20
5.979733
 30
0.0
 11
0.0574648070427583
 21
-0.1759674864849252
 31
0.0
210
0.0
220
0.0
230
1.0
 40
0.592018
 41
5.8453772649496134
 42
6.2833214304387388
  0
SPLINE
  5
353
100
AcDbEntity
  8
0
370
    35
390
0
 62
     7
 48
0.03937
100
AcDbSpline
210
0.0
220
0.0
230
1.0
 70
     8
 71
     5
 72
    21
 73
    15
 74
     0
 42
0.0
 43
0.0
 40
0.0
 40
0.0
 40
0.0
 40
0.0
 40
0.0
 40
0.0
 40
5.9800686938812326
 40
5.9800686938812326
 40
5.9800686938812326
 40
10.394254948011367
 40
10.394254948011367
 40
10.394254948011367
 40
11.821718444683874
 40
11.821718444683874
 40
11.821718444683874
 40
14.517245960742429
 40
14.517245960742429
 40
14.517245960742429
 40
14.517245960742429
 40
14.517245960742429
 40
14.517245960742429
 10
8.197143574031319
 20
6.045625143740061
 30
0.0
 10
8.1974619849333479
 20
6.0207825646272557
 30
0.0
 10
8.2004423858973929
 20
5.9953688904369997
 30
0.0
 10
8.2059314260100056
 20
5.9700782398928824
 30
0.0
 10
8.21948157000827
 20
5.927450343203823
 30
0.0
 10
8.239304293598229
 20
5.8890381963844218
 30
0.0
 10
8.2488444401556009
 20
5.8735648369113083
 30
0.0
 10
8.2627858578467563
 20
5.8548460767033763
 30
0.0
 10
8.2779231702450993
 20
5.8391322768325802
 30
0.0
 10
8.2816900872525618
 20
5.8354782871065405
 30
0.0
 10
8.2927220472396694
 20
5.8255063098412361
 30
0.0
 10
8.3042282756847126
 20
5.8172122523115526
 30
0.0
 10
8.3119016335736422
 20
5.8125777692866265
 30
0.0
 10
8.3196590187387454
 20
5.808802777582815
 30
0.0
 10
8.32742297799245
 20
5.8059388607186788
 30
0.0
  0
SPLINE
  5
354
100
AcDbEntity
  8
0
370
    35
390
0
 62
     7
 48
0.03937
100
AcDbSpline
210
0.0
220
0.0
230
1.0
 70
     8
 71
     5
 72
    21
 73
    15
 74
     0
 42
0.0
 43
0.0
 40
0.0
 40
0.0
 40
0.0
 40
0.0
 40
0.0
 40
0.0
 40
5.2252968460785754
 40
5.2252968460785754
 40
5.2252968460785754
 40
7.8190162397101926
 40
7.8190162397101926
 40
7.8190162397101926
 40
11.627045439660264
 40
11.627045439660264
 40
11.627045439660264
 40
12.801793463907121
 40
12.801793463907121
 40
12.801793463907121
 40
12.801793463907121
 40
12.801793463907121
 40
12.801793463907121
 10
8.3096745340218625
 20
6.0824089814578279
 30
0.0
 10
8.3099527568250799
 20
6.0607018979839751
 30
0.0
 10
8.312263410597847
 20
6.0385587797657045
 30
0.0
 10
8.3165062379598087
 20
6.0163650951598546
 30
0.0
 10
8.325621737622777
 20
5.9837953742657293
 30
0.0
 10
8.3383714414856627
 20
5.9534013770036038
 30
0.0
 10
8.343018582737793
 20
5.9435184111026702
 30
0.0
 10
8.3553935939411126
 20
5.9199658672006734
 30
0.0
 10
8.3700055549135932
 20
5.8985844256634392
 30
0.0
 10
8.3793664009546696
 20
5.8869390756830331
 30
0.0
 10
8.3922642390943345
 20
5.8733810460076983
 30
0.0
 10
8.4058594177875481
 20
5.8622527383348668
 30
0.0
 10
8.4091058645810737
 20
5.8597644787520657
 30
0.0
 10
8.412380113964419
 20
5.8574246292783689
 30
0.0
 10
8.4156808106965659
 20
5.855235758631018
 30
0.0
  0
POLYLINE
  5
355
100
AcDbEntity
  8
0
370
    35
390
0
 62
     7
 48
0.03937
100
AcDb2dPolyline
 66
     1
 10
0.0
 20
0.0
 30
0.0
 71
     2
  0
VERTEX
  5
356
100
AcDbEntity
  8
0
370
     0
390
0
100
AcDbVertex
100
AcDb2dVertex
 10
8.258236
 20
6.110849
 30
0.0
 42
0.021265
  0
VERTEX
  5
357
100
AcDbEntity
  8
0
370
     0
390
0
100
AcDbVertex
100
AcDb2dVertex
 10
8.257465
 20
6.08321
 30
0.0
  0
SEQEND
  5
358
100
AcDbEntity
  8
0
370
     0
390
0
  0
POLYLINE
  5
359
100
AcDbEntity
  8
0
370
    35
390
0
 62
     7
 48
0.03937
100
AcDb2dPolyline
 66
     1
 10
0.0
 20
0.0
 30
0.0
 71
     2
  0
VERTEX
  5
35A
100
AcDbEntity
  8
0
370
     0
390
0
100
AcDbVertex
100
AcDb2dVertex
 10
8.256598
 20
6.099276
 30
0.0
 42
0.029225
  0
VERTEX
  5
35B
100
AcDbEntity
  8
0
370
     0
390
0
100
AcDbVertex
100
AcDb2dVertex
 10
8.254834
 20
6.068026
 30
0.0
  0
SEQEND
  5
35C
100
AcDbEntity
  8
0
370
     0
390
0
  0
ELLIPSE
  5
35D
100
AcDbEntity
  8
0
370
    35
390
0
 62
     7
 48
0.03937
100
AcDbEllipse
 10
8.402015
 20
6.011951
 30
0.0
 11
0.0655073173565546
 21
-0.2092516769273325
 31
0.0
210
0.0
220
0.0
230
1.0
 40
0.629882
 41
3.5857165798697133
 42
4.0958650574102453
  0
POLYLINE
  5
35E
100
AcDbEntity
  8
0
370
    35
390
0
 62
     7
 48
0.03937
100
AcDb2dPolyline
 66
     1
 10
0.0
 20
0.0
 30
0.0
 71
     2
  0
VERTEX
  5
35F
100
AcDbEntity
  8
0
370
     0
390
0
100
AcDbVertex
100
AcDb2dVertex
 10
8.325682
 20
6.160521
 30
0.0
 42
0.014221
  0
VERTEX
  5
360
100
AcDbEntity
  8
0
370
     0
390
0
100
AcDbVertex
100
AcDb2dVertex
 10
8.31719
 20
6.166311
 30
0.0
  0
SEQEND
  5
361
100
AcDbEntity
  8
0
370
     0
390
0
  0
ELLIPSE
  5
362
100
AcDbEntity
  8
0
370
    35
390
0
 62
     7
 48
0.03937
100
AcDbEllipse
 10
8.453503
 20
6.032643
 30
0.0
 11
0.0617427483445229
 21
-0.2063682219800494
 31
0.0
210
0.0
220
0.0
230
1.0
 40
0.629592
 41
3.8549203710827618
 42
4.2869425336035505
  0
SPLINE
  5
363
100
AcDbEntity
  8
0
370
    35
390
0
 62
     7
 48
0.03937
100
AcDbSpline
210
0.0
220
0.0
230
1.0
 70
     8
 71
     5
 72
    15
 73
     9
 74
     0
 42
0.0
 43
0.0
 40
0.0
 40
0.0
 40
0.0
 40
0.0
 40
0.0
 40
0.0
 40
6.1921836223187485
 40
6.1921836223187485
 40
6.1921836223187485
 40
8.9240360944900115
 40
8.9240360944900115
 40
8.9240360944900115
 40
8.9240360944900115
 40
8.9240360944900115
 40
8.9240360944900115
 10
8.3946897965531608
 20
5.8738138378223193
 30
0.0
 10
8.3739638960370169
 20
5.8986314566343516
 30
0.0
 10
8.3560550037981773
 20
5.9276155692311887
 30
0.0
 10
8.3414017855863722
 20
5.959185726217922
 30
0.0
 10
8.3252193961075012
 20
6.0069820723723675
 30
0.0
 10
8.3167957477190306
 20
6.0562936199807087
 30
0.0
 10
8.3149719684173604
 20
6.0714518451972026
 30
0.0
 10
8.3139368555976585
 20
6.0865883768977236
 30
0.0
 10
8.3137289638011911
 20
6.1016018746766836
 30
0.0
  0
SPLINE
  5
364
100
AcDbEntity
  8
0
370
    35
390
0
 62
     7
 48
0.03937
100
AcDbSpline
210
0.0
220
0.0
230
1.0
 70
     8
 71
     5
 72
    18
 73
    12
 74
     0
 42
0.0
 43
0.0
 40
0.0
 40
0.0
 40
0.0
 40
0.0
 40
0.0
 40
0.0
 40
5.4075348150501314
 40
5.4075348150501314
 40
5.4075348150501314
 40
7.5564324741079396
 40
7.5564324741079396
 40
7.5564324741079396
 40
10.70483458327975
 40
10.70483458327975
 40
10.70483458327975
 40
10.70483458327975
 40
10.70483458327975
 40
10.70483458327975
 10
8.3110974843976315
 20
6.0864179624086541
 30
0.0
 10
8.31111025217505
 20
6.0640158680300535
 30
0.0
 10
8.3133104420371406
 20
6.041096575567515
 30
0.0
 10
8.3175869779335496
 20
6.0181109068293281
 30
0.0
 10
8.3263230039194696
 20
5.9866311910907211
 30
0.0
 10
8.3384582151931372
 20
5.9571589247406687
 30
0.0
 10
8.3421945981725418
 20
5.948915554400239
 30
0.0
 10
8.3520396119579736
 20
5.9291269984141621
 30
0.0
 10
8.3634654882269981
 20
5.9106835624654162
 30
0.0
 10
8.3707662949605339
 20
5.9003393623297145
 30
0.0
 10
8.378492066463135
 20
5.890768711077591
 30
0.0
 10
8.3865522795546923
 20
5.8820856918756013
 30
0.0
  0
POLYLINE
  5
365
100
AcDbEntity
  8
0
370
    35
390
0
 62
     7
 48
0.03937
100
AcDb2dPolyline
 66
     1
 10
0.0
 20
0.0
 30
0.0
 71
     2
  0
VERTEX
  5
366
100
AcDbEntity
  8
0
370
     0
390
0
100
AcDbVertex
100
AcDb2dVertex
 10
8.386564
 20
5.882096
 30
0.0
 42
0.056669
  0
VERTEX
  5
367
100
AcDbEntity
  8
0
370
     0
390
0
100
AcDbVertex
100
AcDb2dVertex
 10
8.41599
 20
5.856452
 30
0.0
  0
SEQEND
  5
368
100
AcDbEntity
  8
0
370
     0
390
0
  0
SPLINE
  5
369
100
AcDbEntity
  8
0
370
    35
390
0
 62
     7
 48
0.03937
100
AcDbSpline
210
0.0
220
0.0
230
1.0
 70
     8
 71
     5
 72
    15
 73
     9
 74
     0
 42
0.0
 43
0.0
 40
0.0
 40
0.0
 40
0.0
 40
0.0
 40
0.0
 40
0.0
 40
6.1428906516333548
 40
6.1428906516333548
 40
6.1428906516333548
 40
8.7285291326824019
 40
8.7285291326824019
 40
8.7285291326824019
 40
8.7285291326824019
 40
8.7285291326824019
 40
8.7285291326824019
 10
8.3659400140171325
 20
6.1008009003167114
 30
0.0
 10
8.3662670944270143
 20
6.0752819213854767
 30
0.0
 10
8.3694030954631451
 20
6.0491603237156291
 30
0.0
 10
8.375180134096377
 20
6.0232253591011071
 30
0.0
 10
8.3867963600406892
 20
5.9875814675103332
 30
0.0
 10
8.4028392450887441
 20
5.9549232538158892
 30
0.0
 10
8.4079942793948348
 20
5.9454990398189427
 30
0.0
 10
8.413510432314327
 20
5.9364488861868887
 30
0.0
 10
8.4193548789522339
 20
5.9278372289272232
 30
0.0
  0
POLYLINE
  5
36A
100
AcDbEntity
  8
0
370
    35
390
0
 62
     7
 48
0.03937
100
AcDb2dPolyline
 66
     1
 10
0.0
 20
0.0
 30
0.0
 71
     2
  0
VERTEX
  5
36B
100
AcDbEntity
  8
0
370
     0
390
0
100
AcDbVertex
100
AcDb2dVertex
 10
8.314501
 20
6.129241
 30
0.0
 42
0.021265
  0
VERTEX
  5
36C
100
AcDbEntity
  8
0
370
     0
390
0
100
AcDbVertex
100
AcDb2dVertex
 10
8.31373
 20
6.101602
 30
0.0
  0
SEQEND
  5
36D
100
AcDbEntity
  8
0
370
     0
390
0
  0
POLYLINE
  5
36E
100
AcDbEntity
  8
0
370
    35
390
0
 62
     7
 48
0.03937
100
AcDb2dPolyline
 66
     1
 10
0.0
 20
0.0
 30
0.0
 71
     2
  0
VERTEX
  5
36F
100
AcDbEntity
  8
0
370
     0
390
0
100
AcDbVertex
100
AcDb2dVertex
 10
8.312863
 20
6.117668
 30
0.0
 42
0.029225
  0
VERTEX
  5
370
100
AcDbEntity
  8
0
370
     0
390
0
100
AcDbVertex
100
AcDb2dVertex
 10
8.3111
 20
6.086418
 30
0.0
  0
SEQEND
  5
371
100
AcDbEntity
  8
0
370
     0
390
0
  0
POLYLINE
  5
372
100
AcDbEntity
  8
0
370
    35
390
0
 62
     7
 48
0.03937
100
AcDb2dPolyline
 66
     1
 10
0.0
 20
0.0
 30
0.0
 71
     2
  0
VERTEX
  5
373
100
AcDbEntity
  8
0
370
     0
390
0
100
AcDbVertex
100
AcDb2dVertex
 10
8.322815
 20
6.162551
 30
0.0
 42
0.053618
  0
VERTEX
  5
374
100
AcDbEntity
  8
0
370
     0
390
0
100
AcDbVertex
100
AcDb2dVertex
 10
8.312879
 20
6.117666
 30
0.0
  0
SEQEND
  5
375
100
AcDbEntity
  8
0
370
     0
390
0
  0
LINE
  5
376
100
AcDbEntity
  8
0
370
    35
390
0
 62
     7
 48
0.000063
100
AcDbLine
 10
8.36594
 20
6.100801
 30
0.0
 11
8.365919
 21
6.103326
 31
0.0
210
0.0
220
0.0
230
1.0
  0
SPLINE
  5
377
100
AcDbEntity
  8
0
370
    35
390
0
 62
     7
 48
0.03937
100
AcDbSpline
210
0.0
220
0.0
230
1.0
 70
     8
 71
     5
 72
    12
 73
     6
 74
     0
 42
0.0
 43
0.0
 40
0.0
 40
0.0
 40
0.0
 40
0.0
 40
0.0
 40
0.0
 40
5.7920423002965578
 40
5.7920423002965578
 40
5.7920423002965578
 40
5.7920423002965578
 40
5.7920423002965578
 40
5.7920423002965578
 10
8.4182802559766081
 20
5.9401504544480419
 30
0.0
 10
8.4028618135445914
 20
5.9678046623819521
 30
0.0
 10
8.390241745003916
 20
5.9978094596946345
 30
0.0
 10
8.380629264264936
 20
6.0292199108202773
 30
0.0
 10
8.3742299782452676
 20
6.0613602974967993
 30
0.0
 10
8.3713738367305695
 20
6.0934046019828783
 30
0.0
  0
SPLINE
  5
378
100
AcDbEntity
  8
0
370
    35
390
0
 62
     7
 48
0.03937
100
AcDbSpline
210
0.0
220
0.0
230
1.0
 70
     8
 71
     5
 72
    15
 73
     9
 74
     0
 42
0.0
 43
0.0
 40
0.0
 40
0.0
 40
0.0
 40
0.0
 40
0.0
 40
0.0
 40
6.0133964198574352
 40
6.0133964198574352
 40
6.0133964198574352
 40
8.5483518184714669
 40
8.5483518184714669
 40
8.5483518184714669
 40
8.5483518184714669
 40
8.5483518184714669
 40
8.5483518184714669
 10
8.3673944902307724
 20
6.1007074702438349
 30
0.0
 10
8.3677635031924567
 20
6.0757129120978615
 30
0.0
 10
8.3708233715807303
 20
6.0501045308607209
 30
0.0
 10
8.3764322056274274
 20
6.0246992439518392
 30
0.0
 10
8.3876496922902994
 20
5.9897714020995831
 30
0.0
 10
8.4031539396354962
 20
5.9576004583188045
 30
0.0
 10
8.4081405140910146
 20
5.9482951246265472
 30
0.0
 10
8.4134770577697502
 20
5.9393410474970789
 30
0.0
 10
8.4191333143970759
 20
5.9307987909075726
 30
0.0
  0
ELLIPSE
  5
379
100
AcDbEntity
  8
0
370
    35
390
0
 62
     7
 48
0.03937
100
AcDbEllipse
 10
6.932959
 20
6.437194
 30
0.0
 11
0.0575286311629797
 21
-0.1763419147374798
 31
0.0
210
0.0
220
0.0
230
1.0
 40
0.59142
 41
5.8365329113080939
 42
6.2585901401604964
  0
SPLINE
  5
37A
100
AcDbEntity
  8
0
370
    35
390
0
 62
     7
 48
0.03937
100
AcDbSpline
210
0.0
220
0.0
230
1.0
 70
     8
 71
     5
 72
    15
 73
     9
 74
     0
 42
0.0
 43
0.0
 40
0.0
 40
0.0
 40
0.0
 40
0.0
 40
0.0
 40
0.0
 40
5.9676611849088843
 40
5.9676611849088843
 40
5.9676611849088843
 40
10.046462912749915
 40
10.046462912749915
 40
10.046462912749915
 40
10.046462912749915
 40
10.046462912749915
 40
10.046462912749915
 10
6.8397703072002098
 20
6.2730950611439109
 30
0.0
 10
6.8196063850618884
 20
6.2967282334400281
 30
0.0
 10
6.8020341135395741
 20
6.3243126047206681
 30
0.0
 10
6.7874641015320645
 20
6.3544074158457304
 30
0.0
 10
6.7682505958969985
 20
6.4077425082495871
 30
0.0
 10
6.7587345093304645
 20
6.4633929291931427
 30
0.0
 10
6.7565558022483803
 20
6.4861219064379991
 30
0.0
 10
6.7561861358809345
 20
6.5086785599870405
 30
0.0
 10
6.7577576381298812
 20
6.5306899276604717
 30
0.0
  0
SPLINE
  5
37B
100
AcDbEntity
  8
0
370
    35
390
0
 62
     7
 48
0.03937
100
AcDbSpline
210
0.0
220
0.0
230
1.0
 70
     8
 71
     5
 72
    18
 73
    12
 74
     0
 42
0.0
 43
0.0
 40
0.0
 40
0.0
 40
0.0
 40
0.0
 40
0.0
 40
0.0
 40
2.5477988583755167
 40
2.5477988583755167
 40
2.5477988583755167
 40
6.9148335549134012
 40
6.9148335549134012
 40
6.9148335549134012
 40
8.7327640110592526
 40
8.7327640110592526
 40
8.7327640110592526
 40
8.7327640110592526
 40
8.7327640110592526
 40
8.7327640110592526
 10
6.834641996812949
 20
6.6406406912288647
 30
0.0
 10
6.8271443425141243
 20
6.6381357292476553
 30
0.0
 10
6.8199471308835031
 20
6.6347934357128233
 30
0.0
 10
6.8131084664232802
 20
6.6306414383572623
 30
0.0
 10
6.7956437063361639
 20
6.6173456906578343
 30
0.0
 10
6.7811768681608546
 20
6.5986322299614937
 30
0.0
 10
6.7735381265718217
 20
6.5849494144544716
 30
0.0
 10
6.7649500546521626
 20
6.5637061995201202
 30
0.0
 10
6.7594311455305451
 20
6.5404633404168786
 30
0.0
 10
6.7580656008141071
 20
6.5334542404456837
 30
0.0
 10
6.7569628256389329
 20
6.5263233118815833
 30
0.0
 10
6.7561165514400665
 20
6.519079632334952
 30
0.0
  0
POLYLINE
  5
37C
100
AcDbEntity
  8
0
370
    35
390
0
 62
     7
 48
0.03937
100
AcDb2dPolyline
 66
     1
 10
0.0
 20
0.0
 30
0.0
 71
     2
  0
VERTEX
  5
37D
100
AcDbEntity
  8
0
370
     0
390
0
100
AcDbVertex
100
AcDb2dVertex
 10
6.756116
 20
6.51908
 30
0.0
 42
0.01186
  0
VERTEX
  5
37E
100
AcDbEntity
  8
0
370
     0
390
0
100
AcDbVertex
100
AcDb2dVertex
 10
6.754996
 20
6.506979
 30
0.0
  0
SEQEND
  5
37F
100
AcDbEntity
  8
0
370
     0
390
0
  0
LINE
  5
380
100
AcDbEntity
  8
0
370
    35
390
0
 62
     7
 48
0.000108
100
AcDbLine
 10
6.996865
 20
6.280543
 30
0.0
 11
7.000978
 21
6.279185
 31
0.0
210
0.0
220
0.0
230
1.0
  0
SPLINE
  5
381
100
AcDbEntity
  8
0
370
    35
390
0
 62
     7
 48
0.03937
100
AcDbSpline
210
0.0
220
0.0
230
1.0
 70
     8
 71
     5
 72
    15
 73
     9
 74
     0
 42
0.0
 43
0.0
 40
0.0
 40
0.0
 40
0.0
 40
0.0
 40
0.0
 40
0.0
 40
5.9138625533994462
 40
5.9138625533994462
 40
5.9138625533994462
 40
9.9494935398526785
 40
9.9494935398526785
 40
9.9494935398526785
 40
9.9494935398526785
 40
9.9494935398526785
 40
9.9494935398526785
 10
6.8944040346410755
 20
6.2934179028118145
 30
0.0
 10
6.8745895832769053
 20
6.3170902258266208
 30
0.0
 10
6.8573420472989666
 20
6.3445713781910253
 30
0.0
 10
6.843048193246549
 20
6.3744782994096232
 30
0.0
 10
6.8242261444298045
 20
6.4273793324547093
 30
0.0
 10
6.8149320733094116
 20
6.4825013651986225
 30
0.0
 10
6.8128139998633497
 20
6.5049860746157417
 30
0.0
 10
6.8124682410260249
 20
6.5272983208714752
 30
0.0
 10
6.8140227588935529
 20
6.5490768149886485
 30
0.0
  0
ELLIPSE
  5
382
100
AcDbEntity
  8
0
370
    35
390
0
 62
     7
 48
0.03937
100
AcDbEllipse
 10
6.960065
 20
6.447393
 30
0.0
 11
0.0682901479427619
 21
-0.211920823287445
 31
0.0
210
0.0
220
0.0
230
1.0
 40
0.627435
 41
3.3629803190802945
 42
3.7709605738210983
  0
ELLIPSE
  5
383
100
AcDbEntity
  8
0
370
    35
390
0
 62
     7
 48
0.03937
100
AcDbEllipse
 10
6.932909
 20
6.441962
 30
0.0
 11
0.0571338293024946
 21
-0.1812945337935305
 31
0.0
210
0.0
220
0.0
230
1.0
 40
0.586891
 41
5.3921525432117248
 42
5.8474488819635413
  0
SPLINE
  5
384
100
AcDbEntity
  8
0
370
    35
390
0
 62
     7
 48
0.03937
100
AcDbSpline
210
0.0
220
0.0
230
1.0
 70
     8
 71
     5
 72
    21
 73
    15
 74
     0
 42
0.0
 43
0.0
 40
0.0
 40
0.0
 40
0.0
 40
0.0
 40
0.0
 40
0.0
 40
2.061353973681344
 40
2.061353973681344
 40
2.061353973681344
 40
6.3215716973459912
 40
6.3215716973459912
 40
6.3215716973459912
 40
8.474277101537746
 40
8.474277101537746
 40
8.474277101537746
 40
10.62947035287859
 40
10.62947035287859
 40
10.62947035287859
 40
10.62947035287859
 40
10.62947035287859
 40
10.62947035287859
 10
6.8860739764802714
 20
6.3019203555406422
 30
0.0
 10
6.8807885030855527
 20
6.3076140777326728
 30
0.0
 10
6.8756737068210114
 20
6.3136605383859496
 30
0.0
 10
6.8707429993291473
 20
6.3200315891646106
 30
0.0
 10
6.8562651538565742
 20
6.3403994808402624
 30
0.0
 10
6.8436664928664763
 20
6.3633723900952441
 30
0.0
 10
6.8361249830159876
 20
6.3798443724438627
 30
0.0
 10
6.8264427369725862
 20
6.4056814721778377
 30
0.0
 10
6.8194656049338436
 20
6.4322634270468768
 30
0.0
 10
6.8174328628578005
 20
6.4412443611580459
 30
0.0
 10
6.8139911582629873
 20
6.4593113169976242
 30
0.0
 10
6.8118378148495102
 20
6.4774515022433476
 30
0.0
 10
6.8110907245870056
 20
6.4865274215672954
 30
0.0
 10
6.8106841548884081
 20
6.4955466212786268
 30
0.0
 10
6.8106241834543058
 20
6.5044877311201263
 30
0.0
  0
SPLINE
  5
385
100
AcDbEntity
  8
0
370
    35
390
0
 62
     7
 48
0.03937
100
AcDbSpline
210
0.0
220
0.0
230
1.0
 70
     8
 71
     5
 72
    24
 73
    18
 74
     0
 42
0.0
 43
0.0
 40
0.0
 40
0.0
 40
0.0
 40
0.0
 40
0.0
 40
0.0
 40
4.1852959225048689
 40
4.1852959225048689
 40
4.1852959225048689
 40
7.0897136117506312
 40
7.0897136117506312
 40
7.0897136117506312
 40
10.084162716319819
 40
10.084162716319819
 40
10.084162716319819
 40
11.596726875244427
 40
11.596726875244427
 40
11.596726875244427
 40
14.652040757529548
 40
14.652040757529548
 40
14.652040757529548
 40
14.652040757529548
 40
14.652040757529548
 40
14.652040757529548
 10
6.9405994063850525
 20
6.2621513899334085
 30
0.0
 10
6.9285438788888145
 20
6.2664337318546686
 30
0.0
 10
6.9164877844513839
 20
6.2729232550154297
 30
0.0
 10
6.9046460761161974
 20
6.2814644114792868
 30
0.0
 10
6.8854307732419642
 20
6.2989920911143882
 30
0.0
 10
6.8682912797952902
 20
6.3205770452282319
 30
0.0
 10
6.861631630380983
 20
6.3300459547069607
 30
0.0
 10
6.8489557971962078
 20
6.3503312249569595
 30
0.0
 10
6.8380436353932694
 20
6.3726495264554455
 30
0.0
 10
6.8329983834883619
 20
6.384442758255533
 30
0.0
 10
6.826276382334787
 20
6.4025652107092679
 30
0.0
 10
6.820877107932648
 20
6.4211053242032259
 30
0.0
 10
6.819215998316329
 20
6.4273655363404991
 30
0.0
 10
6.8146620921836343
 20
6.4463466288881603
 30
0.0
 10
6.8115066463295699
 20
6.4655795324140524
 30
0.0
 10
6.8100441796739153
 20
6.4785068819977205
 30
0.0
 10
6.809262535640122
 20
6.4913394667617439
 30
0.0
 10
6.8091775170195694
 20
6.5040148484274729
 30
0.0
  0
ELLIPSE
  5
386
100
AcDbEntity
  8
0
370
    35
390
0
 62
     7
 48
0.03937
100
AcDbEllipse
 10
6.959038
 20
6.446295
 30
0.0
 11
0.0688202829156966
 21
-0.2125115281622007
 31
0.0
210
0.0
220
0.0
230
1.0
 40
0.626664
 41
3.3561727568012123
 42
3.7690048380231338
  0
SPLINE
  5
387
100
AcDbEntity
  8
0
370
    35
390
0
 62
     7
 48
0.03937
100
AcDbSpline
210
0.0
220
0.0
230
1.0
 70
     8
 71
     5
 72
    18
 73
    12
 74
     0
 42
0.0
 43
0.0
 40
0.0
 40
0.0
 40
0.0
 40
0.0
 40
0.0
 40
0.0
 40
5.6436807411095211
 40
5.6436807411095211
 40
5.6436807411095211
 40
14.658390703548346
 40
14.658390703548346
 40
14.658390703548346
 40
14.700936438322502
 40
14.700936438322502
 40
14.700936438322502
 40
14.700936438322502
 40
14.700936438322502
 40
14.700936438322502
 10
6.9968648863803251
 20
6.2805433087922928
 30
0.0
 10
6.9806085571728174
 20
6.2863178516374703
 30
0.0
 10
6.9643512114500146
 20
6.2961057716267339
 30
0.0
 10
6.9487935101357872
 20
6.3094525520203835
 30
0.0
 10
6.9115326514439426
 20
6.3512236353124791
 30
0.0
 10
6.8841944934766248
 20
6.4075561711215103
 30
0.0
 10
6.8722378111724565
 20
6.4453422442482795
 30
0.0
 10
6.8657852206226053
 20
6.4842826087092149
 30
0.0
 10
6.8654469539030352
 20
6.5218771558325992
 30
0.0
 10
6.8654454998933261
 20
6.522053723366648
 30
0.0
 10
6.8654441809127409
 20
6.5222302605681381
 30
0.0
 10
6.8654429970148465
 20
6.522406767286359
 30
0.0
  0
POLYLINE
  5
388
100
AcDbEntity
  8
0
370
    35
390
0
 62
     7
 48
0.03937
100
AcDb2dPolyline
 66
     1
 10
0.0
 20
0.0
 30
0.0
 71
     2
  0
VERTEX
  5
389
100
AcDbEntity
  8
0
370
     0
390
0
100
AcDbVertex
100
AcDb2dVertex
 10
6.895199
 20
6.636988
 30
0.0
 42
0.049644
  0
VERTEX
  5
38A
100
AcDbEntity
  8
0
370
     0
390
0
100
AcDbVertex
100
AcDb2dVertex
 10
6.881417
 20
6.611405
 30
0.0
  0
SEQEND
  5
38B
100
AcDbEntity
  8
0
370
     0
390
0
  0
POLYLINE
  5
38C
100
AcDbEntity
  8
0
370
    35
390
0
 62
     7
 48
0.03937
100
AcDb2dPolyline
 66
     1
 10
0.0
 20
0.0
 30
0.0
 71
     2
  0
VERTEX
  5
38D
100
AcDbEntity
  8
0
370
     0
390
0
100
AcDbVertex
100
AcDb2dVertex
 10
6.99606
 20
6.281847
 30
0.0
 42
0.014482
  0
VERTEX
  5
38E
100
AcDbEntity
  8
0
370
     0
390
0
100
AcDbVertex
100
AcDb2dVertex
 10
7.001408
 20
6.279975
 30
0.0
  0
SEQEND
  5
38F
100
AcDbEntity
  8
0
370
     0
390
0
  0
LINE
  5
390
100
AcDbEntity
  8
0
370
    35
390
0
 62
     7
 48
0.00019
100
AcDbLine
 10
6.701915
 20
6.517577
 30
0.0
 11
6.702687
 21
6.525157
 31
0.0
210
0.0
220
0.0
230
1.0
  0
ELLIPSE
  5
391
100
AcDbEntity
  8
0
370
    35
390
0
 62
     7
 48
0.03937
100
AcDbEllipse
 10
6.931569
 20
6.43649
 30
0.0
 11
0.0574817499578187
 21
-0.1761079996262551
 31
0.0
210
0.0
220
0.0
230
1.0
 40
0.591806
 41
5.8551095152210682
 42
6.2716922084439588
  0
SPLINE
  5
392
100
AcDbEntity
  8
0
370
    35
390
0
 62
     7
 48
0.03937
100
AcDbSpline
210
0.0
220
0.0
230
1.0
 70
     8
 71
     5
 72
    15
 73
     9
 74
     0
 42
0.0
 43
0.0
 40
0.0
 40
0.0
 40
0.0
 40
0.0
 40
0.0
 40
0.0
 40
5.9138623938124057
 40
5.9138623938124057
 40
5.9138623938124057
 40
9.9494919432272262
 40
9.9494919432272262
 40
9.9494919432272262
 40
9.9494919432272262
 40
9.9494919432272262
 40
9.9494919432272262
 10
6.9506695231016131
 20
6.3118098103285547
 30
0.0
 10
6.9308550623394112
 20
6.335482142585386
 30
0.0
 10
6.9136075202391156
 20
6.3629633077263366
 30
0.0
 10
6.8993136640635129
 20
6.3928702415816581
 30
0.0
 10
6.8804916178058235
 20
6.4457712811281969
 30
0.0
 10
6.8711975509089278
 20
6.5008933094649271
 30
0.0
 10
6.8690794795632524
 20
6.5233780086275637
 30
0.0
 10
6.8687337216132649
 20
6.5456902470885163
 30
0.0
 10
6.8702882388503994
 20
6.5674687330270816
 30
0.0
  0
POLYLINE
  5
393
100
AcDbEntity
  8
0
370
    35
390
0
 62
     7
 48
0.03937
100
AcDb2dPolyline
 66
     1
 10
0.0
 20
0.0
 30
0.0
 71
     2
  0
VERTEX
  5
394
100
AcDbEntity
  8
0
370
     0
390
0
100
AcDbVertex
100
AcDb2dVertex
 10
6.895969
 20
6.636456
 30
0.0
 42
0.047314
  0
VERTEX
  5
395
100
AcDbEntity
  8
0
370
     0
390
0
100
AcDbVertex
100
AcDb2dVertex
 10
6.882862
 20
6.611878
 30
0.0
  0
SEQEND
  5
396
100
AcDbEntity
  8
0
370
     0
390
0
  0
ELLIPSE
  5
397
100
AcDbEntity
  8
0
370
    35
390
0
 62
     7
 48
0.03937
100
AcDbEllipse
 10
6.989174
 20
6.460353
 30
0.0
 11
0.0571339834710941
 21
-0.1812937964953407
 31
0.0
210
0.0
220
0.0
230
1.0
 40
0.586892
 41
5.3921498528568836
 42
5.8474470923597144
  0
SPLINE
  5
398
100
AcDbEntity
  8
0
370
    35
390
0
 62
     7
 48
0.03937
100
AcDbSpline
210
0.0
220
0.0
230
1.0
 70
     8
 71
     5
 72
    21
 73
    15
 74
     0
 42
0.0
 43
0.0
 40
0.0
 40
0.0
 40
0.0
 40
0.0
 40
0.0
 40
0.0
 40
2.0613548384077895
 40
2.0613548384077895
 40
2.0613548384077895
 40
6.3215721210282645
 40
6.3215721210282645
 40
6.3215721210282645
 40
8.4742778691565075
 40
8.4742778691565075
 40
8.4742778691565075
 40
10.6294715727102
 40
10.6294715727102
 40
10.6294715727102
 40
10.6294715727102
 40
10.6294715727102
 40
10.6294715727102
 10
6.9423394575914239
 20
6.3203122691076805
 30
0.0
 10
6.937053978196003
 20
6.3260059968792541
 30
0.0
 10
6.9319391768236081
 20
6.3320524633899362
 30
0.0
 10
6.9270084658217099
 20
6.338423519147085
 30
0.0
 10
6.9125306141919634
 20
6.3587914233142939
 30
0.0
 10
6.8999319570132087
 20
6.3817643354080138
 30
0.0
 10
6.8923904578492925
 20
6.3982363034617293
 30
0.0
 10
6.8827082215437096
 20
6.4240733765300932
 30
0.0
 10
6.8757310891890944
 20
6.4506553275566088
 30
0.0
 10
6.8736983458976511
 20
6.4596362652492694
 30
0.0
 10
6.8702566397407345
 20
6.4777032259105045
 30
0.0
 10
6.8681032953640253
 20
6.4958434152129074
 30
0.0
 10
6.8673562047606032
 20
6.5049193366195084
 30
0.0
 10
6.8669496348970336
 20
6.5139385382596506
 30
0.0
 10
6.8668896634496379
 20
6.5228796499790302
 30
0.0
  0
ELLIPSE
  5
399
100
AcDbEntity
  8
0
370
    35
390
0
 62
     7
 48
0.03937
100
AcDbEllipse
 10
6.903809
 20
6.426063
 30
0.0
 11
0.0700835082432869
 21
-0.2142796499480204
 31
0.0
210
0.0
220
0.0
230
1.0
 40
0.624124
 41
2.7576787703525936
 42
3.141487694783037
  0
SPLINE
  5
39A
100
AcDbEntity
  8
0
370
    35
390
0
 62
     7
 48
0.03937
100
AcDbSpline
210
0.0
220
0.0
230
1.0
 70
     8
 71
     5
 72
    15
 73
     9
 74
     0
 42
0.0
 43
0.0
 40
0.0
 40
0.0
 40
0.0
 40
0.0
 40
0.0
 40
0.0
 40
5.4591555178710403
 40
5.4591555178710403
 40
5.4591555178710403
 40
7.8970532326364395
 40
7.8970532326364395
 40
7.8970532326364395
 40
7.8970532326364395
 40
7.8970532326364395
 40
7.8970532326364395
 10
6.8337392295795283
 20
6.6403475553369269
 30
0.0
 10
6.8177491701973363
 20
6.6351207804496504
 30
0.0
 10
6.803015155008926
 20
6.6260669456998293
 30
0.0
 10
6.7901669650980603
 20
6.6133959104934625
 30
0.0
 10
6.7748093231165898
 20
6.5908405965103309
 30
0.0
 10
6.7643169104364071
 20
6.5636344799677451
 30
0.0
 10
6.7615409376369255
 20
6.5548233805179645
 30
0.0
 10
6.7592470696710105
 20
6.5457210479260786
 30
0.0
 10
6.7574209019010478
 20
6.5363543059481808
 30
0.0
  0
SPLINE
  5
39B
100
AcDbEntity
  8
0
370
    35
390
0
 62
     7
 48
0.03937
100
AcDbSpline
210
0.0
220
0.0
230
1.0
 70
     8
 71
     5
 72
    24
 73
    18
 74
     0
 42
0.0
 43
0.0
 40
0.0
 40
0.0
 40
0.0
 40
0.0
 40
0.0
 40
0.0
 40
2.3145019576477206
 40
2.3145019576477206
 40
2.3145019576477206
 40
4.6952207495474001
 40
4.6952207495474001
 40
4.6952207495474001
 40
8.3630483268194702
 40
8.3630483268194702
 40
8.3630483268194702
 40
10.816671868721821
 40
10.816671868721821
 40
10.816671868721821
 40
12.060490771841671
 40
12.060490771841671
 40
12.060490771841671
 40
12.060490771841671
 40
12.060490771841671
 40
12.060490771841671
 10
7.0162333593205144
 20
6.3203117300475444
 30
0.0
 10
7.0098520124538863
 20
6.3254741009687701
 30
0.0
 10
7.0036135334737368
 20
6.3311856983143509
 30
0.0
 10
6.997549152334952
 20
6.3374093464112971
 30
0.0
 10
6.9857429819892944
 20
6.3508661401526387
 30
0.0
 10
6.9749251162120069
 20
6.3659232304660245
 30
0.0
 10
6.9697343224402744
 20
6.3738828429687189
 30
0.0
 10
6.9571312935968708
 20
6.3951794048275472
 30
0.0
 10
6.9464248125438361
 20
6.4185341879446964
 30
0.0
 10
6.9407511478294994
 20
6.4332231481530169
 30
0.0
 10
6.9327282878927496
 20
6.4582629546206842
 30
0.0
 10
6.9271966416828947
 20
6.4838173312491127
 30
0.0
 10
6.9253781262036709
 20
6.4941540972889493
 30
0.0
 10
6.9232774035849198
 20
6.5097302617709998
 30
0.0
 10
6.9221574447945322
 20
6.525244088298118
 30
0.0
 10
6.9218931513381836
 20
6.5304523318706122
 30
0.0
 10
6.9217430881075179
 20
6.5356385356913602
 30
0.0
 10
6.9217084770101502
 20
6.5407986861452541
 30
0.0
  0
SPLINE
  5
39C
100
AcDbEntity
  8
0
370
    35
390
0
 62
     7
 48
0.03937
100
AcDbSpline
210
0.0
220
0.0
230
1.0
 70
     8
 71
     5
 72
    15
 73
     9
 74
     0
 42
0.0
 43
0.0
 40
0.0
 40
0.0
 40
0.0
 40
0.0
 40
0.0
 40
0.0
 40
5.9138540494116674
 40
5.9138540494116674
 40
5.9138540494116674
 40
9.9494787660162594
 40
9.9494787660162594
 40
9.9494787660162594
 40
9.9494787660162594
 40
9.9494787660162594
 40
9.9494787660162594
 10
7.006935000620131
 20
6.3302017318841557
 30
0.0
 10
6.9871205696319096
 20
6.3538740290300506
 30
0.0
 10
6.9698730495391974
 20
6.3813551476315507
 30
0.0
 10
6.9555792059228922
 20
6.4112620299540612
 30
0.0
 10
6.9367571628456259
 20
6.4641629853929317
 30
0.0
 10
6.9274630696099555
 20
6.5192849352382227
 30
0.0
 10
6.9253449822722652
 20
6.5417696078260343
 30
0.0
 10
6.9249992027611214
 20
6.5640818218042662
 30
0.0
 10
6.9265536930550242
 20
6.5858602893535751
 30
0.0
  0
POLYLINE
  5
39D
100
AcDbEntity
  8
0
370
    35
390
0
 62
     7
 48
0.03937
100
AcDb2dPolyline
 66
     1
 10
0.0
 20
0.0
 30
0.0
 71
     2
  0
VERTEX
  5
39E
100
AcDbEntity
  8
0
370
     0
390
0
100
AcDbVertex
100
AcDb2dVertex
 10
6.998607
 20
6.338707
 30
0.0
 42
0.033338
  0
VERTEX
  5
39F
100
AcDbEntity
  8
0
370
     0
390
0
100
AcDbVertex
100
AcDb2dVertex
 10
7.016549
 20
6.321703
 30
0.0
  0
SEQEND
  5
3A0
100
AcDbEntity
  8
0
370
     0
390
0
  0
SPLINE
  5
3A1
100
AcDbEntity
  8
0
370
    35
390
0
 62
     7
 48
0.03937
100
AcDbSpline
210
0.0
220
0.0
230
1.0
 70
     8
 71
     5
 72
    21
 73
    15
 74
     0
 42
0.0
 43
0.0
 40
0.0
 40
0.0
 40
0.0
 40
0.0
 40
0.0
 40
0.0
 40
2.0613546588296972
 40
2.0613546588296972
 40
2.0613546588296972
 40
6.3215720176509258
 40
6.3215720176509258
 40
6.3215720176509258
 40
8.4742776819655461
 40
8.4742776819655461
 40
8.4742776819655461
 40
10.629471281769794
 40
10.629471281769794
 40
10.629471281769794
 40
10.629471281769794
 40
10.629471281769794
 40
10.629471281769794
 10
6.9986049366688494
 20
6.338704189249051
 30
0.0
 10
6.9933194584323539
 20
6.3443979159231274
 30
0.0
 10
6.988204658048577
 20
6.3504443812857883
 30
0.0
 10
6.9832739477248325
 20
6.3568154360801001
 30
0.0
 10
6.9687960973007614
 20
6.3771833378509779
 30
0.0
 10
6.9561974394343951
 20
6.4001562495295303
 30
0.0
 10
6.9486559382489697
 20
6.416628220531992
 30
0.0
 10
6.9389737002351435
 20
6.4424652988794575
 30
0.0
 10
6.9319965681459257
 20
6.4690472504798899
 30
0.0
 10
6.9299638251482083
 20
6.4780281873995991
 30
0.0
 10
6.9265221193809188
 20
6.4960951470204762
 30
0.0
 10
6.9243687752387659
 20
6.5142353354115032
 30
0.0
 10
6.923621684715398
 20
6.5233112563496087
 30
0.0
 10
6.9232151148893228
 20
6.5323304575491559
 30
0.0
 10
6.9231551434449026
 20
6.5412715688379119
 30
0.0
  0
POLYLINE
  5
3A2
100
AcDbEntity
  8
0
370
    35
390
0
 62
     7
 48
0.03937
100
AcDb2dPolyline
 66
     1
 10
0.0
 20
0.0
 30
0.0
 71
     2
  0
VERTEX
  5
3A3
100
AcDbEntity
  8
0
370
     0
390
0
100
AcDbVertex
100
AcDb2dVertex
 10
6.980409
 20
6.523011
 30
0.0
 42
0.085049
  0
VERTEX
  5
3A4
100
AcDbEntity
  8
0
370
     0
390
0
100
AcDbVertex
100
AcDb2dVertex
 10
7.013113
 20
6.415568
 30
0.0
  0
SEQEND
  5
3A5
100
AcDbEntity
  8
0
370
     0
390
0
  0
POLYLINE
  5
3A6
100
AcDbEntity
  8
0
370
    35
390
0
 62
     7
 48
0.03937
100
AcDb2dPolyline
 66
     1
 10
0.0
 20
0.0
 30
0.0
 71
     2
  0
VERTEX
  5
3A7
100
AcDbEntity
  8
0
370
     0
390
0
100
AcDbVertex
100
AcDb2dVertex
 10
6.993321
 20
6.491348
 30
0.0
 42
0.027036
  0
VERTEX
  5
3A8
100
AcDbEntity
  8
0
370
     0
390
0
100
AcDbVertex
100
AcDb2dVertex
 10
7.005919
 20
6.450214
 30
0.0
  0
SEQEND
  5
3A9
100
AcDbEntity
  8
0
370
     0
390
0
  0
POLYLINE
  5
3AA
100
AcDbEntity
  8
0
370
    35
390
0
 62
     7
 48
0.03937
100
AcDb2dPolyline
 66
     1
 10
0.0
 20
0.0
 30
0.0
 71
     2
  0
VERTEX
  5
3AB
100
AcDbEntity
  8
0
370
     0
390
0
100
AcDbVertex
100
AcDb2dVertex
 10
6.982565
 20
6.518199
 30
0.0
 42
0.076903
  0
VERTEX
  5
3AC
100
AcDbEntity
  8
0
370
     0
390
0
100
AcDbVertex
100
AcDb2dVertex
 10
7.012237
 20
6.420739
 30
0.0
  0
SEQEND
  5
3AD
100
AcDbEntity
  8
0
370
     0
390
0
  0
LINE
  5
3AE
100
AcDbEntity
  8
0
370
    35
390
0
 62
     7
 48
0.03937
100
AcDbLine
 10
7.874047
 20
7.449042
 30
0.0
 11
6.959733
 21
7.150173
 31
0.0
210
0.0
220
0.0
230
1.0
  0
LINE
  5
3AF
100
AcDbEntity
  8
0
370
    35
390
0
 62
     7
 48
0.03937
100
AcDbLine
 10
9.155064
 20
3.529823
 30
0.0
 11
8.24075
 21
3.230954
 31
0.0
210
0.0
220
0.0
230
1.0
  0
LINE
  5
3B0
100
AcDbEntity
  8
0
370
    35
390
0
 62
     7
 48
0.001202
100
AcDbLine
 10
7.901657
 20
4.268395
 30
0.0
 11
7.855941
 21
4.253451
 31
0.0
210
0.0
220
0.0
230
1.0
  0
LINE
  5
3B1
100
AcDbEntity
  8
0
370
    35
390
0
 62
     7
 48
0.001202
100
AcDbLine
 10
7.298826
 20
6.112733
 30
0.0
 11
7.25311
 21
6.097789
 31
0.0
210
0.0
220
0.0
230
1.0
  0
INSERT
  5
576
100
AcDbEntity
  8
0
370
     0
390
0
100
AcDbBlockReference
  2
BLOCK1
 10
0.0
 20
0.0
 30
0.0
210
0.0
220
0.0
230
1.0
  0
INSERT
  5
577
100
AcDbEntity
  8
0
370
     0
390
0
100
AcDbBlockReference
  2
BLOCK2
 10
0.0
 20
0.0
 30
0.0
210
0.0
220
0.0
230
1.0
  0
INSERT
  5
578
100
AcDbEntity
  8
0
370
     0
390
0
100
AcDbBlockReference
  2
BLOCK3
 10
0.0
 20
0.0
 30
0.0
210
0.0
220
0.0
230
1.0
  0
INSERT
  5
579
100
AcDbEntity
  8
0
370
     0
390
0
100
AcDbBlockReference
  2
BLOCK4
 10
0.0
 20
0.0
 30
0.0
210
0.0
220
0.0
230
1.0
  0
INSERT
  5
57A
100
AcDbEntity
  8
0
370
     0
390
0
100
AcDbBlockReference
  2
BLOCK5
 10
0.0
 20
0.0
 30
0.0
210
0.0
220
0.0
230
1.0
  0
INSERT
  5
57B
100
AcDbEntity
  8
0
370
     0
390
0
100
AcDbBlockReference
  2
BLOCK6
 10
3.283566
 20
5.713163
 30
0.0
 41
0.970179
 42
0.970179
 43
0.970179
210
0.0
220
0.0
230
1.0
  0
INSERT
  5
57C
100
AcDbEntity
  8
0
370
     0
390
0
100
AcDbBlockReference
  2
BLOCK7
 10
3.283566
 20
5.713163
 30
0.0
 41
0.970179
 42
0.970179
 43
0.970179
210
0.0
220
0.0
230
1.0
  0
INSERT
  5
57D
100
AcDbEntity
  8
0
370
     0
390
0
100
AcDbBlockReference
  2
BLOCK8
 10
3.283566
 20
5.713163
 30
0.0
 41
0.970179
 42
0.970179
 43
0.970179
210
0.0
220
0.0
230
1.0
  0
INSERT
  5
57E
100
AcDbEntity
  8
0
370
     0
390
0
100
AcDbBlockReference
  2
BLOCK9
 10
3.283566
 20
5.713163
 30
0.0
 41
0.970179
 42
0.970179
 43
0.970179
210
0.0
220
0.0
230
1.0
  0
INSERT
  5
57F
100
AcDbEntity
  8
0
370
     0
390
0
100
AcDbBlockReference
  2
BLOCK10
 10
3.283566
 20
5.713163
 30
0.0
 41
0.970179
 42
0.970179
 43
0.970179
210
0.0
220
0.0
230
1.0
  0
INSERT
  5
580
100
AcDbEntity
  8
0
370
     0
390
0
100
AcDbBlockReference
  2
BLOCK11
 10
3.283566
 20
5.713163
 30
0.0
 41
0.970179
 42
0.970179
 43
0.970179
210
0.0
220
0.0
230
1.0
  0
INSERT
  5
581
100
AcDbEntity
  8
0
370
     0
390
0
100
AcDbBlockReference
  2
BLOCK12
 10
3.283566
 20
5.713163
 30
0.0
 41
0.970179
 42
0.970179
 43
0.970179
210
0.0
220
0.0
230
1.0
  0
INSERT
  5
582
100
AcDbEntity
  8
0
370
     0
390
0
100
AcDbBlockReference
  2
BLOCK13
 10
3.283566
 20
5.713163
 30
0.0
 41
0.970179
 42
0.970179
 43
0.970179
210
0.0
220
0.0
230
1.0
  0
INSERT
  5
583
100
AcDbEntity
  8
0
370
     0
390
0
100
AcDbBlockReference
  2
BLOCK14
 10
3.283566
 20
2.565801
 30
0.0
 41
0.970179
 42
0.970179
 43
0.970179
210
0.0
220
0.0
230
1.0
  0
INSERT
  5
584
100
AcDbEntity
  8
0
370
     0
390
0
100
AcDbBlockReference
  2
BLOCK15
 10
3.283566
 20
2.565801
 30
0.0
 41
0.970179
 42
0.970179
 43
0.970179
210
0.0
220
0.0
230
1.0
  0
INSERT
  5
585
100
AcDbEntity
  8
0
370
     0
390
0
100
AcDbBlockReference
  2
BLOCK16
 10
3.283566
 20
2.565801
 30
0.0
 41
0.970179
 42
0.970179
 43
0.970179
210
0.0
220
0.0
230
1.0
  0
INSERT
  5
586
100
AcDbEntity
  8
0
370
     0
390
0
100
AcDbBlockReference
  2
BLOCK17
 10
3.283566
 20
2.565801
 30
0.0
 41
0.970179
 42
0.970179
 43
0.970179
210
0.0
220
0.0
230
1.0
  0
INSERT
  5
587
100
AcDbEntity
  8
0
370
     0
390
0
100
AcDbBlockReference
  2
BLOCK18
 10
3.283566
 20
2.565801
 30
0.0
 41
0.970179
 42
0.970179
 43
0.970179
210
0.0
220
0.0
230
1.0
  0
INSERT
  5
588
100
AcDbEntity
  8
0
370
     0
390
0
100
AcDbBlockReference
  2
BLOCK19
 10
3.283566
 20
2.565801
 30
0.0
 41
0.970179
 42
0.970179
 43
0.970179
210
0.0
220
0.0
230
1.0
  0
ENDSEC
  0
SECTION
  2
OBJECTS
  0
DICTIONARY
  5
19
100
AcDbDictionary
280
     0
281
     1
  3
ACAD_GROUP
350
1A
  3
ACAD_MLINESTYLE
350
1B
  3
ACAD_LAYOUT
350
1E
  3
ACAD_PLOTSETTINGS
350
22
  3
ACAD_PLOTSTYLENAME
350
1F
  3
ACAD_WIPEOUT_VARS
350
23
  0
DICTIONARY
  5
1A
102
{ACAD_REACTORS
330
19
102
}
100
AcDbDictionary
280
     0
281
     1
  0
DICTIONARY
  5
1B
102
{ACAD_REACTORS
330
19
102
}
100
AcDbDictionary
280
     0
281
     1
  3
Standard
350
1C
  0
MLINESTYLE
  5
1C
102
{ACAD_REACTORS
330
1B
102
}
100
AcDbMlineStyle
  2
Standard
 70
     0
  3

 62
     0
 51
90.0
 52
90.0
 71
     2
 49
0.5
 62
   256
  6
ByLayer
 49
-0.5
 62
   256
  6
ByLayer
  0
ACDBDICTIONARYWDFLT
  5
1F
102
{ACAD_REACTORS
330
19
102
}
100
AcDbDictionary
281
     1
  3
Normal
350
1D
100
AcDbDictionaryWithDefault
340
1D
  0
ACDBPLACEHOLDER
  5
1D
102
{ACAD_REACTORS
330
1F
102
}
  0
LAYOUT
  5
20
102
{ACAD_REACTORS
330
1E
102
}
100
AcDbPlotSettings
  1

  2

  4

  6

 40
0.0
 41
0.0
 42
0.0
 43
0.0
 44
0.0
 45
0.0
 46
0.0
 47
0.0
 48
0.0
 49
0.0
140
0.0
141
0.0
142
1.0
143
1.0
 70
  1024
 72
     0
 73
     0
 74
     0
  7

 75
     0
147
1.0
148
0.0
149
0.0
100
AcDbLayout
  1
Model
 70
     0
 71
     0
 10
0.0
 20
0.0
 11
0.0
 21
0.0
 12
0.0
 22
0.0
 32
0.0
 14
0.0
 24
0.0
 34
0.0
 15
0.0
 25
0.0
 35
0.0
146
0.0
 13
0.0
 23
0.0
 33
0.0
 16
0.0
 26
0.0
 36
0.0
 17
0.0
 27
0.0
 37
0.0
 76
     0
330
A
331
0
345
0
346
0
  0
LAYOUT
  5
21
102
{ACAD_REACTORS
330
1E
102
}
100
AcDbPlotSettings
  1

  2

  4

  6

 40
0.0
 41
0.0
 42
0.0
 43
0.0
 44
0.0
 45
0.0
 46
0.0
 47
0.0
 48
0.0
 49
0.0
140
0.0
141
0.0
142
1.0
143
1.0
 70
     0
 72
     0
 73
     0
 74
     0
  7

 75
     0
147
1.0
148
0.0
149
0.0
100
AcDbLayout
  1
Layout1
 70
     0
 71
     0
 10
0.0
 20
0.0
 11
0.0
 21
0.0
 12
0.0
 22
0.0
 32
0.0
 14
0.0
 24
0.0
 34
0.0
 15
0.0
 25
0.0
 35
0.0
146
0.0
 13
0.0
 23
0.0
 33
0.0
 16
0.0
 26
0.0
 36
0.0
 17
0.0
 27
0.0
 37
0.0
 76
     0
330
B
331
0
345
0
346
0
  0
DICTIONARY
  5
1E
102
{ACAD_REACTORS
330
19
102
}
100
AcDbDictionary
280
     0
281
     1
  3
Layout1
350
21
  3
Model
350
20
  0
DICTIONARY
  5
22
102
{ACAD_REACTORS
330
19
102
}
100
AcDbDictionary
280
     0
281
     1
  0
WIPEOUTVARIABLES
  5
23
100
AcDbWipeoutVariables
 70
     1
  0
ENDSEC
  0
EOF
