  0
SECTION
  2
HEADER
  9
$ACADVER
  1
AC1015
  9
$ACADMAINTVER
 70
     6
  9
$DWGCODEPAGE
  3
ANSI_1252
  9
$INSBASE
 10
0.0
 20
0.0
 30
0.0
  9
$EXTMIN
 10
0.0
 20
0.0
 30
0.0
  9
$EXTMAX
 10
247.938538
 20
3.068404
 30
2.0
  9
$LIMMIN
 10
0.0
 20
0.0
  9
$LIMMAX
 10
17.0
 20
11.0
  9
$ORTHOMODE
 70
     0
  9
$REGENMODE
 70
     1
  9
$FILLMODE
 70
     1
  9
$QTEXTMODE
 70
     0
  9
$MIRRTEXT
 70
     1
  9
$LTSCALE
 40
1.0
  9
$ATTMODE
 70
     1
  9
$TEXTSIZE
 40
0.2
  9
$TRACEWID
 40
0.05
  9
$TEXTSTYLE
  7
STANDARD
  9
$CLAYER
  8
0
  9
$CELTYPE
  6
ByLayer
  9
$CECOLOR
 62
   256
  9
$CELTSCALE
 40
1.0
  9
$DISPSILH
 70
     0
  9
$DIMSCALE
 40
1.0
  9
$DIMASZ
 40
0.18
  9
$DIMEXO
 40
0.0625
  9
$DIMDLI
 40
0.38
  9
$DIMRND
 40
0.0
  9
$DIMDLE
 40
0.0
  9
$DIMEXE
 40
0.18
  9
$DIMTP
 40
0.0
  9
$DIMTM
 40
0.0
  9
$DIMTXT
 40
0.18
  9
$DIMCEN
 40
0.09
  9
$DIMTSZ
 40
0.0
  9
$DIMTOL
 70
     0
  9
$DIMLIM
 70
     0
  9
$DIMTIH
 70
     1
  9
$DIMTOH
 70
     1
  9
$DIMSE1
 70
     0
  9
$DIMSE2
 70
     0
  9
$DIMTAD
 70
     0
  9
$DIMZIN
 70
     0
  9
$DIMBLK
  1

  9
$DIMASO
 70
     1
  9
$DIMSHO
 70
     1
  9
$DIMPOST
  1

  9
$DIMAPOST
  1

  9
$DIMALT
 70
     0
  9
$DIMALTD
 70
     2
  9
$DIMALTF
 40
25.4
  9
$DIMLFAC
 40
1.0
  9
$DIMTOFL
 70
     0
  9
$DIMTVP
 40
0.0
  9
$DIMTIX
 70
     0
  9
$DIMSOXD
 70
     0
  9
$DIMSAH
 70
     0
  9
$DIMBLK1
  1

  9
$DIMBLK2
  1

  9
$DIMSTYLE
  2
STANDARD
  9
$DIMCLRD
 70
     0
  9
$DIMCLRE
 70
     0
  9
$DIMCLRT
 70
     0
  9
$DIMTFAC
 40
1.0
  9
$DIMGAP
 40
0.09
  9
$DIMJUST
 70
     0
  9
$DIMSD1
 70
     0
  9
$DIMSD2
 70
     0
  9
$DIMTOLJ
 70
     1
  9
$DIMTZIN
 70
     0
  9
$DIMALTZ
 70
     0
  9
$DIMALTTZ
 70
     0
  9
$DIMUPT
 70
     0
  9
$DIMDEC
 70
     4
  9
$DIMTDEC
 70
     4
  9
$DIMALTU
 70
     2
  9
$DIMALTTD
 70
     2
  9
$DIMTXSTY
  7
STANDARD
  9
$DIMAUNIT
 70
     0
  9
$DIMADEC
 70
     0
  9
$DIMALTRND
 40
0.0
  9
$DIMAZIN
 70
     0
  9
$DIMDSEP
 70
    46
  9
$DIMATFIT
 70
     0
  9
$DIMFRAC
 70
     0
  9
$DIMLDRBLK
  1

  9
$DIMLUNIT
 70
     2
  9
$DIMLWD
 70
    -2
  9
$DIMLWE
 70
    -2
  9
$DIMTMOVE
 70
     0
  9
$LUNITS
 70
     2
  9
$LUPREC
 70
     4
  9
$SKETCHINC
 40
0.1
  9
$FILLETRAD
 40
0.125
  9
$AUNITS
 70
     0
  9
$AUPREC
 70
     0
  9
$MENU
  1
.
  9
$ELEVATION
 40
0.0
  9
$PELEVATION
 40
0.0
  9
$THICKNESS
 40
0.0
  9
$LIMCHECK
 70
     0
  9
$CHAMFERA
 40
0.125
  9
$CHAMFERB
 40
0.125
  9
$CHAMFERC
 40
0.0
  9
$CHAMFERD
 40
0.0
  9
$SKPOLY
 70
     0
  9
$TDCREATE
 40
0.000000000
  9
$TDUCREATE
 40
0.000000000
  9
$TDUPDATE
 40
0.000000000
  9
$TDUUPDATE
 40
0.000000000
  9
$TDINDWG
 40
0.0000000000
  9
$TDUSRTIMER
 40
0.0000000000
  9
$USRTIMER
 70
     1
  9
$ANGBASE
 50
0.0
  9
$ANGDIR
 70
     0
  9
$PDMODE
 70
     0
  9
$PDSIZE
 40
0.0
  9
$PLINEWID
 40
0.0
  9
$SPLFRAME
 70
     0
  9
$SPLINETYPE
 70
     6
  9
$SPLINESEGS
 70
     8
  9
$HANDSEED
  5
789
  9
$SURFTAB1
 70
     6
  9
$SURFTAB2
 70
     6
  9
$SURFTYPE
 70
     6
  9
$SURFU
 70
     6
  9
$SURFV
 70
     6
  9
$UCSBASE
  2

  9
$UCSNAME
  2

  9
$UCSORG
 10
0.0
 20
0.0
 30
0.0
  9
$UCSXDIR
 10
1.0
 20
0.0
 30
0.0
  9
$UCSYDIR
 10
0.0
 20
1.0
 30
0.0
  9
$UCSORTHOREF
  2

  9
$UCSORTHOVIEW
 70
     1
  9
$UCSORGTOP
 10
0.0
 20
0.0
 30
0.0
  9
$UCSORGBOTTOM
 10
0.0
 20
0.0
 30
0.0
  9
$UCSORGLEFT
 10
0.0
 20
0.0
 30
0.0
  9
$UCSORGRIGHT
 10
0.0
 20
0.0
 30
0.0
  9
$UCSORGFRONT
 10
0.0
 20
0.0
 30
0.0
  9
$UCSORGBACK
 10
0.0
 20
0.0
 30
0.0
  9
$PUCSBASE
  2

  9
$PUCSNAME
  2

  9
$PUCSORG
 10
0.0
 20
0.0
 30
0.0
  9
$PUCSXDIR
 10
1.0
 20
0.0
 30
0.0
  9
$PUCSYDIR
 10
0.0
 20
1.0
 30
0.0
  9
$PUCSORTHOREF
  2

  9
$PUCSORTHOVIEW
 70
     0
  9
$PUCSORGTOP
 10
0.0
 20
0.0
 30
0.0
  9
$PUCSORGBOTTOM
 10
0.0
 20
0.0
 30
0.0
  9
$PUCSORGLEFT
 10
0.0
 20
0.0
 30
0.0
  9
$PUCSORGRIGHT
 10
0.0
 20
0.0
 30
0.0
  9
$PUCSORGFRONT
 10
0.0
 20
0.0
 30
0.0
  9
$PUCSORGBACK
 10
0.0
 20
0.0
 30
0.0
  9
$USERI1
 70
     0
  9
$USERI2
 70
     0
  9
$USERI3
 70
     0
  9
$USERI4
 70
     0
  9
$USERI5
 70
     0
  9
$USERR1
 40
0.0
  9
$USERR2
 40
0.0
  9
$USERR3
 40
0.0
  9
$USERR4
 40
0.0
  9
$USERR5
 40
0.0
  9
$WORLDVIEW
 70
     1
  9
$SHADEDGE
 70
     3
  9
$SHADEDIF
 70
    70
  9
$TILEMODE
 70
     1
  9
$MAXACTVP
 70
    48
  9
$PINSBASE
 10
0.0
 20
0.0
 30
0.0
  9
$PLIMCHECK
 70
     0
  9
$PEXTMIN
 10
0.0
 20
0.0
 30
0.0
  9
$PEXTMAX
 10
247.938538
 20
3.068404
 30
2.0
  9
$PLIMMIN
 10
0.0
 20
0.0
  9
$PLIMMAX
 10
12.0
 20
9.0
  9
$UNITMODE
 70
     0
  9
$VISRETAIN
 70
     0
  9
$PLINEGEN
 70
     0
  9
$PSLTSCALE
 70
     1
  9
$TREEDEPTH
 70
  3020
  9
$CMLSTYLE
  2
Standard
  9
$CMLJUST
 70
     0
  9
$CMLSCALE
 40
1.0
  9
$PROXYGRAPHICS
 70
     1
  9
$MEASUREMENT
 70
     0
  9
$CELWEIGHT
370
    -1
  9
$ENDCAPS
280
     0
  9
$JOINSTYLE
280
     0
  9
$LWDISPLAY
290
     0
  9
$INSUNITS
 70
     0
  9
$HYPERLINKBASE
  1

  9
$STYLESHEET
  1

  9
$XEDIT
290
     1
  9
$CEPSNTYPE
380
     0
  9
$PSTYLEMODE
290
     0
  9
$FINGERPRINTGUID
  2

  9
$VERSIONGUID
  2

  9
$EXTNAMES
290
     0
  9
$PSVPSCALE
 40
0.0
  0
ENDSEC
  0
SECTION
  2
CLASSES
  0
CLASS
  1
LWPOLYLINE
  2
AcDbPolyline
  3
AutoCAD 2000
 90
        0
280
     0
281
     1
  0
CLASS
  1
IMAGE
  2
AcDbRasterImage
  3
ISM
 90
      127
280
     0
281
     1
  0
CLASS
  1
OLE2FRAME
  2
AcDbOle2Frame
  3
AutoCAD 2000
 90
        0
280
     0
281
     1
  0
CLASS
  1
HATCH
  2
AcDbHatch
  3
AutoCAD 2000
 90
        0
280
     0
281
     1
  0
CLASS
  1
DICTIONARYVAR
  2
AcDbDictionaryVar
  3
AutoCAD 2000
 90
        0
280
     0
281
     0
  0
CLASS
  1
RASTERVARIABLES
  2
AcDbRasterVariables
  3
ISM
 90
        0
280
     0
281
     0
  0
CLASS
  1
IMAGEDEF
  2
AcDbRasterImageDef
  3
ISM
 90
        0
280
     0
281
     0
  0
CLASS
  1
IMAGEDEF_REACTOR
  2
AcDbRasterImageDefReactor
  3
ISM
 90
        1
280
     0
281
     0
  0
CLASS
  1
IDBUFFER
  2
AcDbIdBuffer
  3
AutoCAD 2000
 90
        0
280
     0
281
     0
  0
CLASS
  1
SPATIAL_FILTER
  2
AcDbSpatialFilter
  3
AutoCAD 2000
 90
        0
280
     0
281
     0
  0
CLASS
  1
XRECORD
  2
AcDbXrecord
  3
AutoCAD 2000
 90
        0
280
     0
281
     0
  0
CLASS
  1
SORTENTSTABLE
  2
AcDbSortentsTable
  3
AutoCAD 2000
 90
        0
280
     0
281
     0
  0
CLASS
  1
LAYER_INDEX
  2
AcDbLayerIndex
  3
AutoCAD 2000
 90
        0
280
     0
281
     0
  0
CLASS
  1
SPATIAL_INDEX
  2
AcDbSpatialIndex
  3
AutoCAD 2000
 90
        0
280
     0
281
     0
  0
CLASS
  1
OBJECT_PTR
  2
CAseDLPNTableRecord
  3
"ASE-LPNTableRecord"
 90
        1
280
     0
281
     0
  0
CLASS
  1
LAYOUT
  2
AcDbLayout
  3
AutoCAD 2000
 90
        0
280
     0
281
     0
  0
CLASS
  1
PLOTSETTINGS
  2
AcDbPlotSettings
  3
AutoCAD 2000
 90
        0
280
     0
281
     0
  0
CLASS
  1
ACDBDICTIONARYWDFLT
  2
AcDbDictionaryWithDefault
  3
AutoCAD 2000
 90
        0
280
     0
281
     0
  0
CLASS
  1
ACDBPLACEHOLDER
  2
AcDbPlaceHolder
  3
AutoCAD 2000
 90
        0
280
     0
281
     0
  0
CLASS
  1
VBA_PROJECT
  2
AcDbVbaProject
  3
acadvba
 90
        0
280
     0
281
     0
  0
CLASS
  1
WIPEOUT
  2
AcDbWipeout
  3
WipeOut|AutoCAD Express Tool|expresstools@autodesk.com
 90
      127
280
     0
281
     1
  0
CLASS
  1
WIPEOUTVARIABLES
  2
AcDbWipeoutVariables
  3
WipeOut|AutoCAD Express Tool|expresstools@autodesk.com
 90
        0
280
     0
281
     0
  0
CLASS
  1
RTEXT
  2
RText
  3
RText|AutoCAD Express Tool|expresstools@autodesk.com
 90
        0
280
     0
281
     1
  0
CLASS
  1
ARCALIGNEDTEXT
  2
AcDbArcAlignedText
  3
ATEXT|AutoCAD Express Tool|expresstools@autodesk.com
 90
        0
280
     0
281
     1
  0
ENDSEC
  0
SECTION
  2
TABLES
  0
TABLE
  2
VPORT
  5
7
100
AcDbSymbolTable
 70
     1
  0
VPORT
  5
15
100
AcDbSymbolTableRecord
100
AcDbViewportTableRecord
  2
*ACTIVE
 70
     0
 10
0.0
 20
0.0
 11
1.0
 21
1.0
 12
6.591288
 22
4.579184
 13
0.0
 23
0.0
 14
1.0
 24
1.0
 15
0.0
 25
0.0
 16
0.0
 26
0.0
 36
1.0
 17
0.0
 27
0.0
 37
0.0
 40
9.158369
 41
0.688564
 42
50.0
 43
0.0
 44
0.0
 50
0.0
 51
0.0
 71
     0
 72
   100
 73
     1
 74
     1
 75
     0
 76
     0
 77
     0
 78
     0
281
     0
 65
     0
110
0.0
120
0.0
130
0.0
111
1.0
121
0.0
131
0.0
112
0.0
122
1.0
132
0.0
345
0
346
0
 79
     0
146
0.0
  0
ENDTAB
  0
TABLE
  2
LTYPE
  5
4
100
AcDbSymbolTable
 70
     4
  0
LTYPE
  5
11
100
AcDbSymbolTableRecord
100
AcDbLinetypeTableRecord
  2
ByBlock
 70
    64
  3

 72
    65
 73
     0
 40
0.0
  0
LTYPE
  5
12
100
AcDbSymbolTableRecord
100
AcDbLinetypeTableRecord
  2
ByLayer
 70
    64
  3

 72
    65
 73
     0
 40
0.0
  0
LTYPE
  5
13
100
AcDbSymbolTableRecord
100
AcDbLinetypeTableRecord
  2
Continuous
 70
    64
  3
Solid line
 72
    65
 73
     0
 40
0.0
  0
LTYPE
  5
24
100
AcDbSymbolTableRecord
100
AcDbLinetypeTableRecord
  2
DASHDOT
 70
     0
  3
 __ . __ . __ . __ . __ . __ . __ . 
 72
    65
 73
     4
 40
18.5
 49
12.0
 74
     0
 49
-3.0
 74
     0
 49
0.5
 74
     0
 49
-3.0
 74
     0
  0
ENDTAB
  0
TABLE
  2
LAYER
  5
2
100
AcDbSymbolTable
 70
     2
  0
LAYER
  5
14
100
AcDbSymbolTableRecord
100
AcDbLayerTableRecord
  2
0
 70
     0
 62
     7
  6
Continuous
290
     1
370
    13
390
1D
  0
LAYER
  5
25
100
AcDbSymbolTableRecord
100
AcDbLayerTableRecord
  2
1
 70
     0
 62
     7
  6
Continuous
290
     1
370
    13
390
1D
  0
ENDTAB
  0
TABLE
  2
STYLE
  5
3
100
AcDbSymbolTable
 70
     2
  0
STYLE
  5
17
100
AcDbSymbolTableRecord
100
AcDbTextStyleTableRecord
  2
STANDARD
 70
     0
 40
0.0
 41
1.0
 50
0.0
 71
     0
 42
0.0
  3
isocp.shx
  4

  0
STYLE
  5
26
100
AcDbSymbolTableRecord
100
AcDbTextStyleTableRecord
  2
GDT
 70
     0
 40
0.0
 41
1.0
 50
0.0
 71
     0
 42
0.0
  3
gdt.shx
  4

  0
ENDTAB
  0
TABLE
  2
VIEW
  5
5
100
AcDbSymbolTable
 70
     0
  0
ENDTAB
  0
TABLE
  2
UCS
  5
6
100
AcDbSymbolTable
 70
     0
  0
ENDTAB
  0
TABLE
  2
APPID
  5
8
100
AcDbSymbolTable
 70
     1
  0
APPID
  5
16
100
AcDbSymbolTableRecord
100
AcDbRegAppTableRecord
  2
ACAD
 70
     0
  0
ENDTAB
  0
TABLE
  2
DIMSTYLE
  5
9
100
AcDbSymbolTable
 70
     1
100
AcDbDimStyleTable
 71
     0
  0
DIMSTYLE
105
18
100
AcDbSymbolTableRecord
100
AcDbDimStyleTableRecord
  2
STANDARD
 70
     0
  3

  4

 40
1.0
 41
0.18
 42
0.0625
 43
0.38
 44
0.18
 45
0.0
 46
0.0
 47
0.0
 48
0.0
 71
     0
 72
     0
 73
     1
 74
     1
 75
     0
 76
     0
 77
     0
 78
     0
 79
     0
140
0.18
141
0.09
142
0.0
143
25.4
144
1.0
145
0.0
146
1.0
147
0.09
148
0.0
170
     0
171
     2
172
     0
173
     0
174
     0
175
     0
176
     0
177
     0
178
     0
179
     0
271
     4
272
     4
273
     2
274
     2
275
     0
276
     0
277
     2
278
    46
279
     0
280
     0
281
     0
282
     0
283
     1
284
     0
285
     0
286
     0
288
     0
289
     0
340
0
341
0
342
0
343
0
344
0
371
    -2
372
    -2
  0
ENDTAB
  0
TABLE
  2
BLOCK_RECORD
  5
1
100
AcDbSymbolTable
 70
    30
  0
BLOCK_RECORD
  5
A
100
AcDbSymbolTableRecord
100
AcDbBlockTableRecord
  2
*MODEL_SPACE
340
20
  0
BLOCK_RECORD
  5
B
100
AcDbSymbolTableRecord
100
AcDbBlockTableRecord
  2
*PAPER_SPACE
340
21
  0
BLOCK_RECORD
  5
452
100
AcDbSymbolTableRecord
100
AcDbBlockTableRecord
  2
BLOCK1
340
0
102
{BLKREFS
331
76B
102
}
  0
BLOCK_RECORD
  5
453
100
AcDbSymbolTableRecord
100
AcDbBlockTableRecord
  2
BLOCK2
340
0
102
{BLKREFS
331
76C
102
}
  0
BLOCK_RECORD
  5
454
100
AcDbSymbolTableRecord
100
AcDbBlockTableRecord
  2
BLOCK3
340
0
102
{BLKREFS
331
76D
102
}
  0
BLOCK_RECORD
  5
455
100
AcDbSymbolTableRecord
100
AcDbBlockTableRecord
  2
BLOCK4
340
0
102
{BLKREFS
331
76E
102
}
  0
BLOCK_RECORD
  5
456
100
AcDbSymbolTableRecord
100
AcDbBlockTableRecord
  2
BLOCK5
340
0
102
{BLKREFS
331
76F
102
}
  0
BLOCK_RECORD
  5
457
100
AcDbSymbolTableRecord
100
AcDbBlockTableRecord
  2
BLOCK6
340
0
102
{BLKREFS
331
770
102
}
  0
BLOCK_RECORD
  5
458
100
AcDbSymbolTableRecord
100
AcDbBlockTableRecord
  2
BLOCK7
340
0
102
{BLKREFS
331
771
102
}
  0
BLOCK_RECORD
  5
459
100
AcDbSymbolTableRecord
100
AcDbBlockTableRecord
  2
BLOCK8
340
0
102
{BLKREFS
331
772
102
}
  0
BLOCK_RECORD
  5
45A
100
AcDbSymbolTableRecord
100
AcDbBlockTableRecord
  2
BLOCK9
340
0
102
{BLKREFS
331
773
102
}
  0
BLOCK_RECORD
  5
45B
100
AcDbSymbolTableRecord
100
AcDbBlockTableRecord
  2
BLOCK10
340
0
102
{BLKREFS
331
774
102
}
  0
BLOCK_RECORD
  5
45C
100
AcDbSymbolTableRecord
100
AcDbBlockTableRecord
  2
BLOCK11
340
0
102
{BLKREFS
331
775
102
}
  0
BLOCK_RECORD
  5
45D
100
AcDbSymbolTableRecord
100
AcDbBlockTableRecord
  2
BLOCK12
340
0
102
{BLKREFS
331
776
102
}
  0
BLOCK_RECORD
  5
45E
100
AcDbSymbolTableRecord
100
AcDbBlockTableRecord
  2
BLOCK13
340
0
102
{BLKREFS
331
777
102
}
  0
BLOCK_RECORD
  5
45F
100
AcDbSymbolTableRecord
100
AcDbBlockTableRecord
  2
BLOCK14
340
0
102
{BLKREFS
331
778
102
}
  0
BLOCK_RECORD
  5
460
100
AcDbSymbolTableRecord
100
AcDbBlockTableRecord
  2
BLOCK15
340
0
102
{BLKREFS
331
779
102
}
  0
BLOCK_RECORD
  5
461
100
AcDbSymbolTableRecord
100
AcDbBlockTableRecord
  2
BLOCK16
340
0
102
{BLKREFS
331
77A
102
}
  0
BLOCK_RECORD
  5
462
100
AcDbSymbolTableRecord
100
AcDbBlockTableRecord
  2
BLOCK17
340
0
102
{BLKREFS
331
77B
102
}
  0
BLOCK_RECORD
  5
463
100
AcDbSymbolTableRecord
100
AcDbBlockTableRecord
  2
BLOCK18
340
0
102
{BLKREFS
331
77C
102
}
  0
BLOCK_RECORD
  5
464
100
AcDbSymbolTableRecord
100
AcDbBlockTableRecord
  2
BLOCK19
340
0
102
{BLKREFS
331
77D
102
}
  0
BLOCK_RECORD
  5
465
100
AcDbSymbolTableRecord
100
AcDbBlockTableRecord
  2
BLOCK20
340
0
102
{BLKREFS
331
77E
102
}
  0
BLOCK_RECORD
  5
466
100
AcDbSymbolTableRecord
100
AcDbBlockTableRecord
  2
BLOCK21
340
0
102
{BLKREFS
331
77F
102
}
  0
BLOCK_RECORD
  5
467
100
AcDbSymbolTableRecord
100
AcDbBlockTableRecord
  2
BLOCK22
340
0
102
{BLKREFS
331
780
102
}
  0
BLOCK_RECORD
  5
468
100
AcDbSymbolTableRecord
100
AcDbBlockTableRecord
  2
BLOCK23
340
0
102
{BLKREFS
331
781
102
}
  0
BLOCK_RECORD
  5
469
100
AcDbSymbolTableRecord
100
AcDbBlockTableRecord
  2
BLOCK24
340
0
102
{BLKREFS
331
782
102
}
  0
BLOCK_RECORD
  5
46A
100
AcDbSymbolTableRecord
100
AcDbBlockTableRecord
  2
BLOCK25
340
0
102
{BLKREFS
331
783
102
}
  0
BLOCK_RECORD
  5
46B
100
AcDbSymbolTableRecord
100
AcDbBlockTableRecord
  2
BLOCK26
340
0
102
{BLKREFS
331
784
102
}
  0
BLOCK_RECORD
  5
46C
100
AcDbSymbolTableRecord
100
AcDbBlockTableRecord
  2
BLOCK27
340
0
102
{BLKREFS
331
785
102
}
  0
BLOCK_RECORD
  5
46D
100
AcDbSymbolTableRecord
100
AcDbBlockTableRecord
  2
BLOCK28
340
0
102
{BLKREFS
331
786
102
}
  0
BLOCK_RECORD
  5
46E
100
AcDbSymbolTableRecord
100
AcDbBlockTableRecord
  2
BLOCK29
340
0
102
{BLKREFS
331
787
102
}
  0
BLOCK_RECORD
  5
46F
100
AcDbSymbolTableRecord
100
AcDbBlockTableRecord
  2
BLOCK30
340
0
102
{BLKREFS
331
788
102
}
  0
ENDTAB
  0
ENDSEC
  0
SECTION
  2
BLOCKS
  0
BLOCK
  5
D
100
AcDbEntity
  8
0
390
0
100
AcDbBlockBegin
  2
*MODEL_SPACE
 70
     0
 10
0.0
 20
0.0
 30
0.0
  3
*MODEL_SPACE
  1

  0
ENDBLK
  5
E
100
AcDbEntity
  8
0
390
0
100
AcDbBlockEnd
  0
BLOCK
  5
F
100
AcDbEntity
 67
     1
  8
0
390
0
100
AcDbBlockBegin
  2
*PAPER_SPACE
 70
     0
 10
0.0
 20
0.0
 30
0.0
  3
*PAPER_SPACE
  1

  0
ENDBLK
  5
10
100
AcDbEntity
 67
     1
  8
0
390
0
100
AcDbBlockEnd
  0
BLOCK
  5
470
100
AcDbEntity
  8
0
370
     0
390
0
100
AcDbBlockBegin
  2
BLOCK1
 70
     0
 10
0.0
 20
0.0
 30
0.0
  3
BLOCK1
  1

  0
TEXT
  5
471
100
AcDbEntity
  8
0
370
    13
390
0
 62
     7
 48
0.03937
100
AcDbText
 10
8.158841
 20
0.85583
 30
0.0
 40
0.098425
  1
300-EB-RTJ
 72
     5
 11
8.941252
 21
0.85583
 31
0.0
100
AcDbText
  0
TEXT
  5
472
100
AcDbEntity
  8
0
370
    13
390
0
 62
     7
 48
0.03937
100
AcDbText
 10
8.942752
 20
0.85583
 30
0.0
 40
0.098425
  1
-
 72
     5
 11
8.989689
 21
0.85583
 31
0.0
100
AcDbText
  0
TEXT
  5
473
100
AcDbEntity
  8
0
370
    13
390
0
 62
     7
 48
0.03937
100
AcDbText
 10
8.991189
 20
0.85583
 30
0.0
 40
0.098425
  1
STD-CONN-FLANGE
 72
     5
 11
10.439496
 21
0.85583
 31
0.0
100
AcDbText
  0
ENDBLK
  5
474
100
AcDbEntity
  8
0
390
0
100
AcDbBlockEnd
  0
BLOCK
  5
475
100
AcDbEntity
  8
0
370
     0
390
0
100
AcDbBlockBegin
  2
BLOCK2
 70
     0
 10
0.0
 20
0.0
 30
0.0
  3
BLOCK2
  1

  0
TEXT
  5
476
100
AcDbEntity
  8
0
370
    13
390
0
 62
     7
 48
0.03937
100
AcDbText
 10
8.395026
 20
1.043137
 30
0.0
 40
0.098425
  1
NOM. PIPE SIZE 
 72
     5
 11
9.575082
 21
1.043137
 31
0.0
100
AcDbText
  0
TEXT
  5
477
100
AcDbEntity
  8
0
370
    13
390
0
 62
     7
 48
0.03937
100
AcDbText
 10
9.576582
 20
1.043137
 30
0.0
 40
0.098425
  1
0.75
 72
     5
 11
9.829989
 21
1.043137
 31
0.0
100
AcDbText
  0
TEXT
  5
478
100
AcDbEntity
  8
0
370
    13
390
0
 62
     7
 48
0.03937
100
AcDbText
 10
9.83149
 20
1.043137
 30
0.0
 40
0.098425
  1
 INCH
 72
     5
 11
10.253805
 21
1.043137
 31
0.0
100
AcDbText
  0
ENDBLK
  5
479
100
AcDbEntity
  8
0
390
0
100
AcDbBlockEnd
  0
BLOCK
  5
47A
100
AcDbEntity
  8
0
370
     0
390
0
100
AcDbBlockBegin
  2
BLOCK3
 70
     0
 10
0.0
 20
0.0
 30
0.0
  3
BLOCK3
  1

  0
TEXT
  5
47B
100
AcDbEntity
  8
0
370
    13
390
0
 62
     7
 48
0.03937
100
AcDbText
 10
10.093103
 20
0.689966
 30
0.0
 40
0.06
  1
PO Box 2889
 72
     5
 11
10.730818
 21
0.689966
 31
0.0
100
AcDbText
  0
TEXT
  5
47C
100
AcDbEntity
  8
0
370
    13
390
0
 62
     7
 48
0.03937
100
AcDbText
 10
9.686702
 20
0.589966
 30
0.0
 40
0.06
  1
Pearland, TX 77588
 72
     5
 11
10.730818
 21
0.589966
 31
0.0
100
AcDbText
  0
TEXT
  5
47D
100
AcDbEntity
  8
0
370
    13
390
0
 62
     7
 48
0.03937
100
AcDbText
 10
9.802816
 20
0.489966
 30
0.0
 40
0.06
  1
PH: 800-826-3801
 72
     5
 11
10.730818
 21
0.489966
 31
0.0
100
AcDbText
  0
TEXT
  5
47E
100
AcDbEntity
  8
0
370
    13
390
0
 62
     7
 48
0.03937
100
AcDbText
 10
9.744759
 20
0.389966
 30
0.0
 40
0.06
  1
FAX: 281-484-8730
 72
     5
 11
10.730818
 21
0.389966
 31
0.0
100
AcDbText
  0
TEXT
  5
47F
100
AcDbEntity
  8
0
370
    13
390
0
 62
     7
 48
0.03937
100
AcDbText
 10
9.628644
 20
0.289966
 30
0.0
 40
0.06
  1
www.texasflange.com
 72
     5
 11
10.730818
 21
0.289966
 31
0.0
100
AcDbText
  0
ENDBLK
  5
480
100
AcDbEntity
  8
0
390
0
100
AcDbBlockEnd
  0
BLOCK
  5
481
100
AcDbEntity
  8
0
370
     0
390
0
100
AcDbBlockBegin
  2
BLOCK4
 70
     0
 10
0.0
 20
0.0
 30
0.0
  3
BLOCK4
  1

  0
TEXT
  5
482
100
AcDbEntity
  8
0
370
    13
390
0
 62
     7
 48
0.03937
100
AcDbText
 10
8.289209
 20
0.587871
 30
0.0
 40
0.2
  1
Texas
 72
     5
 11
9.383692
 21
0.587871
 31
0.0
100
AcDbText
  0
TEXT
  5
483
100
AcDbEntity
  8
0
370
    13
390
0
 62
     7
 48
0.03937
100
AcDbText
 10
8.289209
 20
0.327871
 30
0.0
 40
0.2
  1
Flange
 72
     5
 11
9.608945
 21
0.327871
 31
0.0
100
AcDbText
  0
ENDBLK
  5
484
100
AcDbEntity
  8
0
390
0
100
AcDbBlockEnd
  0
BLOCK
  5
485
100
AcDbEntity
  8
0
370
     0
390
0
100
AcDbBlockBegin
  2
BLOCK5
 70
     0
 10
0.0
 20
0.0
 30
0.0
  3
BLOCK5
  1

  0
LINE
  5
486
100
AcDbEntity
  8
0
370
     5
390
0
 62
     7
 48
0.00324
100
AcDbLine
 10
8.029831
 20
0.605292
 30
0.0
 11
7.900255
 21
0.604209
 31
0.0
210
0.0
220
0.0
230
1.0
  0
LINE
  5
487
100
AcDbEntity
  8
0
370
     5
390
0
 62
     7
 48
0.000103
100
AcDbLine
 10
7.900255
 20
0.604209
 30
0.0
 11
7.902151
 21
0.600546
 31
0.0
210
0.0
220
0.0
230
1.0
  0
LINE
  5
488
100
AcDbEntity
  8
0
370
     5
390
0
 62
     7
 48
0.0001
100
AcDbLine
 10
7.902151
 20
0.600546
 30
0.0
 11
7.903945
 21
0.596951
 31
0.0
210
0.0
220
0.0
230
1.0
  0
LINE
  5
489
100
AcDbEntity
  8
0
370
     5
390
0
 62
     7
 48
0.000098
100
AcDbLine
 10
7.903945
 20
0.596951
 30
0.0
 11
7.905638
 21
0.593424
 31
0.0
210
0.0
220
0.0
230
1.0
  0
LINE
  5
48A
100
AcDbEntity
  8
0
370
     5
390
0
 62
     7
 48
0.000095
100
AcDbLine
 10
7.905638
 20
0.593424
 30
0.0
 11
7.907229
 21
0.589967
 31
0.0
210
0.0
220
0.0
230
1.0
  0
LINE
  5
48B
100
AcDbEntity
  8
0
370
     5
390
0
 62
     7
 48
0.000093
100
AcDbLine
 10
7.907229
 20
0.589967
 30
0.0
 11
7.908719
 21
0.58658
 31
0.0
210
0.0
220
0.0
230
1.0
  0
LINE
  5
48C
100
AcDbEntity
  8
0
370
     5
390
0
 62
     7
 48
0.00009
100
AcDbLine
 10
7.908719
 20
0.58658
 30
0.0
 11
7.910106
 21
0.583262
 31
0.0
210
0.0
220
0.0
230
1.0
  0
LINE
  5
48D
100
AcDbEntity
  8
0
370
     5
390
0
 62
     7
 48
0.000087
100
AcDbLine
 10
7.910106
 20
0.583262
 30
0.0
 11
7.911392
 21
0.580013
 31
0.0
210
0.0
220
0.0
230
1.0
  0
LINE
  5
48E
100
AcDbEntity
  8
0
370
     5
390
0
 62
     7
 48
0.000085
100
AcDbLine
 10
7.911392
 20
0.580013
 30
0.0
 11
7.912577
 21
0.576833
 31
0.0
210
0.0
220
0.0
230
1.0
  0
LINE
  5
48F
100
AcDbEntity
  8
0
370
     5
390
0
 62
     7
 48
0.000082
100
AcDbLine
 10
7.912577
 20
0.576833
 30
0.0
 11
7.913659
 21
0.573722
 31
0.0
210
0.0
220
0.0
230
1.0
  0
LINE
  5
490
100
AcDbEntity
  8
0
370
     5
390
0
 62
     7
 48
0.000095
100
AcDbLine
 10
7.913659
 20
0.573722
 30
0.0
 11
7.915938
 21
0.570681
 31
0.0
210
0.0
220
0.0
230
1.0
  0
LINE
  5
491
100
AcDbEntity
  8
0
370
     5
390
0
 62
     7
 48
0.000066
100
AcDbLine
 10
7.915938
 20
0.570681
 30
0.0
 11
7.916123
 21
0.573306
 31
0.0
210
0.0
220
0.0
230
1.0
  0
LINE
  5
492
100
AcDbEntity
  8
0
370
     5
390
0
 62
     7
 48
0.000062
100
AcDbLine
 10
7.916123
 20
0.573306
 30
0.0
 11
7.916418
 21
0.575775
 31
0.0
210
0.0
220
0.0
230
1.0
  0
LINE
  5
493
100
AcDbEntity
  8
0
370
     5
390
0
 62
     7
 48
0.000059
100
AcDbLine
 10
7.916418
 20
0.575775
 30
0.0
 11
7.916824
 21
0.578087
 31
0.0
210
0.0
220
0.0
230
1.0
  0
LINE
  5
494
100
AcDbEntity
  8
0
370
     5
390
0
 62
     7
 48
0.000055
100
AcDbLine
 10
7.916824
 20
0.578087
 30
0.0
 11
7.917339
 21
0.580242
 31
0.0
210
0.0
220
0.0
230
1.0
  0
LINE
  5
495
100
AcDbEntity
  8
0
370
     5
390
0
 62
     7
 48
0.000052
100
AcDbLine
 10
7.917339
 20
0.580242
 30
0.0
 11
7.917966
 21
0.58224
 31
0.0
210
0.0
220
0.0
230
1.0
  0
LINE
  5
496
100
AcDbEntity
  8
0
370
     5
390
0
 62
     7
 48
0.00005
100
AcDbLine
 10
7.917966
 20
0.58224
 30
0.0
 11
7.918703
 21
0.584081
 31
0.0
210
0.0
220
0.0
230
1.0
  0
LINE
  5
497
100
AcDbEntity
  8
0
370
     5
390
0
 62
     7
 48
0.000047
100
AcDbLine
 10
7.918703
 20
0.584081
 30
0.0
 11
7.919549
 21
0.585767
 31
0.0
210
0.0
220
0.0
230
1.0
  0
LINE
  5
498
100
AcDbEntity
  8
0
370
     5
390
0
 62
     7
 48
0.000045
100
AcDbLine
 10
7.919549
 20
0.585767
 30
0.0
 11
7.920506
 21
0.587294
 31
0.0
210
0.0
220
0.0
230
1.0
  0
LINE
  5
499
100
AcDbEntity
  8
0
370
     5
390
0
 62
     7
 48
0.000043
100
AcDbLine
 10
7.920506
 20
0.587294
 30
0.0
 11
7.921574
 21
0.588665
 31
0.0
210
0.0
220
0.0
230
1.0
  0
LINE
  5
49A
100
AcDbEntity
  8
0
370
     5
390
0
 62
     7
 48
0.000042
100
AcDbLine
 10
7.921574
 20
0.588665
 30
0.0
 11
7.922751
 21
0.58988
 31
0.0
210
0.0
220
0.0
230
1.0
  0
LINE
  5
49B
100
AcDbEntity
  8
0
370
     5
390
0
 62
     7
 48
0.000042
100
AcDbLine
 10
7.922751
 20
0.58988
 30
0.0
 11
7.924063
 21
0.590958
 31
0.0
210
0.0
220
0.0
230
1.0
  0
LINE
  5
49C
100
AcDbEntity
  8
0
370
     5
390
0
 62
     7
 48
0.000044
100
AcDbLine
 10
7.924063
 20
0.590958
 30
0.0
 11
7.92553
 21
0.591923
 31
0.0
210
0.0
220
0.0
230
1.0
  0
LINE
  5
49D
100
AcDbEntity
  8
0
370
     5
390
0
 62
     7
 48
0.000046
100
AcDbLine
 10
7.92553
 20
0.591923
 30
0.0
 11
7.927152
 21
0.592775
 31
0.0
210
0.0
220
0.0
230
1.0
  0
LINE
  5
49E
100
AcDbEntity
  8
0
370
     5
390
0
 62
     7
 48
0.000048
100
AcDbLine
 10
7.927152
 20
0.592775
 30
0.0
 11
7.92893
 21
0.593513
 31
0.0
210
0.0
220
0.0
230
1.0
  0
LINE
  5
49F
100
AcDbEntity
  8
0
370
     5
390
0
 62
     7
 48
0.000051
100
AcDbLine
 10
7.92893
 20
0.593513
 30
0.0
 11
7.930864
 21
0.594138
 31
0.0
210
0.0
220
0.0
230
1.0
  0
LINE
  5
4A0
100
AcDbEntity
  8
0
370
     5
390
0
 62
     7
 48
0.000054
100
AcDbLine
 10
7.930864
 20
0.594138
 30
0.0
 11
7.932953
 21
0.594648
 31
0.0
210
0.0
220
0.0
230
1.0
  0
LINE
  5
4A1
100
AcDbEntity
  8
0
370
     5
390
0
 62
     7
 48
0.000057
100
AcDbLine
 10
7.932953
 20
0.594648
 30
0.0
 11
7.9352
 21
0.595046
 31
0.0
210
0.0
220
0.0
230
1.0
  0
LINE
  5
4A2
100
AcDbEntity
  8
0
370
     5
390
0
 62
     7
 48
0.00006
100
AcDbLine
 10
7.9352
 20
0.595046
 30
0.0
 11
7.9376
 21
0.595331
 31
0.0
210
0.0
220
0.0
230
1.0
  0
LINE
  5
4A3
100
AcDbEntity
  8
0
370
     5
390
0
 62
     7
 48
0.000064
100
AcDbLine
 10
7.9376
 20
0.595331
 30
0.0
 11
7.940158
 21
0.5955
 31
0.0
210
0.0
220
0.0
230
1.0
  0
LINE
  5
4A4
100
AcDbEntity
  8
0
370
     5
390
0
 62
     7
 48
0.000068
100
AcDbLine
 10
7.940158
 20
0.5955
 30
0.0
 11
7.94287
 21
0.595557
 31
0.0
210
0.0
220
0.0
230
1.0
  0
LINE
  5
4A5
100
AcDbEntity
  8
0
370
     5
390
0
 62
     7
 48
0.00005
100
AcDbLine
 10
7.94287
 20
0.595557
 30
0.0
 11
7.944881
 21
0.595532
 31
0.0
210
0.0
220
0.0
230
1.0
  0
LINE
  5
4A6
100
AcDbEntity
  8
0
370
     5
390
0
 62
     7
 48
0.000051
100
AcDbLine
 10
7.944881
 20
0.595532
 30
0.0
 11
7.946936
 21
0.595454
 31
0.0
210
0.0
220
0.0
230
1.0
  0
LINE
  5
4A7
100
AcDbEntity
  8
0
370
     5
390
0
 62
     7
 48
0.000053
100
AcDbLine
 10
7.946936
 20
0.595454
 30
0.0
 11
7.949034
 21
0.595323
 31
0.0
210
0.0
220
0.0
230
1.0
  0
LINE
  5
4A8
100
AcDbEntity
  8
0
370
     5
390
0
 62
     7
 48
0.000054
100
AcDbLine
 10
7.949034
 20
0.595323
 30
0.0
 11
7.951177
 21
0.595142
 31
0.0
210
0.0
220
0.0
230
1.0
  0
LINE
  5
4A9
100
AcDbEntity
  8
0
370
     5
390
0
 62
     7
 48
0.000055
100
AcDbLine
 10
7.951177
 20
0.595142
 30
0.0
 11
7.953361
 21
0.594908
 31
0.0
210
0.0
220
0.0
230
1.0
  0
LINE
  5
4AA
100
AcDbEntity
  8
0
370
     5
390
0
 62
     7
 48
0.000136
100
AcDbLine
 10
7.953361
 20
0.594908
 30
0.0
 11
7.952171
 21
0.589608
 31
0.0
210
0.0
220
0.0
230
1.0
  0
LINE
  5
4AB
100
AcDbEntity
  8
0
370
     5
390
0
 62
     7
 48
0.000162
100
AcDbLine
 10
7.952171
 20
0.589608
 30
0.0
 11
7.945682
 21
0.589716
 31
0.0
210
0.0
220
0.0
230
1.0
  0
LINE
  5
4AC
100
AcDbEntity
  8
0
370
     5
390
0
 62
     7
 48
0.00006
100
AcDbLine
 10
7.945682
 20
0.589716
 30
0.0
 11
7.943286
 21
0.589667
 31
0.0
210
0.0
220
0.0
230
1.0
  0
LINE
  5
4AD
100
AcDbEntity
  8
0
370
     5
390
0
 62
     7
 48
0.000057
100
AcDbLine
 10
7.943286
 20
0.589667
 30
0.0
 11
7.941029
 21
0.589518
 31
0.0
210
0.0
220
0.0
230
1.0
  0
LINE
  5
4AE
100
AcDbEntity
  8
0
370
     5
390
0
 62
     7
 48
0.000053
100
AcDbLine
 10
7.941029
 20
0.589518
 30
0.0
 11
7.938912
 21
0.589269
 31
0.0
210
0.0
220
0.0
230
1.0
  0
LINE
  5
4AF
100
AcDbEntity
  8
0
370
     5
390
0
 62
     7
 48
0.00005
100
AcDbLine
 10
7.938912
 20
0.589269
 30
0.0
 11
7.936934
 21
0.588921
 31
0.0
210
0.0
220
0.0
230
1.0
  0
LINE
  5
4B0
100
AcDbEntity
  8
0
370
     5
390
0
 62
     7
 48
0.000047
100
AcDbLine
 10
7.936934
 20
0.588921
 30
0.0
 11
7.935095
 21
0.588473
 31
0.0
210
0.0
220
0.0
230
1.0
  0
LINE
  5
4B1
100
AcDbEntity
  8
0
370
     5
390
0
 62
     7
 48
0.000045
100
AcDbLine
 10
7.935095
 20
0.588473
 30
0.0
 11
7.933397
 21
0.587925
 31
0.0
210
0.0
220
0.0
230
1.0
  0
LINE
  5
4B2
100
AcDbEntity
  8
0
370
     5
390
0
 62
     7
 48
0.000042
100
AcDbLine
 10
7.933397
 20
0.587925
 30
0.0
 11
7.931839
 21
0.587279
 31
0.0
210
0.0
220
0.0
230
1.0
  0
LINE
  5
4B3
100
AcDbEntity
  8
0
370
     5
390
0
 62
     7
 48
0.00004
100
AcDbLine
 10
7.931839
 20
0.587279
 30
0.0
 11
7.930418
 21
0.586532
 31
0.0
210
0.0
220
0.0
230
1.0
  0
LINE
  5
4B4
100
AcDbEntity
  8
0
370
     5
390
0
 62
     7
 48
0.000038
100
AcDbLine
 10
7.930418
 20
0.586532
 30
0.0
 11
7.929138
 21
0.585687
 31
0.0
210
0.0
220
0.0
230
1.0
  0
LINE
  5
4B5
100
AcDbEntity
  8
0
370
     5
390
0
 62
     7
 48
0.000074
100
AcDbLine
 10
7.929138
 20
0.585687
 30
0.0
 11
7.926968
 21
0.58367
 31
0.0
210
0.0
220
0.0
230
1.0
  0
LINE
  5
4B6
100
AcDbEntity
  8
0
370
     5
390
0
 62
     7
 48
0.000039
100
AcDbLine
 10
7.926968
 20
0.58367
 30
0.0
 11
7.926023
 21
0.582444
 31
0.0
210
0.0
220
0.0
230
1.0
  0
LINE
  5
4B7
100
AcDbEntity
  8
0
370
     5
390
0
 62
     7
 48
0.000041
100
AcDbLine
 10
7.926023
 20
0.582444
 30
0.0
 11
7.92516
 21
0.581064
 31
0.0
210
0.0
220
0.0
230
1.0
  0
LINE
  5
4B8
100
AcDbEntity
  8
0
370
     5
390
0
 62
     7
 48
0.000043
100
AcDbLine
 10
7.92516
 20
0.581064
 30
0.0
 11
7.924381
 21
0.579533
 31
0.0
210
0.0
220
0.0
230
1.0
  0
LINE
  5
4B9
100
AcDbEntity
  8
0
370
     5
390
0
 62
     7
 48
0.000046
100
AcDbLine
 10
7.924381
 20
0.579533
 30
0.0
 11
7.923684
 21
0.577847
 31
0.0
210
0.0
220
0.0
230
1.0
  0
LINE
  5
4BA
100
AcDbEntity
  8
0
370
     5
390
0
 62
     7
 48
0.000048
100
AcDbLine
 10
7.923684
 20
0.577847
 30
0.0
 11
7.923073
 21
0.576006
 31
0.0
210
0.0
220
0.0
230
1.0
  0
LINE
  5
4BB
100
AcDbEntity
  8
0
370
     5
390
0
 62
     7
 48
0.000052
100
AcDbLine
 10
7.923073
 20
0.576006
 30
0.0
 11
7.922543
 21
0.574013
 31
0.0
210
0.0
220
0.0
230
1.0
  0
LINE
  5
4BC
100
AcDbEntity
  8
0
370
     5
390
0
 62
     7
 48
0.000055
100
AcDbLine
 10
7.922543
 20
0.574013
 30
0.0
 11
7.922096
 21
0.571866
 31
0.0
210
0.0
220
0.0
230
1.0
  0
LINE
  5
4BD
100
AcDbEntity
  8
0
370
     5
390
0
 62
     7
 48
0.000058
100
AcDbLine
 10
7.922096
 20
0.571866
 30
0.0
 11
7.921734
 21
0.569565
 31
0.0
210
0.0
220
0.0
230
1.0
  0
LINE
  5
4BE
100
AcDbEntity
  8
0
370
     5
390
0
 62
     7
 48
0.000062
100
AcDbLine
 10
7.921734
 20
0.569565
 30
0.0
 11
7.921454
 21
0.567111
 31
0.0
210
0.0
220
0.0
230
1.0
  0
LINE
  5
4BF
100
AcDbEntity
  8
0
370
     5
390
0
 62
     7
 48
0.00007
100
AcDbLine
 10
7.921454
 20
0.567111
 30
0.0
 11
7.924266
 21
0.567111
 31
0.0
210
0.0
220
0.0
230
1.0
  0
LINE
  5
4C0
100
AcDbEntity
  8
0
370
     5
390
0
 62
     7
 48
0.000054
100
AcDbLine
 10
7.924266
 20
0.567111
 30
0.0
 11
7.924478
 21
0.569252
 31
0.0
210
0.0
220
0.0
230
1.0
  0
LINE
  5
4C1
100
AcDbEntity
  8
0
370
     5
390
0
 62
     7
 48
0.000051
100
AcDbLine
 10
7.924478
 20
0.569252
 30
0.0
 11
7.924766
 21
0.571259
 31
0.0
210
0.0
220
0.0
230
1.0
  0
LINE
  5
4C2
100
AcDbEntity
  8
0
370
     5
390
0
 62
     7
 48
0.000048
100
AcDbLine
 10
7.924766
 20
0.571259
 30
0.0
 11
7.92513
 21
0.573132
 31
0.0
210
0.0
220
0.0
230
1.0
  0
LINE
  5
4C3
100
AcDbEntity
  8
0
370
     5
390
0
 62
     7
 48
0.000045
100
AcDbLine
 10
7.92513
 20
0.573132
 30
0.0
 11
7.925573
 21
0.574872
 31
0.0
210
0.0
220
0.0
230
1.0
  0
LINE
  5
4C4
100
AcDbEntity
  8
0
370
     5
390
0
 62
     7
 48
0.000042
100
AcDbLine
 10
7.925573
 20
0.574872
 30
0.0
 11
7.926092
 21
0.57648
 31
0.0
210
0.0
220
0.0
230
1.0
  0
LINE
  5
4C5
100
AcDbEntity
  8
0
370
     5
390
0
 62
     7
 48
0.000077
100
AcDbLine
 10
7.926092
 20
0.57648
 30
0.0
 11
7.92736
 21
0.579297
 31
0.0
210
0.0
220
0.0
230
1.0
  0
LINE
  5
4C6
100
AcDbEntity
  8
0
370
     5
390
0
 62
     7
 48
0.000069
100
AcDbLine
 10
7.92736
 20
0.579297
 30
0.0
 11
7.928935
 21
0.581582
 31
0.0
210
0.0
220
0.0
230
1.0
  0
LINE
  5
4C7
100
AcDbEntity
  8
0
370
     5
390
0
 62
     7
 48
0.000065
100
AcDbLine
 10
7.928935
 20
0.581582
 30
0.0
 11
7.930843
 21
0.583356
 31
0.0
210
0.0
220
0.0
230
1.0
  0
LINE
  5
4C8
100
AcDbEntity
  8
0
370
     5
390
0
 62
     7
 48
0.000069
100
AcDbLine
 10
7.930843
 20
0.583356
 30
0.0
 11
7.93324
 21
0.584759
 31
0.0
210
0.0
220
0.0
230
1.0
  0
LINE
  5
4C9
100
AcDbEntity
  8
0
370
     5
390
0
 62
     7
 48
0.000038
100
AcDbLine
 10
7.93324
 20
0.584759
 30
0.0
 11
7.93463
 21
0.585327
 31
0.0
210
0.0
220
0.0
230
1.0
  0
LINE
  5
4CA
100
AcDbEntity
  8
0
370
     5
390
0
 62
     7
 48
0.00004
100
AcDbLine
 10
7.93463
 20
0.585327
 30
0.0
 11
7.936151
 21
0.585809
 31
0.0
210
0.0
220
0.0
230
1.0
  0
LINE
  5
4CB
100
AcDbEntity
  8
0
370
     5
390
0
 62
     7
 48
0.000042
100
AcDbLine
 10
7.936151
 20
0.585809
 30
0.0
 11
7.937799
 21
0.586203
 31
0.0
210
0.0
220
0.0
230
1.0
  0
LINE
  5
4CC
100
AcDbEntity
  8
0
370
     5
390
0
 62
     7
 48
0.000045
100
AcDbLine
 10
7.937799
 20
0.586203
 30
0.0
 11
7.939577
 21
0.586511
 31
0.0
210
0.0
220
0.0
230
1.0
  0
LINE
  5
4CD
100
AcDbEntity
  8
0
370
     5
390
0
 62
     7
 48
0.000048
100
AcDbLine
 10
7.939577
 20
0.586511
 30
0.0
 11
7.941484
 21
0.58673
 31
0.0
210
0.0
220
0.0
230
1.0
  0
LINE
  5
4CE
100
AcDbEntity
  8
0
370
     5
390
0
 62
     7
 48
0.000051
100
AcDbLine
 10
7.941484
 20
0.58673
 30
0.0
 11
7.943519
 21
0.58686
 31
0.0
210
0.0
220
0.0
230
1.0
  0
LINE
  5
4CF
100
AcDbEntity
  8
0
370
     5
390
0
 62
     7
 48
0.000054
100
AcDbLine
 10
7.943519
 20
0.58686
 30
0.0
 11
7.945682
 21
0.586905
 31
0.0
210
0.0
220
0.0
230
1.0
  0
LINE
  5
4D0
100
AcDbEntity
  8
0
370
     5
390
0
 62
     7
 48
0.000192
100
AcDbLine
 10
7.945682
 20
0.586905
 30
0.0
 11
7.953361
 21
0.586796
 31
0.0
210
0.0
220
0.0
230
1.0
  0
LINE
  5
4D1
100
AcDbEntity
  8
0
370
     5
390
0
 62
     7
 48
0.00269
100
AcDbLine
 10
7.953361
 20
0.586796
 30
0.0
 11
7.953361
 21
0.479178
 31
0.0
210
0.0
220
0.0
230
1.0
  0
LINE
  5
4D2
100
AcDbEntity
  8
0
370
     5
390
0
 62
     7
 48
0.000493
100
AcDbLine
 10
7.953361
 20
0.479178
 30
0.0
 11
7.93822
 21
0.466523
 31
0.0
210
0.0
220
0.0
230
1.0
  0
LINE
  5
4D3
100
AcDbEntity
  8
0
370
     5
390
0
 62
     7
 48
0.001236
100
AcDbLine
 10
7.93822
 20
0.466523
 30
0.0
 11
7.987647
 21
0.466523
 31
0.0
210
0.0
220
0.0
230
1.0
  0
LINE
  5
4D4
100
AcDbEntity
  8
0
370
     5
390
0
 62
     7
 48
0.000434
100
AcDbLine
 10
7.987647
 20
0.466523
 30
0.0
 11
7.974885
 21
0.478313
 31
0.0
210
0.0
220
0.0
230
1.0
  0
LINE
  5
4D5
100
AcDbEntity
  8
0
370
     5
390
0
 62
     7
 48
0.002931
100
AcDbLine
 10
7.974885
 20
0.478313
 30
0.0
 11
7.976183
 21
0.595557
 31
0.0
210
0.0
220
0.0
230
1.0
  0
LINE
  5
4D6
100
AcDbEntity
  8
0
370
     5
390
0
 62
     7
 48
0.000049
100
AcDbLine
 10
7.976183
 20
0.595557
 30
0.0
 11
7.97813
 21
0.595713
 31
0.0
210
0.0
220
0.0
230
1.0
  0
LINE
  5
4D7
100
AcDbEntity
  8
0
370
     5
390
0
 62
     7
 48
0.000049
100
AcDbLine
 10
7.97813
 20
0.595713
 30
0.0
 11
7.980077
 21
0.595835
 31
0.0
210
0.0
220
0.0
230
1.0
  0
LINE
  5
4D8
100
AcDbEntity
  8
0
370
     5
390
0
 62
     7
 48
0.000049
100
AcDbLine
 10
7.980077
 20
0.595835
 30
0.0
 11
7.982024
 21
0.59592
 31
0.0
210
0.0
220
0.0
230
1.0
  0
LINE
  5
4D9
100
AcDbEntity
  8
0
370
     5
390
0
 62
     7
 48
0.000049
100
AcDbLine
 10
7.982024
 20
0.59592
 30
0.0
 11
7.983971
 21
0.595973
 31
0.0
210
0.0
220
0.0
230
1.0
  0
LINE
  5
4DA
100
AcDbEntity
  8
0
370
     5
390
0
 62
     7
 48
0.000049
100
AcDbLine
 10
7.983971
 20
0.595973
 30
0.0
 11
7.985918
 21
0.595991
 31
0.0
210
0.0
220
0.0
230
1.0
  0
LINE
  5
4DB
100
AcDbEntity
  8
0
370
     5
390
0
 62
     7
 48
0.000058
100
AcDbLine
 10
7.985918
 20
0.595991
 30
0.0
 11
7.988236
 21
0.595943
 31
0.0
210
0.0
220
0.0
230
1.0
  0
LINE
  5
4DC
100
AcDbEntity
  8
0
370
     5
390
0
 62
     7
 48
0.000055
100
AcDbLine
 10
7.988236
 20
0.595943
 30
0.0
 11
7.990431
 21
0.595799
 31
0.0
210
0.0
220
0.0
230
1.0
  0
LINE
  5
4DD
100
AcDbEntity
  8
0
370
     5
390
0
 62
     7
 48
0.000052
100
AcDbLine
 10
7.990431
 20
0.595799
 30
0.0
 11
7.992506
 21
0.595562
 31
0.0
210
0.0
220
0.0
230
1.0
  0
LINE
  5
4DE
100
AcDbEntity
  8
0
370
     5
390
0
 62
     7
 48
0.000049
100
AcDbLine
 10
7.992506
 20
0.595562
 30
0.0
 11
7.994457
 21
0.595229
 31
0.0
210
0.0
220
0.0
230
1.0
  0
LINE
  5
4DF
100
AcDbEntity
  8
0
370
     5
390
0
 62
     7
 48
0.000047
100
AcDbLine
 10
7.994457
 20
0.595229
 30
0.0
 11
7.996287
 21
0.5948
 31
0.0
210
0.0
220
0.0
230
1.0
  0
LINE
  5
4E0
100
AcDbEntity
  8
0
370
     5
390
0
 62
     7
 48
0.000045
100
AcDbLine
 10
7.996287
 20
0.5948
 30
0.0
 11
7.997995
 21
0.594276
 31
0.0
210
0.0
220
0.0
230
1.0
  0
LINE
  5
4E1
100
AcDbEntity
  8
0
370
     5
390
0
 62
     7
 48
0.000043
100
AcDbLine
 10
7.997995
 20
0.594276
 30
0.0
 11
7.99958
 21
0.593658
 31
0.0
210
0.0
220
0.0
230
1.0
  0
LINE
  5
4E2
100
AcDbEntity
  8
0
370
     5
390
0
 62
     7
 48
0.000041
100
AcDbLine
 10
7.99958
 20
0.593658
 30
0.0
 11
8.001043
 21
0.592944
 31
0.0
210
0.0
220
0.0
230
1.0
  0
LINE
  5
4E3
100
AcDbEntity
  8
0
370
     5
390
0
 62
     7
 48
0.000039
100
AcDbLine
 10
8.001043
 20
0.592944
 30
0.0
 11
8.002384
 21
0.592136
 31
0.0
210
0.0
220
0.0
230
1.0
  0
LINE
  5
4E4
100
AcDbEntity
  8
0
370
     5
390
0
 62
     7
 48
0.000038
100
AcDbLine
 10
8.002384
 20
0.592136
 30
0.0
 11
8.003601
 21
0.591231
 31
0.0
210
0.0
220
0.0
230
1.0
  0
LINE
  5
4E5
100
AcDbEntity
  8
0
370
     5
390
0
 62
     7
 48
0.000038
100
AcDbLine
 10
8.003601
 20
0.591231
 30
0.0
 11
8.004733
 21
0.590204
 31
0.0
210
0.0
220
0.0
230
1.0
  0
LINE
  5
4E6
100
AcDbEntity
  8
0
370
     5
390
0
 62
     7
 48
0.00004
100
AcDbLine
 10
8.004733
 20
0.590204
 30
0.0
 11
8.00581
 21
0.589025
 31
0.0
210
0.0
220
0.0
230
1.0
  0
LINE
  5
4E7
100
AcDbEntity
  8
0
370
     5
390
0
 62
     7
 48
0.000042
100
AcDbLine
 10
8.00581
 20
0.589025
 30
0.0
 11
8.006836
 21
0.587694
 31
0.0
210
0.0
220
0.0
230
1.0
  0
LINE
  5
4E8
100
AcDbEntity
  8
0
370
     5
390
0
 62
     7
 48
0.000044
100
AcDbLine
 10
8.006836
 20
0.587694
 30
0.0
 11
8.007806
 21
0.586212
 31
0.0
210
0.0
220
0.0
230
1.0
  0
LINE
  5
4E9
100
AcDbEntity
  8
0
370
     5
390
0
 62
     7
 48
0.000047
100
AcDbLine
 10
8.007806
 20
0.586212
 30
0.0
 11
8.008726
 21
0.584579
 31
0.0
210
0.0
220
0.0
230
1.0
  0
LINE
  5
4EA
100
AcDbEntity
  8
0
370
     5
390
0
 62
     7
 48
0.00005
100
AcDbLine
 10
8.008726
 20
0.584579
 30
0.0
 11
8.009591
 21
0.582795
 31
0.0
210
0.0
220
0.0
230
1.0
  0
LINE
  5
4EB
100
AcDbEntity
  8
0
370
     5
390
0
 62
     7
 48
0.000053
100
AcDbLine
 10
8.009591
 20
0.582795
 30
0.0
 11
8.010404
 21
0.580859
 31
0.0
210
0.0
220
0.0
230
1.0
  0
LINE
  5
4EC
100
AcDbEntity
  8
0
370
     5
390
0
 62
     7
 48
0.000056
100
AcDbLine
 10
8.010404
 20
0.580859
 30
0.0
 11
8.011163
 21
0.578771
 31
0.0
210
0.0
220
0.0
230
1.0
  0
LINE
  5
4ED
100
AcDbEntity
  8
0
370
     5
390
0
 62
     7
 48
0.000059
100
AcDbLine
 10
8.011163
 20
0.578771
 30
0.0
 11
8.011871
 21
0.576531
 31
0.0
210
0.0
220
0.0
230
1.0
  0
LINE
  5
4EE
100
AcDbEntity
  8
0
370
     5
390
0
 62
     7
 48
0.000062
100
AcDbLine
 10
8.011871
 20
0.576531
 30
0.0
 11
8.012525
 21
0.574142
 31
0.0
210
0.0
220
0.0
230
1.0
  0
LINE
  5
4EF
100
AcDbEntity
  8
0
370
     5
390
0
 62
     7
 48
0.000057
100
AcDbLine
 10
8.012525
 20
0.574142
 30
0.0
 11
8.014147
 21
0.572519
 31
0.0
210
0.0
220
0.0
230
1.0
  0
LINE
  5
4F0
100
AcDbEntity
  8
0
370
     5
390
0
 62
     7
 48
0.000054
100
AcDbLine
 10
8.014147
 20
0.572519
 30
0.0
 11
8.014802
 21
0.574562
 31
0.0
210
0.0
220
0.0
230
1.0
  0
LINE
  5
4F1
100
AcDbEntity
  8
0
370
     5
390
0
 62
     7
 48
0.000052
100
AcDbLine
 10
8.014802
 20
0.574562
 30
0.0
 11
8.015467
 21
0.576534
 31
0.0
210
0.0
220
0.0
230
1.0
  0
LINE
  5
4F2
100
AcDbEntity
  8
0
370
     5
390
0
 62
     7
 48
0.000051
100
AcDbLine
 10
8.015467
 20
0.576534
 30
0.0
 11
8.016143
 21
0.578438
 31
0.0
210
0.0
220
0.0
230
1.0
  0
LINE
  5
4F3
100
AcDbEntity
  8
0
370
     5
390
0
 62
     7
 48
0.000049
100
AcDbLine
 10
8.016143
 20
0.578438
 30
0.0
 11
8.01683
 21
0.580272
 31
0.0
210
0.0
220
0.0
230
1.0
  0
LINE
  5
4F4
100
AcDbEntity
  8
0
370
     5
390
0
 62
     7
 48
0.000047
100
AcDbLine
 10
8.01683
 20
0.580272
 30
0.0
 11
8.017528
 21
0.582038
 31
0.0
210
0.0
220
0.0
230
1.0
  0
LINE
  5
4F5
100
AcDbEntity
  8
0
370
     5
390
0
 62
     7
 48
0.000046
100
AcDbLine
 10
8.017528
 20
0.582038
 30
0.0
 11
8.018235
 21
0.583734
 31
0.0
210
0.0
220
0.0
230
1.0
  0
LINE
  5
4F6
100
AcDbEntity
  8
0
370
     5
390
0
 62
     7
 48
0.000044
100
AcDbLine
 10
8.018235
 20
0.583734
 30
0.0
 11
8.018954
 21
0.58536
 31
0.0
210
0.0
220
0.0
230
1.0
  0
LINE
  5
4F7
100
AcDbEntity
  8
0
370
     5
390
0
 62
     7
 48
0.000043
100
AcDbLine
 10
8.018954
 20
0.58536
 30
0.0
 11
8.019684
 21
0.586917
 31
0.0
210
0.0
220
0.0
230
1.0
  0
LINE
  5
4F8
100
AcDbEntity
  8
0
370
     5
390
0
 62
     7
 48
0.000042
100
AcDbLine
 10
8.019684
 20
0.586917
 30
0.0
 11
8.020426
 21
0.588405
 31
0.0
210
0.0
220
0.0
230
1.0
  0
LINE
  5
4F9
100
AcDbEntity
  8
0
370
     5
390
0
 62
     7
 48
0.00004
100
AcDbLine
 10
8.020426
 20
0.588405
 30
0.0
 11
8.021177
 21
0.589826
 31
0.0
210
0.0
220
0.0
230
1.0
  0
LINE
  5
4FA
100
AcDbEntity
  8
0
370
     5
390
0
 62
     7
 48
0.0004
100
AcDbLine
 10
8.021177
 20
0.589826
 30
0.0
 11
8.029019
 21
0.60375
 31
0.0
210
0.0
220
0.0
230
1.0
  0
LINE
  5
4FB
100
AcDbEntity
  8
0
370
     5
390
0
 62
     7
 48
0.000044
100
AcDbLine
 10
8.029019
 20
0.60375
 30
0.0
 11
8.029831
 21
0.605292
 31
0.0
210
0.0
220
0.0
230
1.0
  0
ENDBLK
  5
4FC
100
AcDbEntity
  8
0
390
0
100
AcDbBlockEnd
  0
BLOCK
  5
4FD
100
AcDbEntity
  8
0
370
     0
390
0
100
AcDbBlockBegin
  2
BLOCK6
 70
     0
 10
0.0
 20
0.0
 30
0.0
  3
BLOCK6
  1

  0
LINE
  5
4FE
100
AcDbEntity
  8
0
370
     5
390
0
 62
     7
 48
0.000505
100
AcDbLine
 10
8.03978
 20
0.605292
 30
0.0
 11
8.054382
 21
0.591339
 31
0.0
210
0.0
220
0.0
230
1.0
  0
LINE
  5
4FF
100
AcDbEntity
  8
0
370
     5
390
0
 62
     7
 48
0.001141
100
AcDbLine
 10
8.054382
 20
0.591339
 30
0.0
 11
8.054382
 21
0.545696
 31
0.0
210
0.0
220
0.0
230
1.0
  0
LINE
  5
500
100
AcDbEntity
  8
0
370
     5
390
0
 62
     7
 48
0.00008
100
AcDbLine
 10
8.054382
 20
0.545696
 30
0.0
 11
8.051189
 21
0.545309
 31
0.0
210
0.0
220
0.0
230
1.0
  0
LINE
  5
501
100
AcDbEntity
  8
0
370
     5
390
0
 62
     7
 48
0.000076
100
AcDbLine
 10
8.051189
 20
0.545309
 30
0.0
 11
8.048231
 21
0.544665
 31
0.0
210
0.0
220
0.0
230
1.0
  0
LINE
  5
502
100
AcDbEntity
  8
0
370
     5
390
0
 62
     7
 48
0.000072
100
AcDbLine
 10
8.048231
 20
0.544665
 30
0.0
 11
8.045504
 21
0.543768
 31
0.0
210
0.0
220
0.0
230
1.0
  0
LINE
  5
503
100
AcDbEntity
  8
0
370
     5
390
0
 62
     7
 48
0.000069
100
AcDbLine
 10
8.045504
 20
0.543768
 30
0.0
 11
8.043013
 21
0.542615
 31
0.0
210
0.0
220
0.0
230
1.0
  0
LINE
  5
504
100
AcDbEntity
  8
0
370
     5
390
0
 62
     7
 48
0.000067
100
AcDbLine
 10
8.043013
 20
0.542615
 30
0.0
 11
8.040755
 21
0.541208
 31
0.0
210
0.0
220
0.0
230
1.0
  0
LINE
  5
505
100
AcDbEntity
  8
0
370
     5
390
0
 62
     7
 48
0.000066
100
AcDbLine
 10
8.040755
 20
0.541208
 30
0.0
 11
8.03873
 21
0.539544
 31
0.0
210
0.0
220
0.0
230
1.0
  0
LINE
  5
506
100
AcDbEntity
  8
0
370
     5
390
0
 62
     7
 48
0.000066
100
AcDbLine
 10
8.03873
 20
0.539544
 30
0.0
 11
8.036938
 21
0.537626
 31
0.0
210
0.0
220
0.0
230
1.0
  0
LINE
  5
507
100
AcDbEntity
  8
0
370
     5
390
0
 62
     7
 48
0.000067
100
AcDbLine
 10
8.036938
 20
0.537626
 30
0.0
 11
8.03538
 21
0.535451
 31
0.0
210
0.0
220
0.0
230
1.0
  0
LINE
  5
508
100
AcDbEntity
  8
0
370
     5
390
0
 62
     7
 48
0.000069
100
AcDbLine
 10
8.03538
 20
0.535451
 30
0.0
 11
8.034058
 21
0.533022
 31
0.0
210
0.0
220
0.0
230
1.0
  0
LINE
  5
509
100
AcDbEntity
  8
0
370
     5
390
0
 62
     7
 48
0.000072
100
AcDbLine
 10
8.034058
 20
0.533022
 30
0.0
 11
8.032967
 21
0.530337
 31
0.0
210
0.0
220
0.0
230
1.0
  0
LINE
  5
50A
100
AcDbEntity
  8
0
370
     5
390
0
 62
     7
 48
0.000047
100
AcDbLine
 10
8.032967
 20
0.530337
 30
0.0
 11
8.033725
 21
0.528606
 31
0.0
210
0.0
220
0.0
230
1.0
  0
LINE
  5
50B
100
AcDbEntity
  8
0
370
     5
390
0
 62
     7
 48
0.000054
100
AcDbLine
 10
8.033725
 20
0.528606
 30
0.0
 11
8.035222
 21
0.530168
 31
0.0
210
0.0
220
0.0
230
1.0
  0
LINE
  5
50C
100
AcDbEntity
  8
0
370
     5
390
0
 62
     7
 48
0.000052
100
AcDbLine
 10
8.035222
 20
0.530168
 30
0.0
 11
8.036774
 21
0.531566
 31
0.0
210
0.0
220
0.0
230
1.0
  0
LINE
  5
50D
100
AcDbEntity
  8
0
370
     5
390
0
 62
     7
 48
0.000051
100
AcDbLine
 10
8.036774
 20
0.531566
 30
0.0
 11
8.038381
 21
0.532799
 31
0.0
210
0.0
220
0.0
230
1.0
  0
LINE
  5
50E
100
AcDbEntity
  8
0
370
     5
390
0
 62
     7
 48
0.000049
100
AcDbLine
 10
8.038381
 20
0.532799
 30
0.0
 11
8.04004
 21
0.533868
 31
0.0
210
0.0
220
0.0
230
1.0
  0
LINE
  5
50F
100
AcDbEntity
  8
0
370
     5
390
0
 62
     7
 48
0.000048
100
AcDbLine
 10
8.04004
 20
0.533868
 30
0.0
 11
8.041754
 21
0.534771
 31
0.0
210
0.0
220
0.0
230
1.0
  0
LINE
  5
510
100
AcDbEntity
  8
0
370
     5
390
0
 62
     7
 48
0.000048
100
AcDbLine
 10
8.041754
 20
0.534771
 30
0.0
 11
8.043522
 21
0.535512
 31
0.0
210
0.0
220
0.0
230
1.0
  0
LINE
  5
511
100
AcDbEntity
  8
0
370
     5
390
0
 62
     7
 48
0.000048
100
AcDbLine
 10
8.043522
 20
0.535512
 30
0.0
 11
8.045345
 21
0.536087
 31
0.0
210
0.0
220
0.0
230
1.0
  0
LINE
  5
512
100
AcDbEntity
  8
0
370
     5
390
0
 62
     7
 48
0.000048
100
AcDbLine
 10
8.045345
 20
0.536087
 30
0.0
 11
8.047222
 21
0.536498
 31
0.0
210
0.0
220
0.0
230
1.0
  0
LINE
  5
513
100
AcDbEntity
  8
0
370
     5
390
0
 62
     7
 48
0.000049
100
AcDbLine
 10
8.047222
 20
0.536498
 30
0.0
 11
8.049152
 21
0.536744
 31
0.0
210
0.0
220
0.0
230
1.0
  0
LINE
  5
514
100
AcDbEntity
  8
0
370
     5
390
0
 62
     7
 48
0.00005
100
AcDbLine
 10
8.049152
 20
0.536744
 30
0.0
 11
8.051138
 21
0.536826
 31
0.0
210
0.0
220
0.0
230
1.0
  0
LINE
  5
515
100
AcDbEntity
  8
0
370
     5
390
0
 62
     7
 48
0.000041
100
AcDbLine
 10
8.051138
 20
0.536826
 30
0.0
 11
8.052773
 21
0.536748
 31
0.0
210
0.0
220
0.0
230
1.0
  0
LINE
  5
516
100
AcDbEntity
  8
0
370
     5
390
0
 62
     7
 48
0.00004
100
AcDbLine
 10
8.052773
 20
0.536748
 30
0.0
 11
8.054382
 21
0.53661
 31
0.0
210
0.0
220
0.0
230
1.0
  0
LINE
  5
517
100
AcDbEntity
  8
0
370
     5
390
0
 62
     7
 48
0.000127
100
AcDbLine
 10
8.054382
 20
0.53661
 30
0.0
 11
8.054382
 21
0.531527
 31
0.0
210
0.0
220
0.0
230
1.0
  0
LINE
  5
518
100
AcDbEntity
  8
0
370
     5
390
0
 62
     7
 48
0.000051
100
AcDbLine
 10
8.054382
 20
0.531527
 30
0.0
 11
8.052347
 21
0.531458
 31
0.0
210
0.0
220
0.0
230
1.0
  0
LINE
  5
519
100
AcDbEntity
  8
0
370
     5
390
0
 62
     7
 48
0.000049
100
AcDbLine
 10
8.052347
 20
0.531458
 30
0.0
 11
8.050394
 21
0.531249
 31
0.0
210
0.0
220
0.0
230
1.0
  0
LINE
  5
51A
100
AcDbEntity
  8
0
370
     5
390
0
 62
     7
 48
0.000048
100
AcDbLine
 10
8.050394
 20
0.531249
 30
0.0
 11
8.048522
 21
0.530904
 31
0.0
210
0.0
220
0.0
230
1.0
  0
LINE
  5
51B
100
AcDbEntity
  8
0
370
     5
390
0
 62
     7
 48
0.000046
100
AcDbLine
 10
8.048522
 20
0.530904
 30
0.0
 11
8.046733
 21
0.53042
 31
0.0
210
0.0
220
0.0
230
1.0
  0
LINE
  5
51C
100
AcDbEntity
  8
0
370
     5
390
0
 62
     7
 48
0.000045
100
AcDbLine
 10
8.046733
 20
0.53042
 30
0.0
 11
8.045027
 21
0.529796
 31
0.0
210
0.0
220
0.0
230
1.0
  0
LINE
  5
51D
100
AcDbEntity
  8
0
370
     5
390
0
 62
     7
 48
0.000045
100
AcDbLine
 10
8.045027
 20
0.529796
 30
0.0
 11
8.043403
 21
0.529035
 31
0.0
210
0.0
220
0.0
230
1.0
  0
LINE
  5
51E
100
AcDbEntity
  8
0
370
     5
390
0
 62
     7
 48
0.000045
100
AcDbLine
 10
8.043403
 20
0.529035
 30
0.0
 11
8.041859
 21
0.528135
 31
0.0
210
0.0
220
0.0
230
1.0
  0
LINE
  5
51F
100
AcDbEntity
  8
0
370
     5
390
0
 62
     7
 48
0.000045
100
AcDbLine
 10
8.041859
 20
0.528135
 30
0.0
 11
8.0404
 21
0.527097
 31
0.0
210
0.0
220
0.0
230
1.0
  0
LINE
  5
520
100
AcDbEntity
  8
0
370
     5
390
0
 62
     7
 48
0.000045
100
AcDbLine
 10
8.0404
 20
0.527097
 30
0.0
 11
8.039021
 21
0.52592
 31
0.0
210
0.0
220
0.0
230
1.0
  0
LINE
  5
521
100
AcDbEntity
  8
0
370
     5
390
0
 62
     7
 48
0.000046
100
AcDbLine
 10
8.039021
 20
0.52592
 30
0.0
 11
8.037725
 21
0.524604
 31
0.0
210
0.0
220
0.0
230
1.0
  0
LINE
  5
522
100
AcDbEntity
  8
0
370
     5
390
0
 62
     7
 48
0.000077
100
AcDbLine
 10
8.037725
 20
0.524604
 30
0.0
 11
8.03978
 21
0.522333
 31
0.0
210
0.0
220
0.0
230
1.0
  0
LINE
  5
523
100
AcDbEntity
  8
0
370
     5
390
0
 62
     7
 48
0.000044
100
AcDbLine
 10
8.03978
 20
0.522333
 30
0.0
 11
8.041057
 21
0.523526
 31
0.0
210
0.0
220
0.0
230
1.0
  0
LINE
  5
524
100
AcDbEntity
  8
0
370
     5
390
0
 62
     7
 48
0.000042
100
AcDbLine
 10
8.041057
 20
0.523526
 30
0.0
 11
8.042372
 21
0.524592
 31
0.0
210
0.0
220
0.0
230
1.0
  0
LINE
  5
525
100
AcDbEntity
  8
0
370
     5
390
0
 62
     7
 48
0.000041
100
AcDbLine
 10
8.042372
 20
0.524592
 30
0.0
 11
8.04373
 21
0.525533
 31
0.0
210
0.0
220
0.0
230
1.0
  0
LINE
  5
526
100
AcDbEntity
  8
0
370
     5
390
0
 62
     7
 48
0.000041
100
AcDbLine
 10
8.04373
 20
0.525533
 30
0.0
 11
8.045129
 21
0.526349
 31
0.0
210
0.0
220
0.0
230
1.0
  0
LINE
  5
527
100
AcDbEntity
  8
0
370
     5
390
0
 62
     7
 48
0.00004
100
AcDbLine
 10
8.045129
 20
0.526349
 30
0.0
 11
8.046567
 21
0.527039
 31
0.0
210
0.0
220
0.0
230
1.0
  0
LINE
  5
528
100
AcDbEntity
  8
0
370
     5
390
0
 62
     7
 48
0.00004
100
AcDbLine
 10
8.046567
 20
0.527039
 30
0.0
 11
8.048048
 21
0.527603
 31
0.0
210
0.0
220
0.0
230
1.0
  0
LINE
  5
529
100
AcDbEntity
  8
0
370
     5
390
0
 62
     7
 48
0.00004
100
AcDbLine
 10
8.048048
 20
0.527603
 30
0.0
 11
8.049571
 21
0.528042
 31
0.0
210
0.0
220
0.0
230
1.0
  0
LINE
  5
52A
100
AcDbEntity
  8
0
370
     5
390
0
 62
     7
 48
0.00004
100
AcDbLine
 10
8.049571
 20
0.528042
 30
0.0
 11
8.051134
 21
0.528356
 31
0.0
210
0.0
220
0.0
230
1.0
  0
LINE
  5
52B
100
AcDbEntity
  8
0
370
     5
390
0
 62
     7
 48
0.00004
100
AcDbLine
 10
8.051134
 20
0.528356
 30
0.0
 11
8.052737
 21
0.528543
 31
0.0
210
0.0
220
0.0
230
1.0
  0
LINE
  5
52C
100
AcDbEntity
  8
0
370
     5
390
0
 62
     7
 48
0.000041
100
AcDbLine
 10
8.052737
 20
0.528543
 30
0.0
 11
8.054382
 21
0.528606
 31
0.0
210
0.0
220
0.0
230
1.0
  0
LINE
  5
52D
100
AcDbEntity
  8
0
370
     5
390
0
 62
     7
 48
0.001163
100
AcDbLine
 10
8.054382
 20
0.528606
 30
0.0
 11
8.054382
 21
0.482097
 31
0.0
210
0.0
220
0.0
230
1.0
  0
LINE
  5
52E
100
AcDbEntity
  8
0
370
     5
390
0
 62
     7
 48
0.000564
100
AcDbLine
 10
8.054382
 20
0.482097
 30
0.0
 11
8.036753
 21
0.468038
 31
0.0
210
0.0
220
0.0
230
1.0
  0
LINE
  5
52F
100
AcDbEntity
  8
0
370
     5
390
0
 62
     7
 48
0.001328
100
AcDbLine
 10
8.036753
 20
0.468038
 30
0.0
 11
8.089859
 21
0.468038
 31
0.0
210
0.0
220
0.0
230
1.0
  0
LINE
  5
530
100
AcDbEntity
  8
0
370
     5
390
0
 62
     7
 48
0.000493
100
AcDbLine
 10
8.089859
 20
0.468038
 30
0.0
 11
8.076014
 21
0.482097
 31
0.0
210
0.0
220
0.0
230
1.0
  0
LINE
  5
531
100
AcDbEntity
  8
0
370
     5
390
0
 62
     7
 48
0.001363
100
AcDbLine
 10
8.076014
 20
0.482097
 30
0.0
 11
8.076014
 21
0.53661
 31
0.0
210
0.0
220
0.0
230
1.0
  0
LINE
  5
532
100
AcDbEntity
  8
0
370
     5
390
0
 62
     7
 48
0.000619
100
AcDbLine
 10
8.076014
 20
0.53661
 30
0.0
 11
8.100782
 21
0.53661
 31
0.0
210
0.0
220
0.0
230
1.0
  0
LINE
  5
533
100
AcDbEntity
  8
0
370
     5
390
0
 62
     7
 48
0.000639
100
AcDbLine
 10
8.100782
 20
0.53661
 30
0.0
 11
8.118953
 21
0.518655
 31
0.0
210
0.0
220
0.0
230
1.0
  0
LINE
  5
534
100
AcDbEntity
  8
0
370
     5
390
0
 62
     7
 48
0.001133
100
AcDbLine
 10
8.118953
 20
0.518655
 30
0.0
 11
8.118953
 21
0.563975
 31
0.0
210
0.0
220
0.0
230
1.0
  0
LINE
  5
535
100
AcDbEntity
  8
0
370
     5
390
0
 62
     7
 48
0.000629
100
AcDbLine
 10
8.118953
 20
0.563975
 30
0.0
 11
8.101647
 21
0.545696
 31
0.0
210
0.0
220
0.0
230
1.0
  0
LINE
  5
536
100
AcDbEntity
  8
0
370
     5
390
0
 62
     7
 48
0.000408
100
AcDbLine
 10
8.101647
 20
0.545696
 30
0.0
 11
8.085316
 21
0.545696
 31
0.0
210
0.0
220
0.0
230
1.0
  0
LINE
  5
537
100
AcDbEntity
  8
0
370
     5
390
0
 62
     7
 48
0.001044
100
AcDbLine
 10
8.085316
 20
0.545696
 30
0.0
 11
8.085316
 21
0.587445
 31
0.0
210
0.0
220
0.0
230
1.0
  0
LINE
  5
538
100
AcDbEntity
  8
0
370
     5
390
0
 62
     7
 48
0.000067
100
AcDbLine
 10
8.085316
 20
0.587445
 30
0.0
 11
8.087994
 21
0.58764
 31
0.0
210
0.0
220
0.0
230
1.0
  0
LINE
  5
539
100
AcDbEntity
  8
0
370
     5
390
0
 62
     7
 48
0.000063
100
AcDbLine
 10
8.087994
 20
0.58764
 30
0.0
 11
8.090491
 21
0.587792
 31
0.0
210
0.0
220
0.0
230
1.0
  0
LINE
  5
53A
100
AcDbEntity
  8
0
370
     5
390
0
 62
     7
 48
0.000058
100
AcDbLine
 10
8.090491
 20
0.587792
 30
0.0
 11
8.092805
 21
0.5879
 31
0.0
210
0.0
220
0.0
230
1.0
  0
LINE
  5
53B
100
AcDbEntity
  8
0
370
     5
390
0
 62
     7
 48
0.000053
100
AcDbLine
 10
8.092805
 20
0.5879
 30
0.0
 11
8.094938
 21
0.587964
 31
0.0
210
0.0
220
0.0
230
1.0
  0
LINE
  5
53C
100
AcDbEntity
  8
0
370
     5
390
0
 62
     7
 48
0.000049
100
AcDbLine
 10
8.094938
 20
0.587964
 30
0.0
 11
8.09689
 21
0.587987
 31
0.0
210
0.0
220
0.0
230
1.0
  0
LINE
  5
53D
100
AcDbEntity
  8
0
370
     5
390
0
 62
     7
 48
0.000063
100
AcDbLine
 10
8.09689
 20
0.587987
 30
0.0
 11
8.099417
 21
0.587969
 31
0.0
210
0.0
220
0.0
230
1.0
  0
LINE
  5
53E
100
AcDbEntity
  8
0
370
     5
390
0
 62
     7
 48
0.00006
100
AcDbLine
 10
8.099417
 20
0.587969
 30
0.0
 11
8.101811
 21
0.587915
 31
0.0
210
0.0
220
0.0
230
1.0
  0
LINE
  5
53F
100
AcDbEntity
  8
0
370
     5
390
0
 62
     7
 48
0.000056
100
AcDbLine
 10
8.101811
 20
0.587915
 30
0.0
 11
8.104068
 21
0.587826
 31
0.0
210
0.0
220
0.0
230
1.0
  0
LINE
  5
540
100
AcDbEntity
  8
0
370
     5
390
0
 62
     7
 48
0.000053
100
AcDbLine
 10
8.104068
 20
0.587826
 30
0.0
 11
8.106191
 21
0.5877
 31
0.0
210
0.0
220
0.0
230
1.0
  0
LINE
  5
541
100
AcDbEntity
  8
0
370
     5
390
0
 62
     7
 48
0.00005
100
AcDbLine
 10
8.106191
 20
0.5877
 30
0.0
 11
8.108179
 21
0.58754
 31
0.0
210
0.0
220
0.0
230
1.0
  0
LINE
  5
542
100
AcDbEntity
  8
0
370
     5
390
0
 62
     7
 48
0.000047
100
AcDbLine
 10
8.108179
 20
0.58754
 30
0.0
 11
8.110031
 21
0.587343
 31
0.0
210
0.0
220
0.0
230
1.0
  0
LINE
  5
543
100
AcDbEntity
  8
0
370
     5
390
0
 62
     7
 48
0.000043
100
AcDbLine
 10
8.110031
 20
0.587343
 30
0.0
 11
8.111747
 21
0.587112
 31
0.0
210
0.0
220
0.0
230
1.0
  0
LINE
  5
544
100
AcDbEntity
  8
0
370
     5
390
0
 62
     7
 48
0.00004
100
AcDbLine
 10
8.111747
 20
0.587112
 30
0.0
 11
8.113329
 21
0.586844
 31
0.0
210
0.0
220
0.0
230
1.0
  0
LINE
  5
545
100
AcDbEntity
  8
0
370
     5
390
0
 62
     7
 48
0.000071
100
AcDbLine
 10
8.113329
 20
0.586844
 30
0.0
 11
8.116087
 21
0.586202
 31
0.0
210
0.0
220
0.0
230
1.0
  0
LINE
  5
546
100
AcDbEntity
  8
0
370
     5
390
0
 62
     7
 48
0.000065
100
AcDbLine
 10
8.116087
 20
0.586202
 30
0.0
 11
8.118538
 21
0.585356
 31
0.0
210
0.0
220
0.0
230
1.0
  0
LINE
  5
547
100
AcDbEntity
  8
0
370
     5
390
0
 62
     7
 48
0.000066
100
AcDbLine
 10
8.118538
 20
0.585356
 30
0.0
 11
8.120915
 21
0.584246
 31
0.0
210
0.0
220
0.0
230
1.0
  0
LINE
  5
548
100
AcDbEntity
  8
0
370
     5
390
0
 62
     7
 48
0.000067
100
AcDbLine
 10
8.120915
 20
0.584246
 30
0.0
 11
8.123219
 21
0.582873
 31
0.0
210
0.0
220
0.0
230
1.0
  0
LINE
  5
549
100
AcDbEntity
  8
0
370
     5
390
0
 62
     7
 48
0.000069
100
AcDbLine
 10
8.123219
 20
0.582873
 30
0.0
 11
8.125449
 21
0.581235
 31
0.0
210
0.0
220
0.0
230
1.0
  0
LINE
  5
54A
100
AcDbEntity
  8
0
370
     5
390
0
 62
     7
 48
0.000072
100
AcDbLine
 10
8.125449
 20
0.581235
 30
0.0
 11
8.127607
 21
0.579333
 31
0.0
210
0.0
220
0.0
230
1.0
  0
LINE
  5
54B
100
AcDbEntity
  8
0
370
     5
390
0
 62
     7
 48
0.000063
100
AcDbLine
 10
8.127607
 20
0.579333
 30
0.0
 11
8.126338
 21
0.581511
 31
0.0
210
0.0
220
0.0
230
1.0
  0
LINE
  5
54C
100
AcDbEntity
  8
0
370
     5
390
0
 62
     7
 48
0.000063
100
AcDbLine
 10
8.126338
 20
0.581511
 30
0.0
 11
8.124737
 21
0.583461
 31
0.0
210
0.0
220
0.0
230
1.0
  0
LINE
  5
54D
100
AcDbEntity
  8
0
370
     5
390
0
 62
     7
 48
0.000065
100
AcDbLine
 10
8.124737
 20
0.583461
 30
0.0
 11
8.122807
 21
0.58518
 31
0.0
210
0.0
220
0.0
230
1.0
  0
LINE
  5
54E
100
AcDbEntity
  8
0
370
     5
390
0
 62
     7
 48
0.000068
100
AcDbLine
 10
8.122807
 20
0.58518
 30
0.0
 11
8.120546
 21
0.586671
 31
0.0
210
0.0
220
0.0
230
1.0
  0
LINE
  5
54F
100
AcDbEntity
  8
0
370
     5
390
0
 62
     7
 48
0.000072
100
AcDbLine
 10
8.120546
 20
0.586671
 30
0.0
 11
8.117954
 21
0.587933
 31
0.0
210
0.0
220
0.0
230
1.0
  0
LINE
  5
550
100
AcDbEntity
  8
0
370
     5
390
0
 62
     7
 48
0.000078
100
AcDbLine
 10
8.117954
 20
0.587933
 30
0.0
 11
8.115029
 21
0.588965
 31
0.0
210
0.0
220
0.0
230
1.0
  0
LINE
  5
551
100
AcDbEntity
  8
0
370
     5
390
0
 62
     7
 48
0.000084
100
AcDbLine
 10
8.115029
 20
0.588965
 30
0.0
 11
8.111775
 21
0.589767
 31
0.0
210
0.0
220
0.0
230
1.0
  0
LINE
  5
552
100
AcDbEntity
  8
0
370
     5
390
0
 62
     7
 48
0.000091
100
AcDbLine
 10
8.111775
 20
0.589767
 30
0.0
 11
8.108189
 21
0.59034
 31
0.0
210
0.0
220
0.0
230
1.0
  0
LINE
  5
553
100
AcDbEntity
  8
0
370
     5
390
0
 62
     7
 48
0.000098
100
AcDbLine
 10
8.108189
 20
0.59034
 30
0.0
 11
8.104273
 21
0.590684
 31
0.0
210
0.0
220
0.0
230
1.0
  0
LINE
  5
554
100
AcDbEntity
  8
0
370
     5
390
0
 62
     7
 48
0.000106
100
AcDbLine
 10
8.104273
 20
0.590684
 30
0.0
 11
8.100026
 21
0.590798
 31
0.0
210
0.0
220
0.0
230
1.0
  0
LINE
  5
555
100
AcDbEntity
  8
0
370
     5
390
0
 62
     7
 48
0.000075
100
AcDbLine
 10
8.100026
 20
0.590798
 30
0.0
 11
8.097032
 21
0.590786
 31
0.0
210
0.0
220
0.0
230
1.0
  0
LINE
  5
556
100
AcDbEntity
  8
0
370
     5
390
0
 62
     7
 48
0.000073
100
AcDbLine
 10
8.097032
 20
0.590786
 30
0.0
 11
8.094107
 21
0.590747
 31
0.0
210
0.0
220
0.0
230
1.0
  0
LINE
  5
557
100
AcDbEntity
  8
0
370
     5
390
0
 62
     7
 48
0.000071
100
AcDbLine
 10
8.094107
 20
0.590747
 30
0.0
 11
8.091251
 21
0.590682
 31
0.0
210
0.0
220
0.0
230
1.0
  0
LINE
  5
558
100
AcDbEntity
  8
0
370
     5
390
0
 62
     7
 48
0.00007
100
AcDbLine
 10
8.091251
 20
0.590682
 30
0.0
 11
8.088465
 21
0.590591
 31
0.0
210
0.0
220
0.0
230
1.0
  0
LINE
  5
559
100
AcDbEntity
  8
0
370
     5
390
0
 62
     7
 48
0.000068
100
AcDbLine
 10
8.088465
 20
0.590591
 30
0.0
 11
8.085749
 21
0.590474
 31
0.0
210
0.0
220
0.0
230
1.0
  0
LINE
  5
55A
100
AcDbEntity
  8
0
370
     5
390
0
 62
     7
 48
0.000078
100
AcDbLine
 10
8.085749
 20
0.590474
 30
0.0
 11
8.082612
 21
0.590366
 31
0.0
210
0.0
220
0.0
230
1.0
  0
LINE
  5
55B
100
AcDbEntity
  8
0
370
     5
390
0
 62
     7
 48
0.001117
100
AcDbLine
 10
8.082612
 20
0.590366
 30
0.0
 11
8.082612
 21
0.545696
 31
0.0
210
0.0
220
0.0
230
1.0
  0
LINE
  5
55C
100
AcDbEntity
  8
0
370
     5
390
0
 62
     7
 48
0.000165
100
AcDbLine
 10
8.082612
 20
0.545696
 30
0.0
 11
8.076014
 21
0.545696
 31
0.0
210
0.0
220
0.0
230
1.0
  0
LINE
  5
55D
100
AcDbEntity
  8
0
370
     5
390
0
 62
     7
 48
0.001265
100
AcDbLine
 10
8.076014
 20
0.545696
 30
0.0
 11
8.076014
 21
0.596315
 31
0.0
210
0.0
220
0.0
230
1.0
  0
LINE
  5
55E
100
AcDbEntity
  8
0
370
     5
390
0
 62
     7
 48
0.0001
100
AcDbLine
 10
8.076014
 20
0.596315
 30
0.0
 11
8.080016
 21
0.596207
 31
0.0
210
0.0
220
0.0
230
1.0
  0
LINE
  5
55F
100
AcDbEntity
  8
0
370
     5
390
0
 62
     7
 48
0.000262
100
AcDbLine
 10
8.080016
 20
0.596207
 30
0.0
 11
8.090507
 21
0.596099
 31
0.0
210
0.0
220
0.0
230
1.0
  0
LINE
  5
560
100
AcDbEntity
  8
0
370
     5
390
0
 62
     7
 48
0.000154
100
AcDbLine
 10
8.090507
 20
0.596099
 30
0.0
 11
8.096672
 21
0.596207
 31
0.0
210
0.0
220
0.0
230
1.0
  0
LINE
  5
561
100
AcDbEntity
  8
0
370
     5
390
0
 62
     7
 48
0.00008
100
AcDbLine
 10
8.096672
 20
0.596207
 30
0.0
 11
8.099887
 21
0.596163
 31
0.0
210
0.0
220
0.0
230
1.0
  0
LINE
  5
562
100
AcDbEntity
  8
0
370
     5
390
0
 62
     7
 48
0.000076
100
AcDbLine
 10
8.099887
 20
0.596163
 30
0.0
 11
8.102909
 21
0.596033
 31
0.0
210
0.0
220
0.0
230
1.0
  0
LINE
  5
563
100
AcDbEntity
  8
0
370
     5
390
0
 62
     7
 48
0.000071
100
AcDbLine
 10
8.102909
 20
0.596033
 30
0.0
 11
8.10574
 21
0.595817
 31
0.0
210
0.0
220
0.0
230
1.0
  0
LINE
  5
564
100
AcDbEntity
  8
0
370
     5
390
0
 62
     7
 48
0.000066
100
AcDbLine
 10
8.10574
 20
0.595817
 30
0.0
 11
8.108379
 21
0.595514
 31
0.0
210
0.0
220
0.0
230
1.0
  0
LINE
  5
565
100
AcDbEntity
  8
0
370
     5
390
0
 62
     7
 48
0.000062
100
AcDbLine
 10
8.108379
 20
0.595514
 30
0.0
 11
8.110827
 21
0.595125
 31
0.0
210
0.0
220
0.0
230
1.0
  0
LINE
  5
566
100
AcDbEntity
  8
0
370
     5
390
0
 62
     7
 48
0.000058
100
AcDbLine
 10
8.110827
 20
0.595125
 30
0.0
 11
8.113085
 21
0.594648
 31
0.0
210
0.0
220
0.0
230
1.0
  0
LINE
  5
567
100
AcDbEntity
  8
0
370
     5
390
0
 62
     7
 48
0.000054
100
AcDbLine
 10
8.113085
 20
0.594648
 30
0.0
 11
8.11515
 21
0.594086
 31
0.0
210
0.0
220
0.0
230
1.0
  0
LINE
  5
568
100
AcDbEntity
  8
0
370
     5
390
0
 62
     7
 48
0.00005
100
AcDbLine
 10
8.11515
 20
0.594086
 30
0.0
 11
8.117024
 21
0.593438
 31
0.0
210
0.0
220
0.0
230
1.0
  0
LINE
  5
569
100
AcDbEntity
  8
0
370
     5
390
0
 62
     7
 48
0.000046
100
AcDbLine
 10
8.117024
 20
0.593438
 30
0.0
 11
8.118707
 21
0.592701
 31
0.0
210
0.0
220
0.0
230
1.0
  0
LINE
  5
56A
100
AcDbEntity
  8
0
370
     5
390
0
 62
     7
 48
0.000043
100
AcDbLine
 10
8.118707
 20
0.592701
 30
0.0
 11
8.120198
 21
0.591881
 31
0.0
210
0.0
220
0.0
230
1.0
  0
LINE
  5
56B
100
AcDbEntity
  8
0
370
     5
390
0
 62
     7
 48
0.000043
100
AcDbLine
 10
8.120198
 20
0.591881
 30
0.0
 11
8.121594
 21
0.59091
 31
0.0
210
0.0
220
0.0
230
1.0
  0
LINE
  5
56C
100
AcDbEntity
  8
0
370
     5
390
0
 62
     7
 48
0.000046
100
AcDbLine
 10
8.121594
 20
0.59091
 30
0.0
 11
8.122994
 21
0.589734
 31
0.0
210
0.0
220
0.0
230
1.0
  0
LINE
  5
56D
100
AcDbEntity
  8
0
370
     5
390
0
 62
     7
 48
0.000049
100
AcDbLine
 10
8.122994
 20
0.589734
 30
0.0
 11
8.124398
 21
0.58835
 31
0.0
210
0.0
220
0.0
230
1.0
  0
LINE
  5
56E
100
AcDbEntity
  8
0
370
     5
390
0
 62
     7
 48
0.000053
100
AcDbLine
 10
8.124398
 20
0.58835
 30
0.0
 11
8.125804
 21
0.586758
 31
0.0
210
0.0
220
0.0
230
1.0
  0
LINE
  5
56F
100
AcDbEntity
  8
0
370
     5
390
0
 62
     7
 48
0.000057
100
AcDbLine
 10
8.125804
 20
0.586758
 30
0.0
 11
8.127215
 21
0.584958
 31
0.0
210
0.0
220
0.0
230
1.0
  0
LINE
  5
570
100
AcDbEntity
  8
0
370
     5
390
0
 62
     7
 48
0.000061
100
AcDbLine
 10
8.127215
 20
0.584958
 30
0.0
 11
8.128628
 21
0.582951
 31
0.0
210
0.0
220
0.0
230
1.0
  0
LINE
  5
571
100
AcDbEntity
  8
0
370
     5
390
0
 62
     7
 48
0.000066
100
AcDbLine
 10
8.128628
 20
0.582951
 30
0.0
 11
8.130044
 21
0.580736
 31
0.0
210
0.0
220
0.0
230
1.0
  0
LINE
  5
572
100
AcDbEntity
  8
0
370
     5
390
0
 62
     7
 48
0.00007
100
AcDbLine
 10
8.130044
 20
0.580736
 30
0.0
 11
8.131463
 21
0.578313
 31
0.0
210
0.0
220
0.0
230
1.0
  0
LINE
  5
573
100
AcDbEntity
  8
0
370
     5
390
0
 62
     7
 48
0.000075
100
AcDbLine
 10
8.131463
 20
0.578313
 30
0.0
 11
8.132887
 21
0.575682
 31
0.0
210
0.0
220
0.0
230
1.0
  0
LINE
  5
574
100
AcDbEntity
  8
0
370
     5
390
0
 62
     7
 48
0.000079
100
AcDbLine
 10
8.132887
 20
0.575682
 30
0.0
 11
8.134311
 21
0.572844
 31
0.0
210
0.0
220
0.0
230
1.0
  0
LINE
  5
575
100
AcDbEntity
  8
0
370
     5
390
0
 62
     7
 48
0.000058
100
AcDbLine
 10
8.134311
 20
0.572844
 30
0.0
 11
8.135177
 21
0.575007
 31
0.0
210
0.0
220
0.0
230
1.0
  0
LINE
  5
576
100
AcDbEntity
  8
0
370
     5
390
0
 62
     7
 48
0.000059
100
AcDbLine
 10
8.135177
 20
0.575007
 30
0.0
 11
8.136049
 21
0.577196
 31
0.0
210
0.0
220
0.0
230
1.0
  0
LINE
  5
577
100
AcDbEntity
  8
0
370
     5
390
0
 62
     7
 48
0.000056
100
AcDbLine
 10
8.136049
 20
0.577196
 30
0.0
 11
8.136889
 21
0.57926
 31
0.0
210
0.0
220
0.0
230
1.0
  0
LINE
  5
578
100
AcDbEntity
  8
0
370
     5
390
0
 62
     7
 48
0.000053
100
AcDbLine
 10
8.136889
 20
0.57926
 30
0.0
 11
8.137697
 21
0.581201
 31
0.0
210
0.0
220
0.0
230
1.0
  0
LINE
  5
579
100
AcDbEntity
  8
0
370
     5
390
0
 62
     7
 48
0.000049
100
AcDbLine
 10
8.137697
 20
0.581201
 30
0.0
 11
8.138474
 21
0.583019
 31
0.0
210
0.0
220
0.0
230
1.0
  0
LINE
  5
57A
100
AcDbEntity
  8
0
370
     5
390
0
 62
     7
 48
0.000046
100
AcDbLine
 10
8.138474
 20
0.583019
 30
0.0
 11
8.13922
 21
0.584714
 31
0.0
210
0.0
220
0.0
230
1.0
  0
LINE
  5
57B
100
AcDbEntity
  8
0
370
     5
390
0
 62
     7
 48
0.000043
100
AcDbLine
 10
8.13922
 20
0.584714
 30
0.0
 11
8.139935
 21
0.586286
 31
0.0
210
0.0
220
0.0
230
1.0
  0
LINE
  5
57C
100
AcDbEntity
  8
0
370
     5
390
0
 62
     7
 48
0.00004
100
AcDbLine
 10
8.139935
 20
0.586286
 30
0.0
 11
8.140617
 21
0.587735
 31
0.0
210
0.0
220
0.0
230
1.0
  0
LINE
  5
57D
100
AcDbEntity
  8
0
370
     5
390
0
 62
     7
 48
0.000071
100
AcDbLine
 10
8.140617
 20
0.587735
 30
0.0
 11
8.14189
 21
0.590261
 31
0.0
210
0.0
220
0.0
230
1.0
  0
LINE
  5
57E
100
AcDbEntity
  8
0
370
     5
390
0
 62
     7
 48
0.000061
100
AcDbLine
 10
8.14189
 20
0.590261
 30
0.0
 11
8.143089
 21
0.592394
 31
0.0
210
0.0
220
0.0
230
1.0
  0
LINE
  5
57F
100
AcDbEntity
  8
0
370
     5
390
0
 62
     7
 48
0.000069
100
AcDbLine
 10
8.143089
 20
0.592394
 30
0.0
 11
8.144543
 21
0.594729
 31
0.0
210
0.0
220
0.0
230
1.0
  0
LINE
  5
580
100
AcDbEntity
  8
0
370
     5
390
0
 62
     7
 48
0.000038
100
AcDbLine
 10
8.144543
 20
0.594729
 30
0.0
 11
8.145386
 21
0.596012
 31
0.0
210
0.0
220
0.0
230
1.0
  0
LINE
  5
581
100
AcDbEntity
  8
0
370
     5
390
0
 62
     7
 48
0.000041
100
AcDbLine
 10
8.145386
 20
0.596012
 30
0.0
 11
8.146304
 21
0.597369
 31
0.0
210
0.0
220
0.0
230
1.0
  0
LINE
  5
582
100
AcDbEntity
  8
0
370
     5
390
0
 62
     7
 48
0.000044
100
AcDbLine
 10
8.146304
 20
0.597369
 30
0.0
 11
8.1473
 21
0.598802
 31
0.0
210
0.0
220
0.0
230
1.0
  0
LINE
  5
583
100
AcDbEntity
  8
0
370
     5
390
0
 62
     7
 48
0.000046
100
AcDbLine
 10
8.1473
 20
0.598802
 30
0.0
 11
8.148372
 21
0.600311
 31
0.0
210
0.0
220
0.0
230
1.0
  0
LINE
  5
584
100
AcDbEntity
  8
0
370
     5
390
0
 62
     7
 48
0.000049
100
AcDbLine
 10
8.148372
 20
0.600311
 30
0.0
 11
8.149522
 21
0.601895
 31
0.0
210
0.0
220
0.0
230
1.0
  0
LINE
  5
585
100
AcDbEntity
  8
0
370
     5
390
0
 62
     7
 48
0.000052
100
AcDbLine
 10
8.149522
 20
0.601895
 30
0.0
 11
8.150747
 21
0.603555
 31
0.0
210
0.0
220
0.0
230
1.0
  0
LINE
  5
586
100
AcDbEntity
  8
0
370
     5
390
0
 62
     7
 48
0.000054
100
AcDbLine
 10
8.150747
 20
0.603555
 30
0.0
 11
8.152051
 21
0.605292
 31
0.0
210
0.0
220
0.0
230
1.0
  0
LINE
  5
587
100
AcDbEntity
  8
0
370
     5
390
0
 62
     7
 48
0.002807
100
AcDbLine
 10
8.152051
 20
0.605292
 30
0.0
 11
8.03978
 21
0.605292
 31
0.0
210
0.0
220
0.0
230
1.0
  0
ENDBLK
  5
588
100
AcDbEntity
  8
0
390
0
100
AcDbBlockEnd
  0
BLOCK
  5
589
100
AcDbEntity
  8
0
370
     0
390
0
100
AcDbBlockBegin
  2
BLOCK7
 70
     0
 10
0.0
 20
0.0
 30
0.0
  3
BLOCK7
  1

  0
TEXT
  5
58A
100
AcDbEntity
  8
0
370
    13
390
0
 62
     7
 48
0.03937
100
AcDbText
 10
3.561661
 20
1.428316
 30
0.0
 40
0.259529
  1
4
 72
     5
 11
3.749182
 21
1.428316
 31
0.0
100
AcDbText
  0
TEXT
  5
58B
100
AcDbEntity
  8
0
370
    13
390
0
 62
     7
 48
0.03937
100
AcDbText
 10
3.749182
 20
1.428316
 30
0.0
 40
0.259529
  1
X
 72
     5
 11
4.037589
 21
1.428316
 31
0.0
100
AcDbText
  0
ENDBLK
  5
58C
100
AcDbEntity
  8
0
390
0
100
AcDbBlockEnd
  0
BLOCK
  5
58D
100
AcDbEntity
  8
0
370
     0
390
0
100
AcDbBlockBegin
  2
BLOCK8
 70
     0
 10
0.0
 20
0.0
 30
0.0
  3
BLOCK8
  1

  0
SOLID
  5
58E
100
AcDbEntity
  8
0
370
    13
390
0
 62
     7
 48
0.03937
100
AcDbTrace
 10
-2.020849
 20
-1.99361
 30
0.0
 11
-1.693903
 21
-1.570602
 31
0.0
 12
-2.020849
 22
-1.99361
 32
0.0
 13
-2.140368
 23
-1.864709
 33
0.0
  0
TEXT
  5
58F
100
AcDbEntity
  8
0
370
    13
390
0
 62
     7
 48
0.03937
100
AcDbText
 10
-4.058288
 20
-2.49641
 30
0.0
 40
0.259529
  1
4.62
 72
     5
 11
-3.401965
 21
-2.49641
 31
0.0
100
AcDbText
  0
TEXT
  5
590
100
AcDbEntity
  8
0
370
    13
390
0
 62
     7
 48
0.03937
100
AcDbText
 10
-3.401965
 20
-2.49641
 30
0.0
 40
0.259529
  1
"
 72
     5
 11
-3.211643
 21
-2.49641
 31
0.0
100
AcDbText
  0
TEXT
  5
591
100
AcDbEntity
  8
0
370
    13
390
0
 62
     7
 48
0.03937
100
AcDbText
 10
-4.581499
 20
-2.49641
 30
0.0
 40
0.259529
  1
%%c
 72
     5
 11
-4.32197
 21
-2.49641
 31
0.0
100
AcDbText
  0
LINE
  5
592
100
AcDbEntity
  8
0
370
    13
390
0
 62
     7
 48
0.011206
100
AcDbLine
 10
-2.55244
 20
-2.366646
 30
0.0
 11
-3.000699
 21
-2.366646
 31
0.0
210
0.0
220
0.0
230
1.0
  0
LINE
  5
593
100
AcDbEntity
  8
0
370
    13
390
0
 62
     7
 48
0.016086
100
AcDbLine
 10
-2.080608
 20
-1.929159
 30
0.0
 11
-2.55244
 21
-2.366646
 31
0.0
210
0.0
220
0.0
230
1.0
  0
POLYLINE
  5
594
100
AcDbEntity
  8
0
370
    13
390
0
 62
     7
 48
0.03937
100
AcDb2dPolyline
 66
     1
 10
0.0
 20
0.0
 30
0.0
 70
     1
 71
     3
  0
VERTEX
  5
595
100
AcDbEntity
  8
0
370
     0
390
0
100
AcDbVertex
100
AcDb2dVertex
 10
-2.020849
 20
-1.99361
 30
0.0
  0
VERTEX
  5
596
100
AcDbEntity
  8
0
370
     0
390
0
100
AcDbVertex
100
AcDb2dVertex
 10
-1.693903
 20
-1.570602
 30
0.0
  0
VERTEX
  5
597
100
AcDbEntity
  8
0
370
     0
390
0
100
AcDbVertex
100
AcDb2dVertex
 10
-2.140368
 20
-1.864709
 30
0.0
  0
SEQEND
  5
598
100
AcDbEntity
  8
0
370
     0
390
0
  0
ENDBLK
  5
599
100
AcDbEntity
  8
0
390
0
100
AcDbBlockEnd
  0
BLOCK
  5
59A
100
AcDbEntity
  8
0
370
     0
390
0
100
AcDbBlockBegin
  2
BLOCK9
 70
     0
 10
0.0
 20
0.0
 30
0.0
  3
BLOCK9
  1

  0
SOLID
  5
59B
100
AcDbEntity
  8
0
370
    13
390
0
 62
     7
 48
0.03937
100
AcDbTrace
 10
-1.56183
 20
1.483593
 30
0.0
 11
-1.131535
 21
1.1663
 31
0.0
 12
-1.56183
 22
1.483593
 32
0.0
 13
-1.435665
 23
1.605997
 33
0.0
  0
TEXT
  5
59C
100
AcDbEntity
  8
0
370
    13
390
0
 62
     7
 48
0.03937
100
AcDbText
 10
-5.060642
 20
2.257466
 30
0.0
 40
0.259529
  1
3.25
 72
     5
 11
-4.404318
 21
2.257466
 31
0.0
100
AcDbText
  0
TEXT
  5
59D
100
AcDbEntity
  8
0
370
    13
390
0
 62
     7
 48
0.03937
100
AcDbText
 10
-4.404318
 20
2.257466
 30
0.0
 40
0.259529
  1
"
 72
     5
 11
-4.213997
 21
2.257466
 31
0.0
100
AcDbText
  0
TEXT
  5
59E
100
AcDbEntity
  8
0
370
    13
390
0
 62
     7
 48
0.03937
100
AcDbText
 10
-5.583852
 20
2.257466
 30
0.0
 40
0.259529
  1
%%c
 72
     5
 11
-5.324323
 21
2.257466
 31
0.0
100
AcDbText
  0
TEXT
  5
59F
100
AcDbEntity
  8
0
370
    13
390
0
 62
     7
 48
0.03937
100
AcDbText
 10
-5.583852
 20
1.84222
 30
0.0
 40
0.259529
  1
BOLT CIRCLE
 72
     5
 11
-2.978061
 21
1.84222
 31
0.0
100
AcDbText
  0
LINE
  5
5A0
100
AcDbEntity
  8
0
370
    13
390
0
 62
     7
 48
0.011276
100
AcDbLine
 10
-2.316072
 20
2.38723
 30
0.0
 11
-2.767116
 21
2.38723
 31
0.0
210
0.0
220
0.0
230
1.0
  0
LINE
  5
5A1
100
AcDbEntity
  8
0
370
    13
390
0
 62
     7
 48
0.03937
100
AcDbLine
 10
-1.498747
 20
1.544795
 30
0.0
 11
-2.316072
 21
2.38723
 31
0.0
210
0.0
220
0.0
230
1.0
  0
POLYLINE
  5
5A2
100
AcDbEntity
  8
0
370
    13
390
0
 62
     7
 48
0.03937
100
AcDb2dPolyline
 66
     1
 10
0.0
 20
0.0
 30
0.0
 70
     1
 71
     3
  0
VERTEX
  5
5A3
100
AcDbEntity
  8
0
370
     0
390
0
100
AcDbVertex
100
AcDb2dVertex
 10
-1.56183
 20
1.483593
 30
0.0
  0
VERTEX
  5
5A4
100
AcDbEntity
  8
0
370
     0
390
0
100
AcDbVertex
100
AcDb2dVertex
 10
-1.131535
 20
1.1663
 30
0.0
  0
VERTEX
  5
5A5
100
AcDbEntity
  8
0
370
     0
390
0
100
AcDbVertex
100
AcDb2dVertex
 10
-1.435665
 20
1.605997
 30
0.0
  0
SEQEND
  5
5A6
100
AcDbEntity
  8
0
370
     0
390
0
  0
ENDBLK
  5
5A7
100
AcDbEntity
  8
0
390
0
100
AcDbBlockEnd
  0
BLOCK
  5
5A8
100
AcDbEntity
  8
0
370
     0
390
0
100
AcDbBlockBegin
  2
BLOCK10
 70
     0
 10
0.0
 20
0.0
 30
0.0
  3
BLOCK10
  1

  0
SOLID
  5
5A9
100
AcDbEntity
  8
0
370
    13
390
0
 62
     7
 48
0.03937
100
AcDbTrace
 10
2.282848
 20
0.623864
 30
0.0
 11
1.920834
 21
0.23045
 31
0.0
 12
2.282848
 22
0.623864
 32
0.0
 13
2.390874
 23
0.485189
 33
0.0
  0
TEXT
  5
5AA
100
AcDbEntity
  8
0
370
    13
390
0
 62
     7
 48
0.03937
100
AcDbText
 10
4.093273
 20
0.871895
 30
0.0
 40
0.259529
  1
0.75
 72
     5
 11
4.749596
 21
0.871895
 31
0.0
100
AcDbText
  0
TEXT
  5
5AB
100
AcDbEntity
  8
0
370
    13
390
0
 62
     7
 48
0.03937
100
AcDbText
 10
4.749596
 20
0.871895
 30
0.0
 40
0.259529
  1
"
 72
     5
 11
4.939918
 21
0.871895
 31
0.0
100
AcDbText
  0
TEXT
  5
5AC
100
AcDbEntity
  8
0
370
    13
390
0
 62
     7
 48
0.03937
100
AcDbText
 10
3.570062
 20
0.871895
 30
0.0
 40
0.259529
  1
%%c
 72
     5
 11
3.829591
 21
0.871895
 31
0.0
100
AcDbText
  0
LINE
  5
5AD
100
AcDbEntity
  8
0
370
    13
390
0
 62
     7
 48
0.011206
100
AcDbLine
 10
2.910859
 20
1.00166
 30
0.0
 11
3.359117
 21
1.00166
 31
0.0
210
0.0
220
0.0
230
1.0
  0
LINE
  5
5AE
100
AcDbEntity
  8
0
370
    13
390
0
 62
     7
 48
0.01819
100
AcDbLine
 10
2.336861
 20
0.554526
 30
0.0
 11
2.910859
 21
1.00166
 31
0.0
210
0.0
220
0.0
230
1.0
  0
POLYLINE
  5
5AF
100
AcDbEntity
  8
0
370
    13
390
0
 62
     7
 48
0.03937
100
AcDb2dPolyline
 66
     1
 10
0.0
 20
0.0
 30
0.0
 70
     1
 71
     3
  0
VERTEX
  5
5B0
100
AcDbEntity
  8
0
370
     0
390
0
100
AcDbVertex
100
AcDb2dVertex
 10
2.282848
 20
0.623864
 30
0.0
  0
VERTEX
  5
5B1
100
AcDbEntity
  8
0
370
     0
390
0
100
AcDbVertex
100
AcDb2dVertex
 10
1.920834
 20
0.23045
 30
0.0
  0
VERTEX
  5
5B2
100
AcDbEntity
  8
0
370
     0
390
0
100
AcDbVertex
100
AcDb2dVertex
 10
2.390874
 20
0.485189
 30
0.0
  0
SEQEND
  5
5B3
100
AcDbEntity
  8
0
370
     0
390
0
  0
ENDBLK
  5
5B4
100
AcDbEntity
  8
0
390
0
100
AcDbBlockEnd
  0
BLOCK
  5
5B5
100
AcDbEntity
  8
0
370
     0
390
0
100
AcDbBlockBegin
  2
BLOCK11
 70
     0
 10
0.0
 20
0.0
 30
0.0
  3
BLOCK11
  1

  0
LINE
  5
5B6
100
AcDbEntity
  8
0
370
    13
390
0
  6
DASHDOT
 62
     7
 48
0.03937
100
AcDbLine
 10
0.0
 20
3.068404
 30
0.0
 11
0.0
 21
0.181596
 31
0.0
210
0.0
220
0.0
230
1.0
  0
ARC
  5
5B7
100
AcDbEntity
  8
0
370
    13
390
0
  6
DASHDOT
 62
     7
 48
0.03937
100
AcDbCircle
 10
0.0
 20
0.0
 30
0.0
 40
1.625
210
0.0
220
0.0
230
1.0
100
AcDbArc
 50
39.107116
 51
140.892883
  0
ENDBLK
  5
5B8
100
AcDbEntity
  8
0
390
0
100
AcDbBlockEnd
  0
BLOCK
  5
5B9
100
AcDbEntity
  8
0
370
     0
390
0
100
AcDbBlockBegin
  2
BLOCK12
 70
     0
 10
0.0
 20
0.0
 30
0.0
  3
BLOCK12
  1

  0
LINE
  5
5BA
100
AcDbEntity
  8
0
370
    13
390
0
  6
DASHDOT
 62
     7
 48
0.03937
100
AcDbLine
 10
-3.057482
 20
0.0
 30
0.0
 11
-0.192518
 21
0.0
 31
0.0
210
0.0
220
0.0
230
1.0
  0
ARC
  5
5BB
100
AcDbEntity
  8
0
370
    13
390
0
  6
DASHDOT
 62
     7
 48
0.03937
100
AcDbCircle
 10
0.0
 20
0.0
 30
0.0
 40
1.625
210
0.0
220
0.0
230
1.0
100
AcDbArc
 50
129.492204
 51
230.507796
  0
ENDBLK
  5
5BC
100
AcDbEntity
  8
0
390
0
100
AcDbBlockEnd
  0
BLOCK
  5
5BD
100
AcDbEntity
  8
0
370
     0
390
0
100
AcDbBlockBegin
  2
BLOCK13
 70
     0
 10
0.0
 20
0.0
 30
0.0
  3
BLOCK13
  1

  0
LINE
  5
5BE
100
AcDbEntity
  8
0
370
    13
390
0
  6
DASHDOT
 62
     7
 48
0.03937
100
AcDbLine
 10
0.0
 20
-3.122256
 30
0.0
 11
0.0
 21
-0.127744
 31
0.0
210
0.0
220
0.0
230
1.0
  0
ARC
  5
5BF
100
AcDbEntity
  8
0
370
    13
390
0
  6
DASHDOT
 62
     7
 48
0.03937
100
AcDbCircle
 10
0.0
 20
0.0
 30
0.0
 40
1.625
210
0.0
220
0.0
230
1.0
100
AcDbArc
 50
217.208338
 51
322.791653
  0
ENDBLK
  5
5C0
100
AcDbEntity
  8
0
390
0
100
AcDbBlockEnd
  0
BLOCK
  5
5C1
100
AcDbEntity
  8
0
370
     0
390
0
100
AcDbBlockBegin
  2
BLOCK14
 70
     0
 10
0.0
 20
0.0
 30
0.0
  3
BLOCK14
  1

  0
LINE
  5
5C2
100
AcDbEntity
  8
0
370
    13
390
0
  6
DASHDOT
 62
     7
 48
0.03937
100
AcDbLine
 10
3.035766
 20
0.0
 30
0.0
 11
0.214234
 21
0.0
 31
0.0
210
0.0
220
0.0
230
1.0
  0
ARC
  5
5C3
100
AcDbEntity
  8
0
370
    13
390
0
  6
DASHDOT
 62
     7
 48
0.03937
100
AcDbCircle
 10
0.0
 20
0.0
 30
0.0
 40
1.625
210
0.0
220
0.0
230
1.0
100
AcDbArc
 50
310.257874
 51
49.742123
  0
ENDBLK
  5
5C4
100
AcDbEntity
  8
0
390
0
100
AcDbBlockEnd
  0
BLOCK
  5
5C5
100
AcDbEntity
  8
0
370
     0
390
0
100
AcDbBlockBegin
  2
BLOCK15
 70
     0
 10
0.0
 20
0.0
 30
0.0
  3
BLOCK15
  1

  0
TEXT
  5
5C6
100
AcDbEntity
  8
0
370
    13
390
0
 62
     7
 48
0.03937
100
AcDbText
 10
-5.193216
 20
-1.586603
 30
0.0
 40
0.259529
  1
GROOVE #
 72
     5
 11
-3.062603
 21
-1.586603
 31
0.0
100
AcDbText
  0
TEXT
  5
5C7
100
AcDbEntity
  8
0
370
    13
390
0
 62
     7
 48
0.03937
100
AcDbText
 10
-3.062603
 20
-1.586603
 30
0.0
 40
0.259529
  1
 R13
 72
     5
 11
-2.305393
 21
-1.586603
 31
0.0
100
AcDbText
  0
POLYLINE
  5
5C8
100
AcDbEntity
  8
0
370
    13
390
0
 62
     7
 48
0.03937
100
AcDb2dPolyline
 66
     1
 10
0.0
 20
0.0
 30
0.0
 71
     3
  0
VERTEX
  5
5C9
100
AcDbEntity
  8
0
370
     0
390
0
100
AcDbVertex
100
AcDb2dVertex
 10
-0.88493
 20
0.0
 30
0.0
  0
VERTEX
  5
5CA
100
AcDbEntity
  8
0
370
     0
390
0
100
AcDbVertex
100
AcDb2dVertex
 10
-1.90092
 20
-1.454026
 30
0.0
  0
VERTEX
  5
5CB
100
AcDbEntity
  8
0
370
     0
390
0
100
AcDbVertex
100
AcDb2dVertex
 10
-2.09777
 20
-1.454026
 30
0.0
  0
SEQEND
  5
5CC
100
AcDbEntity
  8
0
370
     0
390
0
  0
SOLID
  5
5CD
100
AcDbEntity
  8
0
370
    13
390
0
 62
     7
 48
0.03937
100
AcDbTrace
 10
-1.114937
 20
-0.482624
 30
0.0
 11
-0.88493
 21
0.0
 31
0.0
 12
-1.259031
 22
-0.38194
 32
0.0
 13
-1.259031
 23
-0.38194
 33
0.0
  0
ENDBLK
  5
5CE
100
AcDbEntity
  8
0
390
0
100
AcDbBlockEnd
  0
BLOCK
  5
5CF
100
AcDbEntity
  8
0
370
     0
390
0
100
AcDbBlockBegin
  2
BLOCK16
 70
     0
 10
0.0
 20
0.0
 30
0.0
  3
BLOCK16
  1

  0
SOLID
  5
5D0
100
AcDbEntity
  8
0
370
    13
390
0
 62
     7
 48
0.03937
100
AcDbTrace
 10
6.359832
 20
-1.084856
 30
0.0
 11
6.27194
 21
-0.5575
 31
0.0
 12
6.359832
 22
-1.084856
 32
0.0
 13
6.184047
 23
-1.084856
 33
0.0
  0
SOLID
  5
5D1
100
AcDbEntity
  8
0
370
    13
390
0
 62
     7
 48
0.03937
100
AcDbTrace
 10
6.184047
 20
0.527356
 30
0.0
 11
6.27194
 21
0.0
 31
0.0
 12
6.184047
 22
0.527356
 32
0.0
 13
6.359832
 23
0.527356
 33
0.0
  0
TEXT
  5
5D2
100
AcDbEntity
  8
0
370
    13
390
0
 62
     7
 48
0.03937
100
AcDbText
 10
5.848617
 20
-0.408515
 30
0.0
 40
0.259529
  1
0.56
 72
     5
 11
6.504941
 21
-0.408515
 31
0.0
100
AcDbText
  0
TEXT
  5
5D3
100
AcDbEntity
  8
0
370
    13
390
0
 62
     7
 48
0.03937
100
AcDbText
 10
6.50494
 20
-0.408515
 30
0.0
 40
0.259529
  1
"
 72
     5
 11
6.695262
 21
-0.408515
 31
0.0
100
AcDbText
  0
LINE
  5
5D4
100
AcDbEntity
  8
0
370
    13
390
0
 62
     7
 48
0.03937
100
AcDbLine
 10
2.517623
 20
-0.5575
 30
0.0
 11
6.479562
 21
-0.5575
 31
0.0
210
0.0
220
0.0
230
1.0
  0
LINE
  5
5D5
100
AcDbEntity
  8
0
370
    13
390
0
 62
     7
 48
0.03937
100
AcDbLine
 10
2.517623
 20
0.0
 30
0.0
 11
6.479562
 21
0.0
 31
0.0
210
0.0
220
0.0
230
1.0
  0
LINE
  5
5D6
100
AcDbEntity
  8
0
370
    13
390
0
 62
     7
 48
0.007578
100
AcDbLine
 10
6.27194
 20
-1.387993
 30
0.0
 11
6.27194
 21
-1.084856
 31
0.0
210
0.0
220
0.0
230
1.0
  0
LINE
  5
5D7
100
AcDbEntity
  8
0
370
    13
390
0
 62
     7
 48
0.007578
100
AcDbLine
 10
6.27194
 20
0.527356
 30
0.0
 11
6.27194
 21
0.830493
 31
0.0
210
0.0
220
0.0
230
1.0
  0
POLYLINE
  5
5D8
100
AcDbEntity
  8
0
370
    13
390
0
 62
     7
 48
0.03937
100
AcDb2dPolyline
 66
     1
 10
0.0
 20
0.0
 30
0.0
 70
     1
 71
     3
  0
VERTEX
  5
5D9
100
AcDbEntity
  8
0
370
     0
390
0
100
AcDbVertex
100
AcDb2dVertex
 10
6.359832
 20
-1.084856
 30
0.0
  0
VERTEX
  5
5DA
100
AcDbEntity
  8
0
370
     0
390
0
100
AcDbVertex
100
AcDb2dVertex
 10
6.27194
 20
-0.5575
 30
0.0
  0
VERTEX
  5
5DB
100
AcDbEntity
  8
0
370
     0
390
0
100
AcDbVertex
100
AcDb2dVertex
 10
6.184047
 20
-1.084856
 30
0.0
  0
SEQEND
  5
5DC
100
AcDbEntity
  8
0
370
     0
390
0
  0
POLYLINE
  5
5DD
100
AcDbEntity
  8
0
370
    13
390
0
 62
     7
 48
0.03937
100
AcDb2dPolyline
 66
     1
 10
0.0
 20
0.0
 30
0.0
 70
     1
 71
     3
  0
VERTEX
  5
5DE
100
AcDbEntity
  8
0
370
     0
390
0
100
AcDbVertex
100
AcDb2dVertex
 10
6.184047
 20
0.527356
 30
0.0
  0
VERTEX
  5
5DF
100
AcDbEntity
  8
0
370
     0
390
0
100
AcDbVertex
100
AcDb2dVertex
 10
6.27194
 20
0.0
 30
0.0
  0
VERTEX
  5
5E0
100
AcDbEntity
  8
0
370
     0
390
0
100
AcDbVertex
100
AcDb2dVertex
 10
6.359832
 20
0.527356
 30
0.0
  0
SEQEND
  5
5E1
100
AcDbEntity
  8
0
370
     0
390
0
  0
ENDBLK
  5
5E2
100
AcDbEntity
  8
0
390
0
100
AcDbBlockEnd
  0
BLOCK
  5
5E3
100
AcDbEntity
  8
0
370
     0
390
0
100
AcDbBlockBegin
  2
BLOCK17
 70
     0
 10
0.0
 20
0.0
 30
0.0
  3
BLOCK17
  1

  0
SOLID
  5
5E4
100
AcDbEntity
  8
0
370
    13
390
0
 62
     7
 48
0.03937
100
AcDbTrace
 10
7.70317
 20
-0.277356
 30
0.0
 11
7.615278
 21
0.25
 31
0.0
 12
7.70317
 22
-0.277356
 32
0.0
 13
7.527385
 23
-0.277356
 33
0.0
  0
SOLID
  5
5E5
100
AcDbEntity
  8
0
370
    13
390
0
 62
     7
 48
0.03937
100
AcDbTrace
 10
7.527385
 20
-8.410145
 30
0.0
 11
7.615278
 21
-8.9375
 31
0.0
 12
7.527385
 22
-8.410145
 32
0.0
 13
7.70317
 23
-8.410145
 33
0.0
  0
TEXT
  5
5E6
100
AcDbEntity
  8
0
370
    13
390
0
 62
     7
 48
0.03937
100
AcDbText
 10
7.191955
 20
-4.473515
 30
0.0
 40
0.259529
  1
9.19
 72
     5
 11
7.848279
 21
-4.473515
 31
0.0
100
AcDbText
  0
TEXT
  5
5E7
100
AcDbEntity
  8
0
370
    13
390
0
 62
     7
 48
0.03937
100
AcDbText
 10
7.848278
 20
-4.473515
 30
0.0
 40
0.259529
  1
"
 72
     5
 11
8.0386
 21
-4.473515
 31
0.0
100
AcDbText
  0
LINE
  5
5E8
100
AcDbEntity
  8
0
370
    13
390
0
 62
     7
 48
0.03937
100
AcDbLine
 10
2.517623
 20
-8.9375
 30
0.0
 11
7.822901
 21
-8.9375
 31
0.0
210
0.0
220
0.0
230
1.0
  0
LINE
  5
5E9
100
AcDbEntity
  8
0
370
    13
390
0
 62
     7
 48
0.03937
100
AcDbLine
 10
1.457623
 20
0.25
 30
0.0
 11
7.822901
 21
0.25
 31
0.0
210
0.0
220
0.0
230
1.0
  0
LINE
  5
5EA
100
AcDbEntity
  8
0
370
    13
390
0
 62
     7
 48
0.03937
100
AcDbLine
 10
7.615278
 20
-8.410145
 30
0.0
 11
7.615278
 21
-4.68446
 31
0.0
210
0.0
220
0.0
230
1.0
  0
LINE
  5
5EB
100
AcDbEntity
  8
0
370
    13
390
0
 62
     7
 48
0.03937
100
AcDbLine
 10
7.615278
 20
-4.00304
 30
0.0
 11
7.615278
 21
-0.277356
 31
0.0
210
0.0
220
0.0
230
1.0
  0
POLYLINE
  5
5EC
100
AcDbEntity
  8
0
370
    13
390
0
 62
     7
 48
0.03937
100
AcDb2dPolyline
 66
     1
 10
0.0
 20
0.0
 30
0.0
 70
     1
 71
     3
  0
VERTEX
  5
5ED
100
AcDbEntity
  8
0
370
     0
390
0
100
AcDbVertex
100
AcDb2dVertex
 10
7.70317
 20
-0.277356
 30
0.0
  0
VERTEX
  5
5EE
100
AcDbEntity
  8
0
370
     0
390
0
100
AcDbVertex
100
AcDb2dVertex
 10
7.615278
 20
0.25
 30
0.0
  0
VERTEX
  5
5EF
100
AcDbEntity
  8
0
370
     0
390
0
100
AcDbVertex
100
AcDb2dVertex
 10
7.527385
 20
-0.277356
 30
0.0
  0
SEQEND
  5
5F0
100
AcDbEntity
  8
0
370
     0
390
0
  0
POLYLINE
  5
5F1
100
AcDbEntity
  8
0
370
    13
390
0
 62
     7
 48
0.03937
100
AcDb2dPolyline
 66
     1
 10
0.0
 20
0.0
 30
0.0
 70
     1
 71
     3
  0
VERTEX
  5
5F2
100
AcDbEntity
  8
0
370
     0
390
0
100
AcDbVertex
100
AcDb2dVertex
 10
7.527385
 20
-8.410145
 30
0.0
  0
VERTEX
  5
5F3
100
AcDbEntity
  8
0
370
     0
390
0
100
AcDbVertex
100
AcDb2dVertex
 10
7.615278
 20
-8.9375
 30
0.0
  0
VERTEX
  5
5F4
100
AcDbEntity
  8
0
370
     0
390
0
100
AcDbVertex
100
AcDb2dVertex
 10
7.70317
 20
-8.410145
 30
0.0
  0
SEQEND
  5
5F5
100
AcDbEntity
  8
0
370
     0
390
0
  0
ENDBLK
  5
5F6
100
AcDbEntity
  8
0
390
0
100
AcDbBlockEnd
  0
BLOCK
  5
5F7
100
AcDbEntity
  8
0
370
     0
390
0
100
AcDbBlockBegin
  2
BLOCK18
 70
     0
 10
0.0
 20
0.0
 30
0.0
  3
BLOCK18
  1

  0
SOLID
  5
5F8
100
AcDbEntity
  8
0
370
    13
390
0
 62
     7
 48
0.03937
100
AcDbTrace
 10
5.330891
 20
-0.527356
 30
0.0
 11
5.242999
 21
0.0
 31
0.0
 12
5.330891
 22
-0.527356
 32
0.0
 13
5.155106
 23
-0.527356
 33
0.0
  0
SOLID
  5
5F9
100
AcDbEntity
  8
0
370
    13
390
0
 62
     7
 48
0.03937
100
AcDbTrace
 10
5.155106
 20
0.777356
 30
0.0
 11
5.242999
 21
0.25
 31
0.0
 12
5.155106
 22
0.777356
 32
0.0
 13
5.330891
 23
0.777356
 33
0.0
  0
TEXT
  5
5FA
100
AcDbEntity
  8
0
370
    13
390
0
 62
     7
 48
0.03937
100
AcDbText
 10
5.902202
 20
1.316017
 30
0.0
 40
0.259529
  1
0.25
 72
     5
 11
6.558526
 21
1.316017
 31
0.0
100
AcDbText
  0
TEXT
  5
5FB
100
AcDbEntity
  8
0
370
    13
390
0
 62
     7
 48
0.03937
100
AcDbText
 10
6.558525
 20
1.316017
 30
0.0
 40
0.259529
  1
"
 72
     5
 11
6.748846
 21
1.316017
 31
0.0
100
AcDbText
  0
LINE
  5
5FC
100
AcDbEntity
  8
0
370
    13
390
0
 62
     7
 48
0.011206
100
AcDbLine
 10
5.242999
 20
1.445782
 30
0.0
 11
5.691257
 21
1.445782
 31
0.0
210
0.0
220
0.0
230
1.0
  0
LINE
  5
5FD
100
AcDbEntity
  8
0
370
    13
390
0
 62
     7
 48
0.03937
100
AcDbLine
 10
2.517623
 20
0.0
 30
0.0
 11
5.450621
 21
0.0
 31
0.0
210
0.0
220
0.0
230
1.0
  0
LINE
  5
5FE
100
AcDbEntity
  8
0
370
    13
390
0
 62
     7
 48
0.03937
100
AcDbLine
 10
1.457623
 20
0.25
 30
0.0
 11
5.450621
 21
0.25
 31
0.0
210
0.0
220
0.0
230
1.0
  0
LINE
  5
5FF
100
AcDbEntity
  8
0
370
    13
390
0
 62
     7
 48
0.007578
100
AcDbLine
 10
5.242999
 20
-0.830493
 30
0.0
 11
5.242999
 21
-0.527356
 31
0.0
210
0.0
220
0.0
230
1.0
  0
LINE
  5
600
100
AcDbEntity
  8
0
370
    13
390
0
 62
     7
 48
0.016711
100
AcDbLine
 10
5.242999
 20
0.777356
 30
0.0
 11
5.242999
 21
1.445782
 31
0.0
210
0.0
220
0.0
230
1.0
  0
POLYLINE
  5
601
100
AcDbEntity
  8
0
370
    13
390
0
 62
     7
 48
0.03937
100
AcDb2dPolyline
 66
     1
 10
0.0
 20
0.0
 30
0.0
 70
     1
 71
     3
  0
VERTEX
  5
602
100
AcDbEntity
  8
0
370
     0
390
0
100
AcDbVertex
100
AcDb2dVertex
 10
5.330891
 20
-0.527356
 30
0.0
  0
VERTEX
  5
603
100
AcDbEntity
  8
0
370
     0
390
0
100
AcDbVertex
100
AcDb2dVertex
 10
5.242999
 20
0.0
 30
0.0
  0
VERTEX
  5
604
100
AcDbEntity
  8
0
370
     0
390
0
100
AcDbVertex
100
AcDb2dVertex
 10
5.155106
 20
-0.527356
 30
0.0
  0
SEQEND
  5
605
100
AcDbEntity
  8
0
370
     0
390
0
  0
POLYLINE
  5
606
100
AcDbEntity
  8
0
370
    13
390
0
 62
     7
 48
0.03937
100
AcDb2dPolyline
 66
     1
 10
0.0
 20
0.0
 30
0.0
 70
     1
 71
     3
  0
VERTEX
  5
607
100
AcDbEntity
  8
0
370
     0
390
0
100
AcDbVertex
100
AcDb2dVertex
 10
5.155106
 20
0.777356
 30
0.0
  0
VERTEX
  5
608
100
AcDbEntity
  8
0
370
     0
390
0
100
AcDbVertex
100
AcDb2dVertex
 10
5.242999
 20
0.25
 30
0.0
  0
VERTEX
  5
609
100
AcDbEntity
  8
0
370
     0
390
0
100
AcDbVertex
100
AcDb2dVertex
 10
5.330891
 20
0.777356
 30
0.0
  0
SEQEND
  5
60A
100
AcDbEntity
  8
0
370
     0
390
0
  0
ENDBLK
  5
60B
100
AcDbEntity
  8
0
390
0
100
AcDbBlockEnd
  0
BLOCK
  5
60C
100
AcDbEntity
  8
0
370
     0
390
0
100
AcDbBlockBegin
  2
BLOCK19
 70
     0
 10
0.0
 20
0.0
 30
0.0
  3
BLOCK19
  1

  0
SOLID
  5
60D
100
AcDbEntity
  8
0
370
    13
390
0
 62
     7
 48
0.03937
100
AcDbTrace
 10
1.782645
 20
-10.645868
 30
0.0
 11
2.31
 21
-10.557975
 31
0.0
 12
1.782645
 22
-10.645868
 32
0.0
 13
1.782645
 23
-10.470084
 33
0.0
  0
SOLID
  5
60E
100
AcDbEntity
  8
0
370
    13
390
0
 62
     7
 48
0.03937
100
AcDbTrace
 10
-1.782645
 20
-10.470084
 30
0.0
 11
-2.31
 21
-10.557975
 31
0.0
 12
-1.782645
 22
-10.470084
 32
0.0
 13
-1.782645
 23
-10.645868
 33
0.0
  0
TEXT
  5
60F
100
AcDbEntity
  8
0
370
    13
390
0
 62
     7
 48
0.03937
100
AcDbText
 10
-0.161717
 20
-10.68774
 30
0.0
 40
0.259529
  1
4.62
 72
     5
 11
0.494606
 21
-10.68774
 31
0.0
100
AcDbText
  0
TEXT
  5
610
100
AcDbEntity
  8
0
370
    13
390
0
 62
     7
 48
0.03937
100
AcDbText
 10
0.494606
 20
-10.68774
 30
0.0
 40
0.259529
  1
"
 72
     5
 11
0.684928
 21
-10.68774
 31
0.0
100
AcDbText
  0
TEXT
  5
611
100
AcDbEntity
  8
0
370
    13
390
0
 62
     7
 48
0.03937
100
AcDbText
 10
-0.684927
 20
-10.68774
 30
0.0
 40
0.259529
  1
%%c
 72
     5
 11
-0.425399
 21
-10.68774
 31
0.0
100
AcDbText
  0
LINE
  5
612
100
AcDbEntity
  8
0
370
    13
390
0
 62
     7
 48
0.009419
100
AcDbLine
 10
-2.31
 20
-9.145123
 30
0.0
 11
-2.31
 21
-9.521878
 31
0.0
210
0.0
220
0.0
230
1.0
  0
LINE
  5
613
100
AcDbEntity
  8
0
370
    13
390
0
 62
     7
 48
0.013956
100
AcDbLine
 10
-2.31
 20
-10.207357
 30
0.0
 11
-2.31
 21
-10.765598
 31
0.0
210
0.0
220
0.0
230
1.0
  0
LINE
  5
614
100
AcDbEntity
  8
0
370
    13
390
0
 62
     7
 48
0.03937
100
AcDbLine
 10
2.31
 20
-9.145123
 30
0.0
 11
2.31
 21
-10.765598
 31
0.0
210
0.0
220
0.0
230
1.0
  0
LINE
  5
615
100
AcDbEntity
  8
0
370
    13
390
0
 62
     7
 48
0.03937
100
AcDbLine
 10
-1.782645
 20
-10.557975
 30
0.0
 11
-0.895873
 21
-10.557975
 31
0.0
210
0.0
220
0.0
230
1.0
  0
LINE
  5
616
100
AcDbEntity
  8
0
370
    13
390
0
 62
     7
 48
0.03937
100
AcDbLine
 10
0.895873
 20
-10.557975
 30
0.0
 11
1.782645
 21
-10.557975
 31
0.0
210
0.0
220
0.0
230
1.0
  0
POLYLINE
  5
617
100
AcDbEntity
  8
0
370
    13
390
0
 62
     7
 48
0.03937
100
AcDb2dPolyline
 66
     1
 10
0.0
 20
0.0
 30
0.0
 70
     1
 71
     3
  0
VERTEX
  5
618
100
AcDbEntity
  8
0
370
     0
390
0
100
AcDbVertex
100
AcDb2dVertex
 10
1.782645
 20
-10.645868
 30
0.0
  0
VERTEX
  5
619
100
AcDbEntity
  8
0
370
     0
390
0
100
AcDbVertex
100
AcDb2dVertex
 10
2.31
 20
-10.557975
 30
0.0
  0
VERTEX
  5
61A
100
AcDbEntity
  8
0
370
     0
390
0
100
AcDbVertex
100
AcDb2dVertex
 10
1.782645
 20
-10.470084
 30
0.0
  0
SEQEND
  5
61B
100
AcDbEntity
  8
0
370
     0
390
0
  0
POLYLINE
  5
61C
100
AcDbEntity
  8
0
370
    13
390
0
 62
     7
 48
0.03937
100
AcDb2dPolyline
 66
     1
 10
0.0
 20
0.0
 30
0.0
 70
     1
 71
     3
  0
VERTEX
  5
61D
100
AcDbEntity
  8
0
370
     0
390
0
100
AcDbVertex
100
AcDb2dVertex
 10
-1.782645
 20
-10.470084
 30
0.0
  0
VERTEX
  5
61E
100
AcDbEntity
  8
0
370
     0
390
0
100
AcDbVertex
100
AcDb2dVertex
 10
-2.31
 20
-10.557975
 30
0.0
  0
VERTEX
  5
61F
100
AcDbEntity
  8
0
370
     0
390
0
100
AcDbVertex
100
AcDb2dVertex
 10
-1.782645
 20
-10.645868
 30
0.0
  0
SEQEND
  5
620
100
AcDbEntity
  8
0
370
     0
390
0
  0
ENDBLK
  5
621
100
AcDbEntity
  8
0
390
0
100
AcDbBlockEnd
  0
BLOCK
  5
622
100
AcDbEntity
  8
0
370
     0
390
0
100
AcDbBlockBegin
  2
BLOCK20
 70
     0
 10
0.0
 20
0.0
 30
0.0
  3
BLOCK20
  1

  0
SOLID
  5
623
100
AcDbEntity
  8
0
370
    13
390
0
 62
     7
 48
0.03937
100
AcDbTrace
 10
-0.412644
 20
-1.065433
 30
0.0
 11
-0.94
 21
-1.153325
 31
0.0
 12
-0.412644
 22
-1.065433
 32
0.0
 13
-0.412644
 23
-1.241217
 33
0.0
  0
SOLID
  5
624
100
AcDbEntity
  8
0
370
    13
390
0
 62
     7
 48
0.03937
100
AcDbTrace
 10
0.412644
 20
-1.241217
 30
0.0
 11
0.94
 21
-1.153325
 31
0.0
 12
0.412644
 22
-1.241217
 32
0.0
 13
0.412644
 23
-1.065433
 33
0.0
  0
TEXT
  5
625
100
AcDbEntity
  8
0
370
    13
390
0
 62
     7
 48
0.03937
100
AcDbText
 10
1.647111
 20
-1.283089
 30
0.0
 40
0.259529
  1
1.88
 72
     5
 11
2.303434
 21
-1.283089
 31
0.0
100
AcDbText
  0
TEXT
  5
626
100
AcDbEntity
  8
0
370
    13
390
0
 62
     7
 48
0.03937
100
AcDbText
 10
2.303434
 20
-1.283089
 30
0.0
 40
0.259529
  1
"
 72
     5
 11
2.493755
 21
-1.283089
 31
0.0
100
AcDbText
  0
LINE
  5
627
100
AcDbEntity
  8
0
370
    13
390
0
 62
     7
 48
0.03937
100
AcDbLine
 10
-0.412644
 20
-1.153325
 30
0.0
 11
0.412644
 21
-1.153325
 31
0.0
210
0.0
220
0.0
230
1.0
  0
LINE
  5
628
100
AcDbEntity
  8
0
370
    13
390
0
 62
     7
 48
0.012404
100
AcDbLine
 10
0.94
 20
-1.153325
 30
0.0
 11
1.436166
 21
-1.153325
 31
0.0
210
0.0
220
0.0
230
1.0
  0
POLYLINE
  5
629
100
AcDbEntity
  8
0
370
    13
390
0
 62
     7
 48
0.03937
100
AcDb2dPolyline
 66
     1
 10
0.0
 20
0.0
 30
0.0
 70
     1
 71
     3
  0
VERTEX
  5
62A
100
AcDbEntity
  8
0
370
     0
390
0
100
AcDbVertex
100
AcDb2dVertex
 10
-0.412644
 20
-1.065433
 30
0.0
  0
VERTEX
  5
62B
100
AcDbEntity
  8
0
370
     0
390
0
100
AcDbVertex
100
AcDb2dVertex
 10
-0.94
 20
-1.153325
 30
0.0
  0
VERTEX
  5
62C
100
AcDbEntity
  8
0
370
     0
390
0
100
AcDbVertex
100
AcDb2dVertex
 10
-0.412644
 20
-1.241217
 30
0.0
  0
SEQEND
  5
62D
100
AcDbEntity
  8
0
370
     0
390
0
  0
POLYLINE
  5
62E
100
AcDbEntity
  8
0
370
    13
390
0
 62
     7
 48
0.03937
100
AcDb2dPolyline
 66
     1
 10
0.0
 20
0.0
 30
0.0
 70
     1
 71
     3
  0
VERTEX
  5
62F
100
AcDbEntity
  8
0
370
     0
390
0
100
AcDbVertex
100
AcDb2dVertex
 10
0.412644
 20
-1.241217
 30
0.0
  0
VERTEX
  5
630
100
AcDbEntity
  8
0
370
     0
390
0
100
AcDbVertex
100
AcDb2dVertex
 10
0.94
 20
-1.153325
 30
0.0
  0
VERTEX
  5
631
100
AcDbEntity
  8
0
370
     0
390
0
100
AcDbVertex
100
AcDb2dVertex
 10
0.412644
 20
-1.065433
 30
0.0
  0
SEQEND
  5
632
100
AcDbEntity
  8
0
370
     0
390
0
  0
ENDBLK
  5
633
100
AcDbEntity
  8
0
390
0
100
AcDbBlockEnd
  0
BLOCK
  5
634
100
AcDbEntity
  8
0
370
     0
390
0
100
AcDbBlockBegin
  2
BLOCK21
 70
     0
 10
0.0
 20
0.0
 30
0.0
  3
BLOCK21
  1

  0
SOLID
  5
635
100
AcDbEntity
  8
0
370
    13
390
0
 62
     7
 48
0.03937
100
AcDbTrace
 10
-0.722644
 20
2.476207
 30
0.0
 11
-1.25
 21
2.388315
 31
0.0
 12
-0.722644
 22
2.476207
 32
0.0
 13
-0.722644
 23
2.300423
 33
0.0
  0
SOLID
  5
636
100
AcDbEntity
  8
0
370
    13
390
0
 62
     7
 48
0.03937
100
AcDbTrace
 10
0.722644
 20
2.300423
 30
0.0
 11
1.25
 21
2.388315
 31
0.0
 12
0.722644
 22
2.300423
 32
0.0
 13
0.722644
 23
2.476207
 33
0.0
  0
TEXT
  5
637
100
AcDbEntity
  8
0
370
    13
390
0
 62
     7
 48
0.03937
100
AcDbText
 10
-0.067957
 20
2.258551
 30
0.0
 40
0.259529
  1
2.5
 72
     5
 11
0.400846
 21
2.258551
 31
0.0
100
AcDbText
  0
TEXT
  5
638
100
AcDbEntity
  8
0
370
    13
390
0
 62
     7
 48
0.03937
100
AcDbText
 10
0.400846
 20
2.258551
 30
0.0
 40
0.259529
  1
"
 72
     5
 11
0.591167
 21
2.258551
 31
0.0
100
AcDbText
  0
TEXT
  5
639
100
AcDbEntity
  8
0
370
    13
390
0
 62
     7
 48
0.03937
100
AcDbText
 10
-0.591167
 20
2.258551
 30
0.0
 40
0.259529
  1
%%c
 72
     5
 11
-0.331638
 21
2.258551
 31
0.0
100
AcDbText
  0
LINE
  5
63A
100
AcDbEntity
  8
0
370
    13
390
0
 62
     7
 48
0.03937
100
AcDbLine
 10
-1.25
 20
0.457623
 30
0.0
 11
-1.25
 21
2.595938
 31
0.0
210
0.0
220
0.0
230
1.0
  0
LINE
  5
63B
100
AcDbEntity
  8
0
370
    13
390
0
 62
     7
 48
0.03937
100
AcDbLine
 10
1.25
 20
0.457623
 30
0.0
 11
1.25
 21
2.595938
 31
0.0
210
0.0
220
0.0
230
1.0
  0
POLYLINE
  5
63C
100
AcDbEntity
  8
0
370
    13
390
0
 62
     7
 48
0.03937
100
AcDb2dPolyline
 66
     1
 10
0.0
 20
0.0
 30
0.0
 70
     1
 71
     3
  0
VERTEX
  5
63D
100
AcDbEntity
  8
0
370
     0
390
0
100
AcDbVertex
100
AcDb2dVertex
 10
-0.722644
 20
2.476207
 30
0.0
  0
VERTEX
  5
63E
100
AcDbEntity
  8
0
370
     0
390
0
100
AcDbVertex
100
AcDb2dVertex
 10
-1.25
 20
2.388315
 30
0.0
  0
VERTEX
  5
63F
100
AcDbEntity
  8
0
370
     0
390
0
100
AcDbVertex
100
AcDb2dVertex
 10
-0.722644
 20
2.300423
 30
0.0
  0
SEQEND
  5
640
100
AcDbEntity
  8
0
370
     0
390
0
  0
POLYLINE
  5
641
100
AcDbEntity
  8
0
370
    13
390
0
 62
     7
 48
0.03937
100
AcDb2dPolyline
 66
     1
 10
0.0
 20
0.0
 30
0.0
 70
     1
 71
     3
  0
VERTEX
  5
642
100
AcDbEntity
  8
0
370
     0
390
0
100
AcDbVertex
100
AcDb2dVertex
 10
0.722644
 20
2.300423
 30
0.0
  0
VERTEX
  5
643
100
AcDbEntity
  8
0
370
     0
390
0
100
AcDbVertex
100
AcDb2dVertex
 10
1.25
 20
2.388315
 30
0.0
  0
VERTEX
  5
644
100
AcDbEntity
  8
0
370
     0
390
0
100
AcDbVertex
100
AcDb2dVertex
 10
0.722644
 20
2.476207
 30
0.0
  0
SEQEND
  5
645
100
AcDbEntity
  8
0
370
     0
390
0
  0
ENDBLK
  5
646
100
AcDbEntity
  8
0
390
0
100
AcDbBlockEnd
  0
BLOCK
  5
647
100
AcDbEntity
  8
0
370
     0
390
0
100
AcDbBlockBegin
  2
BLOCK22
 70
     0
 10
0.0
 20
0.0
 30
0.0
  3
BLOCK22
  1

  0
SOLID
  5
648
100
AcDbEntity
  8
0
370
    13
390
0
 62
     7
 48
0.03937
100
AcDbTrace
 10
4.297656
 20
-0.030144
 30
0.0
 11
4.385548
 21
-0.5575
 31
0.0
 12
4.297656
 22
-0.030144
 32
0.0
 13
4.473441
 23
-0.030144
 33
0.0
  0
SOLID
  5
649
100
AcDbEntity
  8
0
370
    13
390
0
 62
     7
 48
0.03937
100
AcDbTrace
 10
4.473441
 20
-1.964855
 30
0.0
 11
4.385548
 21
-1.4375
 31
0.0
 12
4.473441
 22
-1.964855
 32
0.0
 13
4.297656
 23
-1.964855
 33
0.0
  0
TEXT
  5
64A
100
AcDbEntity
  8
0
370
    13
390
0
 62
     7
 48
0.03937
100
AcDbText
 10
3.962226
 20
-1.127265
 30
0.0
 40
0.259529
  1
0.88
 72
     5
 11
4.618549
 21
-1.127265
 31
0.0
100
AcDbText
  0
TEXT
  5
64B
100
AcDbEntity
  8
0
370
    13
390
0
 62
     7
 48
0.03937
100
AcDbText
 10
4.618549
 20
-1.127265
 30
0.0
 40
0.259529
  1
"
 72
     5
 11
4.80887
 21
-1.127265
 31
0.0
100
AcDbText
  0
LINE
  5
64C
100
AcDbEntity
  8
0
370
    13
390
0
 62
     7
 48
0.03937
100
AcDbLine
 10
1.147623
 20
-1.4375
 30
0.0
 11
4.593172
 21
-1.4375
 31
0.0
210
0.0
220
0.0
230
1.0
  0
LINE
  5
64D
100
AcDbEntity
  8
0
370
    13
390
0
 62
     7
 48
0.03937
100
AcDbLine
 10
2.517623
 20
-0.5575
 30
0.0
 11
4.593172
 21
-0.5575
 31
0.0
210
0.0
220
0.0
230
1.0
  0
LINE
  5
64E
100
AcDbEntity
  8
0
370
    13
390
0
 62
     7
 48
0.007578
100
AcDbLine
 10
4.385548
 20
-2.267993
 30
0.0
 11
4.385548
 21
-1.964855
 31
0.0
210
0.0
220
0.0
230
1.0
  0
LINE
  5
64F
100
AcDbEntity
  8
0
370
    13
390
0
 62
     7
 48
0.007578
100
AcDbLine
 10
4.385548
 20
-0.030144
 30
0.0
 11
4.385548
 21
0.272993
 31
0.0
210
0.0
220
0.0
230
1.0
  0
POLYLINE
  5
650
100
AcDbEntity
  8
0
370
    13
390
0
 62
     7
 48
0.03937
100
AcDb2dPolyline
 66
     1
 10
0.0
 20
0.0
 30
0.0
 70
     1
 71
     3
  0
VERTEX
  5
651
100
AcDbEntity
  8
0
370
     0
390
0
100
AcDbVertex
100
AcDb2dVertex
 10
4.297656
 20
-0.030144
 30
0.0
  0
VERTEX
  5
652
100
AcDbEntity
  8
0
370
     0
390
0
100
AcDbVertex
100
AcDb2dVertex
 10
4.385548
 20
-0.5575
 30
0.0
  0
VERTEX
  5
653
100
AcDbEntity
  8
0
370
     0
390
0
100
AcDbVertex
100
AcDb2dVertex
 10
4.473441
 20
-0.030144
 30
0.0
  0
SEQEND
  5
654
100
AcDbEntity
  8
0
370
     0
390
0
  0
POLYLINE
  5
655
100
AcDbEntity
  8
0
370
    13
390
0
 62
     7
 48
0.03937
100
AcDb2dPolyline
 66
     1
 10
0.0
 20
0.0
 30
0.0
 70
     1
 71
     3
  0
VERTEX
  5
656
100
AcDbEntity
  8
0
370
     0
390
0
100
AcDbVertex
100
AcDb2dVertex
 10
4.473441
 20
-1.964855
 30
0.0
  0
VERTEX
  5
657
100
AcDbEntity
  8
0
370
     0
390
0
100
AcDbVertex
100
AcDb2dVertex
 10
4.385548
 20
-1.4375
 30
0.0
  0
VERTEX
  5
658
100
AcDbEntity
  8
0
370
     0
390
0
100
AcDbVertex
100
AcDb2dVertex
 10
4.297656
 20
-1.964855
 30
0.0
  0
SEQEND
  5
659
100
AcDbEntity
  8
0
370
     0
390
0
  0
ENDBLK
  5
65A
100
AcDbEntity
  8
0
390
0
100
AcDbBlockEnd
  0
BLOCK
  5
65B
100
AcDbEntity
  8
0
370
     0
390
0
100
AcDbBlockBegin
  2
BLOCK23
 70
     0
 10
0.0
 20
0.0
 30
0.0
  3
BLOCK23
  1

  0
SOLID
  5
65C
100
AcDbEntity
  8
0
370
    13
390
0
 62
     7
 48
0.03937
100
AcDbTrace
 10
-1.371356
 20
1.682708
 30
0.0
 11
-0.844
 21
1.770601
 31
0.0
 12
-1.371356
 22
1.682708
 32
0.0
 13
-1.371356
 23
1.858493
 33
0.0
  0
SOLID
  5
65D
100
AcDbEntity
  8
0
370
    13
390
0
 62
     7
 48
0.03937
100
AcDbTrace
 10
1.371356
 20
1.858493
 30
0.0
 11
0.844
 21
1.770601
 31
0.0
 12
1.371356
 22
1.858493
 32
0.0
 13
1.371356
 23
1.682708
 33
0.0
  0
TEXT
  5
65E
100
AcDbEntity
  8
0
370
    13
390
0
 62
     7
 48
0.03937
100
AcDbText
 10
-0.423322
 20
1.640836
 30
0.0
 40
0.259529
  1
1.69
 72
     5
 11
0.233001
 21
1.640836
 31
0.0
100
AcDbText
  0
TEXT
  5
65F
100
AcDbEntity
  8
0
370
    13
390
0
 62
     7
 48
0.03937
100
AcDbText
 10
0.233001
 20
1.640836
 30
0.0
 40
0.259529
  1
"
 72
     5
 11
0.423322
 21
1.640836
 31
0.0
100
AcDbText
  0
LINE
  5
660
100
AcDbEntity
  8
0
370
    13
390
0
 62
     7
 48
0.03937
100
AcDbLine
 10
-0.844
 20
0.457623
 30
0.0
 11
-0.844
 21
1.978224
 31
0.0
210
0.0
220
0.0
230
1.0
  0
LINE
  5
661
100
AcDbEntity
  8
0
370
    13
390
0
 62
     7
 48
0.03937
100
AcDbLine
 10
0.844
 20
0.457623
 30
0.0
 11
0.844
 21
1.978224
 31
0.0
210
0.0
220
0.0
230
1.0
  0
LINE
  5
662
100
AcDbEntity
  8
0
370
    13
390
0
 62
     7
 48
0.007578
100
AcDbLine
 10
-1.674493
 20
1.770601
 30
0.0
 11
-1.371356
 21
1.770601
 31
0.0
210
0.0
220
0.0
230
1.0
  0
LINE
  5
663
100
AcDbEntity
  8
0
370
    13
390
0
 62
     7
 48
0.007578
100
AcDbLine
 10
1.371356
 20
1.770601
 30
0.0
 11
1.674493
 21
1.770601
 31
0.0
210
0.0
220
0.0
230
1.0
  0
POLYLINE
  5
664
100
AcDbEntity
  8
0
370
    13
390
0
 62
     7
 48
0.03937
100
AcDb2dPolyline
 66
     1
 10
0.0
 20
0.0
 30
0.0
 70
     1
 71
     3
  0
VERTEX
  5
665
100
AcDbEntity
  8
0
370
     0
390
0
100
AcDbVertex
100
AcDb2dVertex
 10
-1.371356
 20
1.682708
 30
0.0
  0
VERTEX
  5
666
100
AcDbEntity
  8
0
370
     0
390
0
100
AcDbVertex
100
AcDb2dVertex
 10
-0.844
 20
1.770601
 30
0.0
  0
VERTEX
  5
667
100
AcDbEntity
  8
0
370
     0
390
0
100
AcDbVertex
100
AcDb2dVertex
 10
-1.371356
 20
1.858493
 30
0.0
  0
SEQEND
  5
668
100
AcDbEntity
  8
0
370
     0
390
0
  0
POLYLINE
  5
669
100
AcDbEntity
  8
0
370
    13
390
0
 62
     7
 48
0.03937
100
AcDb2dPolyline
 66
     1
 10
0.0
 20
0.0
 30
0.0
 70
     1
 71
     3
  0
VERTEX
  5
66A
100
AcDbEntity
  8
0
370
     0
390
0
100
AcDbVertex
100
AcDb2dVertex
 10
1.371356
 20
1.858493
 30
0.0
  0
VERTEX
  5
66B
100
AcDbEntity
  8
0
370
     0
390
0
100
AcDbVertex
100
AcDb2dVertex
 10
0.844
 20
1.770601
 30
0.0
  0
VERTEX
  5
66C
100
AcDbEntity
  8
0
370
     0
390
0
100
AcDbVertex
100
AcDb2dVertex
 10
1.371356
 20
1.682708
 30
0.0
  0
SEQEND
  5
66D
100
AcDbEntity
  8
0
370
     0
390
0
  0
ENDBLK
  5
66E
100
AcDbEntity
  8
0
390
0
100
AcDbBlockEnd
  0
BLOCK
  5
66F
100
AcDbEntity
  8
0
370
     0
390
0
100
AcDbBlockBegin
  2
BLOCK24
 70
     0
 10
0.0
 20
0.0
 30
0.0
  3
BLOCK24
  1

  0
SOLID
  5
670
100
AcDbEntity
  8
0
370
    13
390
0
 62
     7
 48
0.03937
100
AcDbTrace
 10
-0.902356
 20
-9.999478
 30
0.0
 11
-0.375
 21
-9.911586
 31
0.0
 12
-0.902356
 22
-9.999478
 32
0.0
 13
-0.902356
 23
-9.823693
 33
0.0
  0
SOLID
  5
671
100
AcDbEntity
  8
0
370
    13
390
0
 62
     7
 48
0.03937
100
AcDbTrace
 10
0.902356
 20
-9.823693
 30
0.0
 11
0.375
 21
-9.911586
 31
0.0
 12
0.902356
 22
-9.823693
 32
0.0
 13
0.902356
 23
-9.999478
 33
0.0
  0
TEXT
  5
672
100
AcDbEntity
  8
0
370
    13
390
0
 62
     7
 48
0.03937
100
AcDbText
 10
-2.540052
 20
-10.04135
 30
0.0
 40
0.259529
  1
0.75
 72
     5
 11
-1.883728
 21
-10.04135
 31
0.0
100
AcDbText
  0
TEXT
  5
673
100
AcDbEntity
  8
0
370
    13
390
0
 62
     7
 48
0.03937
100
AcDbText
 10
-1.883728
 20
-10.04135
 30
0.0
 40
0.259529
  1
"
 72
     5
 11
-1.693407
 21
-10.04135
 31
0.0
100
AcDbText
  0
TEXT
  5
674
100
AcDbEntity
  8
0
370
    13
390
0
 62
     7
 48
0.03937
100
AcDbText
 10
-3.063262
 20
-10.04135
 30
0.0
 40
0.259529
  1
%%c
 72
     5
 11
-2.803733
 21
-10.04135
 31
0.0
100
AcDbText
  0
LINE
  5
675
100
AcDbEntity
  8
0
370
    13
390
0
 62
     7
 48
0.03937
100
AcDbLine
 10
-0.375
 20
-9.145123
 30
0.0
 11
-0.375
 21
-10.119208
 31
0.0
210
0.0
220
0.0
230
1.0
  0
LINE
  5
676
100
AcDbEntity
  8
0
370
    13
390
0
 62
     7
 48
0.03937
100
AcDbLine
 10
0.375
 20
-9.145123
 30
0.0
 11
0.375
 21
-10.119208
 31
0.0
210
0.0
220
0.0
230
1.0
  0
LINE
  5
677
100
AcDbEntity
  8
0
370
    13
390
0
 62
     7
 48
0.014503
100
AcDbLine
 10
-1.482462
 20
-9.911586
 30
0.0
 11
-0.902356
 21
-9.911586
 31
0.0
210
0.0
220
0.0
230
1.0
  0
LINE
  5
678
100
AcDbEntity
  8
0
370
    13
390
0
 62
     7
 48
0.007578
100
AcDbLine
 10
0.902356
 20
-9.911586
 30
0.0
 11
1.205493
 21
-9.911586
 31
0.0
210
0.0
220
0.0
230
1.0
  0
POLYLINE
  5
679
100
AcDbEntity
  8
0
370
    13
390
0
 62
     7
 48
0.03937
100
AcDb2dPolyline
 66
     1
 10
0.0
 20
0.0
 30
0.0
 70
     1
 71
     3
  0
VERTEX
  5
67A
100
AcDbEntity
  8
0
370
     0
390
0
100
AcDbVertex
100
AcDb2dVertex
 10
-0.902356
 20
-9.999478
 30
0.0
  0
VERTEX
  5
67B
100
AcDbEntity
  8
0
370
     0
390
0
100
AcDbVertex
100
AcDb2dVertex
 10
-0.375
 20
-9.911586
 30
0.0
  0
VERTEX
  5
67C
100
AcDbEntity
  8
0
370
     0
390
0
100
AcDbVertex
100
AcDb2dVertex
 10
-0.902356
 20
-9.823693
 30
0.0
  0
SEQEND
  5
67D
100
AcDbEntity
  8
0
370
     0
390
0
  0
POLYLINE
  5
67E
100
AcDbEntity
  8
0
370
    13
390
0
 62
     7
 48
0.03937
100
AcDb2dPolyline
 66
     1
 10
0.0
 20
0.0
 30
0.0
 70
     1
 71
     3
  0
VERTEX
  5
67F
100
AcDbEntity
  8
0
370
     0
390
0
100
AcDbVertex
100
AcDb2dVertex
 10
0.902356
 20
-9.823693
 30
0.0
  0
VERTEX
  5
680
100
AcDbEntity
  8
0
370
     0
390
0
100
AcDbVertex
100
AcDb2dVertex
 10
0.375
 20
-9.911586
 30
0.0
  0
VERTEX
  5
681
100
AcDbEntity
  8
0
370
     0
390
0
100
AcDbVertex
100
AcDb2dVertex
 10
0.902356
 20
-9.999478
 30
0.0
  0
SEQEND
  5
682
100
AcDbEntity
  8
0
370
     0
390
0
  0
ENDBLK
  5
683
100
AcDbEntity
  8
0
390
0
100
AcDbBlockEnd
  0
BLOCK
  5
684
100
AcDbEntity
  8
0
370
     0
390
0
100
AcDbBlockBegin
  2
BLOCK25
 70
     0
 10
0.0
 20
0.0
 30
0.0
  3
BLOCK25
  1

  0
SOLID
  5
685
100
AcDbEntity
  8
0
370
    13
390
0
 62
     7
 48
0.03937
100
AcDbTrace
 10
0.144644
 20
1.001574
 30
0.0
 11
0.672
 21
1.089466
 31
0.0
 12
0.144644
 22
1.001574
 32
0.0
 13
0.144644
 23
1.177358
 33
0.0
  0
SOLID
  5
686
100
AcDbEntity
  8
0
370
    13
390
0
 62
     7
 48
0.03937
100
AcDbTrace
 10
1.543355
 20
1.177358
 30
0.0
 11
1.016
 21
1.089466
 31
0.0
 12
1.543355
 22
1.177358
 32
0.0
 13
1.543355
 23
1.001574
 33
0.0
  0
TEXT
  5
687
100
AcDbEntity
  8
0
370
    13
390
0
 62
     7
 48
0.03937
100
AcDbText
 10
2.220995
 20
0.959702
 30
0.0
 40
0.259529
  1
0.34
 72
     5
 11
2.877318
 21
0.959702
 31
0.0
100
AcDbText
  0
TEXT
  5
688
100
AcDbEntity
  8
0
370
    13
390
0
 62
     7
 48
0.03937
100
AcDbText
 10
2.877318
 20
0.959702
 30
0.0
 40
0.259529
  1
"
 72
     5
 11
3.067639
 21
0.959702
 31
0.0
100
AcDbText
  0
LINE
  5
689
100
AcDbEntity
  8
0
370
    13
390
0
 62
     7
 48
0.03937
100
AcDbLine
 10
0.672
 20
0.457623
 30
0.0
 11
0.672
 21
1.297089
 31
0.0
210
0.0
220
0.0
230
1.0
  0
LINE
  5
68A
100
AcDbEntity
  8
0
370
    13
390
0
 62
     7
 48
0.03937
100
AcDbLine
 10
1.016
 20
0.457623
 30
0.0
 11
1.016
 21
1.297089
 31
0.0
210
0.0
220
0.0
230
1.0
  0
LINE
  5
68B
100
AcDbEntity
  8
0
370
    13
390
0
 62
     7
 48
0.007578
100
AcDbLine
 10
-0.158493
 20
1.089466
 30
0.0
 11
0.144644
 21
1.089466
 31
0.0
210
0.0
220
0.0
230
1.0
  0
LINE
  5
68C
100
AcDbEntity
  8
0
370
    13
390
0
 62
     7
 48
0.011667
100
AcDbLine
 10
1.543355
 20
1.089466
 30
0.0
 11
2.010049
 21
1.089466
 31
0.0
210
0.0
220
0.0
230
1.0
  0
POLYLINE
  5
68D
100
AcDbEntity
  8
0
370
    13
390
0
 62
     7
 48
0.03937
100
AcDb2dPolyline
 66
     1
 10
0.0
 20
0.0
 30
0.0
 70
     1
 71
     3
  0
VERTEX
  5
68E
100
AcDbEntity
  8
0
370
     0
390
0
100
AcDbVertex
100
AcDb2dVertex
 10
0.144644
 20
1.001574
 30
0.0
  0
VERTEX
  5
68F
100
AcDbEntity
  8
0
370
     0
390
0
100
AcDbVertex
100
AcDb2dVertex
 10
0.672
 20
1.089466
 30
0.0
  0
VERTEX
  5
690
100
AcDbEntity
  8
0
370
     0
390
0
100
AcDbVertex
100
AcDb2dVertex
 10
0.144644
 20
1.177358
 30
0.0
  0
SEQEND
  5
691
100
AcDbEntity
  8
0
370
     0
390
0
  0
POLYLINE
  5
692
100
AcDbEntity
  8
0
370
    13
390
0
 62
     7
 48
0.03937
100
AcDb2dPolyline
 66
     1
 10
0.0
 20
0.0
 30
0.0
 70
     1
 71
     3
  0
VERTEX
  5
693
100
AcDbEntity
  8
0
370
     0
390
0
100
AcDbVertex
100
AcDb2dVertex
 10
1.543355
 20
1.177358
 30
0.0
  0
VERTEX
  5
694
100
AcDbEntity
  8
0
370
     0
390
0
100
AcDbVertex
100
AcDb2dVertex
 10
1.016
 20
1.089466
 30
0.0
  0
VERTEX
  5
695
100
AcDbEntity
  8
0
370
     0
390
0
100
AcDbVertex
100
AcDb2dVertex
 10
1.543355
 20
1.001574
 30
0.0
  0
SEQEND
  5
696
100
AcDbEntity
  8
0
370
     0
390
0
  0
ENDBLK
  5
697
100
AcDbEntity
  8
0
390
0
100
AcDbBlockEnd
  0
BLOCK
  5
698
100
AcDbEntity
  8
0
370
     0
390
0
100
AcDbBlockBegin
  2
BLOCK26
 70
     0
 10
0.0
 20
0.0
 30
0.0
  3
BLOCK26
  1

  0
SOLID
  5
699
100
AcDbEntity
  8
0
370
    13
390
0
 62
     7
 48
0.03937
100
AcDbTrace
 10
-0.316644
 20
1.108999
 30
0.0
 11
-0.844
 21
1.021107
 31
0.0
 12
-0.316644
 22
1.108999
 32
0.0
 13
-0.316644
 23
0.933214
 33
0.0
  0
SOLID
  5
69A
100
AcDbEntity
  8
0
370
    13
390
0
 62
     7
 48
0.03937
100
AcDbTrace
 10
-1.754713
 20
0.640636
 30
0.0
 11
-1.303622
 21
0.927596
 31
0.0
 12
-1.754713
 22
0.640636
 32
0.0
 13
-1.823398
 23
0.802447
 33
0.0
  0
TEXT
  5
69B
100
AcDbEntity
  8
0
370
    13
390
0
 62
     7
 48
0.03937
100
AcDbText
 10
-2.955496
 20
0.487731
 30
0.0
 40
0.259529
  1
23
 72
     5
 11
-2.580455
 21
0.487731
 31
0.0
100
AcDbText
  0
TEXT
  5
69C
100
AcDbEntity
  8
0
370
    13
390
0
 62
     7
 48
0.03937
100
AcDbText
 10
-2.580455
 20
0.487731
 30
0.0
 40
0.259529
  1
%%d
 72
     5
 11
-2.390133
 21
0.487731
 31
0.0
100
AcDbText
  0
LINE
  5
69D
100
AcDbEntity
  8
0
370
    13
390
0
 62
     7
 48
0.011206
100
AcDbLine
 10
-1.73093
 20
0.617496
 30
0.0
 11
-2.179188
 21
0.617496
 31
0.0
210
0.0
220
0.0
230
1.0
  0
LINE
  5
69E
100
AcDbEntity
  8
0
370
    13
390
0
 62
     7
 48
0.019278
100
AcDbLine
 10
-0.844
 20
0.457623
 30
0.0
 11
-0.844
 21
1.22873
 31
0.0
210
0.0
220
0.0
230
1.0
  0
LINE
  5
69F
100
AcDbEntity
  8
0
370
    13
390
0
 62
     7
 48
0.018403
100
AcDbLine
 10
-1.097125
 20
0.441118
 30
0.0
 11
-1.384747
 21
1.118714
 31
0.0
210
0.0
220
0.0
230
1.0
  0
ARC
  5
6A0
100
AcDbEntity
  8
0
370
    13
390
0
 62
     7
 48
0.03937
100
AcDbCircle
 10
-0.844
 20
-0.155207
 30
0.0
 40
1.176313
210
0.0
220
0.0
230
1.0
100
AcDbArc
 50
49.548422
 51
71.075413
  0
ARC
  5
6A1
100
AcDbEntity
  8
0
370
    13
390
0
 62
     7
 48
0.03937
100
AcDbCircle
 10
-0.844
 20
-0.155207
 30
0.0
 40
1.176313
210
0.0
220
0.0
230
1.0
100
AcDbArc
 50
131.924585
 51
138.93729
  0
POLYLINE
  5
6A2
100
AcDbEntity
  8
0
370
    13
390
0
 62
     7
 48
0.03937
100
AcDb2dPolyline
 66
     1
 10
0.0
 20
0.0
 30
0.0
 70
     1
 71
     3
  0
VERTEX
  5
6A3
100
AcDbEntity
  8
0
370
     0
390
0
100
AcDbVertex
100
AcDb2dVertex
 10
-0.316644
 20
1.108999
 30
0.0
  0
VERTEX
  5
6A4
100
AcDbEntity
  8
0
370
     0
390
0
100
AcDbVertex
100
AcDb2dVertex
 10
-0.844
 20
1.021107
 30
0.0
  0
VERTEX
  5
6A5
100
AcDbEntity
  8
0
370
     0
390
0
100
AcDbVertex
100
AcDb2dVertex
 10
-0.316644
 20
0.933214
 30
0.0
  0
SEQEND
  5
6A6
100
AcDbEntity
  8
0
370
     0
390
0
  0
POLYLINE
  5
6A7
100
AcDbEntity
  8
0
370
    13
390
0
 62
     7
 48
0.03937
100
AcDb2dPolyline
 66
     1
 10
0.0
 20
0.0
 30
0.0
 70
     1
 71
     3
  0
VERTEX
  5
6A8
100
AcDbEntity
  8
0
370
     0
390
0
100
AcDbVertex
100
AcDb2dVertex
 10
-1.754713
 20
0.640636
 30
0.0
  0
VERTEX
  5
6A9
100
AcDbEntity
  8
0
370
     0
390
0
100
AcDbVertex
100
AcDb2dVertex
 10
-1.303622
 20
0.927596
 30
0.0
  0
VERTEX
  5
6AA
100
AcDbEntity
  8
0
370
     0
390
0
100
AcDbVertex
100
AcDb2dVertex
 10
-1.823398
 20
0.802447
 30
0.0
  0
SEQEND
  5
6AB
100
AcDbEntity
  8
0
370
     0
390
0
  0
ENDBLK
  5
6AC
100
AcDbEntity
  8
0
390
0
100
AcDbBlockEnd
  0
BLOCK
  5
6AD
100
AcDbEntity
  8
0
370
     0
390
0
100
AcDbBlockBegin
  2
BLOCK27
 70
     0
 10
0.0
 20
0.0
 30
0.0
  3
BLOCK27
  1

  0
LINE
  5
6AE
100
AcDbEntity
  8
0
370
     5
390
0
 62
     7
 48
0.00775
100
AcDbLine
 10
2.31
 20
-0.5575
 30
0.0
 11
2.0
 21
-0.5575
 31
0.0
210
0.0
220
0.0
230
1.0
  0
LINE
  5
6AF
100
AcDbEntity
  8
0
370
     5
390
0
 62
     7
 48
0.013937
100
AcDbLine
 10
2.0
 20
-0.5575
 30
0.0
 11
2.0
 21
0.0
 31
0.0
210
0.0
220
0.0
230
1.0
  0
LINE
  5
6B0
100
AcDbEntity
  8
0
370
     5
390
0
 62
     7
 48
0.00775
100
AcDbLine
 10
2.0
 20
0.0
 30
0.0
 11
2.31
 21
0.0
 31
0.0
210
0.0
220
0.0
230
1.0
  0
LINE
  5
6B1
100
AcDbEntity
  8
0
370
     5
390
0
 62
     7
 48
0.013937
100
AcDbLine
 10
2.31
 20
0.0
 30
0.0
 11
2.31
 21
-0.5575
 31
0.0
210
0.0
220
0.0
230
1.0
  0
ENDBLK
  5
6B2
100
AcDbEntity
  8
0
390
0
100
AcDbBlockEnd
  0
BLOCK
  5
6B3
100
AcDbEntity
  8
0
370
     0
390
0
100
AcDbBlockBegin
  2
BLOCK28
 70
     0
 10
0.0
 20
0.0
 30
0.0
  3
BLOCK28
  1

  0
LINE
  5
6B4
100
AcDbEntity
  8
0
370
     5
390
0
 62
     7
 48
0.008125
100
AcDbLine
 10
1.25
 20
-0.5575
 30
0.0
 11
0.925
 21
-0.5575
 31
0.0
210
0.0
220
0.0
230
1.0
  0
LINE
  5
6B5
100
AcDbEntity
  8
0
370
     5
390
0
 62
     7
 48
0.000028
100
AcDbLine
 10
0.925
 20
-0.5575
 30
0.0
 11
0.923879
 21
-0.557542
 31
0.0
210
0.0
220
0.0
230
1.0
  0
LINE
  5
6B6
100
AcDbEntity
  8
0
370
     5
390
0
 62
     7
 48
0.000028
100
AcDbLine
 10
0.923879
 20
-0.557542
 30
0.0
 11
0.922764
 21
-0.557668
 31
0.0
210
0.0
220
0.0
230
1.0
  0
LINE
  5
6B7
100
AcDbEntity
  8
0
370
     5
390
0
 62
     7
 48
0.000028
100
AcDbLine
 10
0.922764
 20
-0.557668
 30
0.0
 11
0.921662
 21
-0.557876
 31
0.0
210
0.0
220
0.0
230
1.0
  0
LINE
  5
6B8
100
AcDbEntity
  8
0
370
     5
390
0
 62
     7
 48
0.000028
100
AcDbLine
 10
0.921662
 20
-0.557876
 30
0.0
 11
0.920579
 21
-0.558166
 31
0.0
210
0.0
220
0.0
230
1.0
  0
LINE
  5
6B9
100
AcDbEntity
  8
0
370
     5
390
0
 62
     7
 48
0.000028
100
AcDbLine
 10
0.920579
 20
-0.558166
 30
0.0
 11
0.91952
 21
-0.558537
 31
0.0
210
0.0
220
0.0
230
1.0
  0
LINE
  5
6BA
100
AcDbEntity
  8
0
370
     5
390
0
 62
     7
 48
0.000028
100
AcDbLine
 10
0.91952
 20
-0.558537
 30
0.0
 11
0.918492
 21
-0.558985
 31
0.0
210
0.0
220
0.0
230
1.0
  0
LINE
  5
6BB
100
AcDbEntity
  8
0
370
     5
390
0
 62
     7
 48
0.000028
100
AcDbLine
 10
0.918492
 20
-0.558985
 30
0.0
 11
0.9175
 21
-0.55951
 31
0.0
210
0.0
220
0.0
230
1.0
  0
LINE
  5
6BC
100
AcDbEntity
  8
0
370
     5
390
0
 62
     7
 48
0.000028
100
AcDbLine
 10
0.9175
 20
-0.55951
 30
0.0
 11
0.91655
 21
-0.560106
 31
0.0
210
0.0
220
0.0
230
1.0
  0
LINE
  5
6BD
100
AcDbEntity
  8
0
370
     5
390
0
 62
     7
 48
0.000028
100
AcDbLine
 10
0.91655
 20
-0.560106
 30
0.0
 11
0.915648
 21
-0.560773
 31
0.0
210
0.0
220
0.0
230
1.0
  0
LINE
  5
6BE
100
AcDbEntity
  8
0
370
     5
390
0
 62
     7
 48
0.000028
100
AcDbLine
 10
0.915648
 20
-0.560773
 30
0.0
 11
0.914797
 21
-0.561504
 31
0.0
210
0.0
220
0.0
230
1.0
  0
LINE
  5
6BF
100
AcDbEntity
  8
0
370
     5
390
0
 62
     7
 48
0.000028
100
AcDbLine
 10
0.914797
 20
-0.561504
 30
0.0
 11
0.914004
 21
-0.562297
 31
0.0
210
0.0
220
0.0
230
1.0
  0
LINE
  5
6C0
100
AcDbEntity
  8
0
370
     5
390
0
 62
     7
 48
0.000028
100
AcDbLine
 10
0.914004
 20
-0.562297
 30
0.0
 11
0.913273
 21
-0.563148
 31
0.0
210
0.0
220
0.0
230
1.0
  0
LINE
  5
6C1
100
AcDbEntity
  8
0
370
     5
390
0
 62
     7
 48
0.000028
100
AcDbLine
 10
0.913273
 20
-0.563148
 30
0.0
 11
0.912606
 21
-0.56405
 31
0.0
210
0.0
220
0.0
230
1.0
  0
LINE
  5
6C2
100
AcDbEntity
  8
0
370
     5
390
0
 62
     7
 48
0.000028
100
AcDbLine
 10
0.912606
 20
-0.56405
 30
0.0
 11
0.91201
 21
-0.565
 31
0.0
210
0.0
220
0.0
230
1.0
  0
LINE
  5
6C3
100
AcDbEntity
  8
0
370
     5
390
0
 62
     7
 48
0.000028
100
AcDbLine
 10
0.91201
 20
-0.565
 30
0.0
 11
0.911485
 21
-0.565992
 31
0.0
210
0.0
220
0.0
230
1.0
  0
LINE
  5
6C4
100
AcDbEntity
  8
0
370
     5
390
0
 62
     7
 48
0.000028
100
AcDbLine
 10
0.911485
 20
-0.565992
 30
0.0
 11
0.911037
 21
-0.56702
 31
0.0
210
0.0
220
0.0
230
1.0
  0
LINE
  5
6C5
100
AcDbEntity
  8
0
370
     5
390
0
 62
     7
 48
0.000028
100
AcDbLine
 10
0.911037
 20
-0.56702
 30
0.0
 11
0.910666
 21
-0.568079
 31
0.0
210
0.0
220
0.0
230
1.0
  0
LINE
  5
6C6
100
AcDbEntity
  8
0
370
     5
390
0
 62
     7
 48
0.000028
100
AcDbLine
 10
0.910666
 20
-0.568079
 30
0.0
 11
0.910376
 21
-0.569162
 31
0.0
210
0.0
220
0.0
230
1.0
  0
LINE
  5
6C7
100
AcDbEntity
  8
0
370
     5
390
0
 62
     7
 48
0.000028
100
AcDbLine
 10
0.910376
 20
-0.569162
 30
0.0
 11
0.910168
 21
-0.570264
 31
0.0
210
0.0
220
0.0
230
1.0
  0
LINE
  5
6C8
100
AcDbEntity
  8
0
370
     5
390
0
 62
     7
 48
0.000028
100
AcDbLine
 10
0.910168
 20
-0.570264
 30
0.0
 11
0.910042
 21
-0.571379
 31
0.0
210
0.0
220
0.0
230
1.0
  0
LINE
  5
6C9
100
AcDbEntity
  8
0
370
     5
390
0
 62
     7
 48
0.000028
100
AcDbLine
 10
0.910042
 20
-0.571379
 30
0.0
 11
0.91
 21
-0.5725
 31
0.0
210
0.0
220
0.0
230
1.0
  0
LINE
  5
6CA
100
AcDbEntity
  8
0
370
     5
390
0
 62
     7
 48
0.000028
100
AcDbLine
 10
0.91
 20
-0.5725
 30
0.0
 11
0.910042
 21
-0.573621
 31
0.0
210
0.0
220
0.0
230
1.0
  0
LINE
  5
6CB
100
AcDbEntity
  8
0
370
     5
390
0
 62
     7
 48
0.000028
100
AcDbLine
 10
0.910042
 20
-0.573621
 30
0.0
 11
0.910168
 21
-0.574736
 31
0.0
210
0.0
220
0.0
230
1.0
  0
LINE
  5
6CC
100
AcDbEntity
  8
0
370
     5
390
0
 62
     7
 48
0.000028
100
AcDbLine
 10
0.910168
 20
-0.574736
 30
0.0
 11
0.910376
 21
-0.575838
 31
0.0
210
0.0
220
0.0
230
1.0
  0
LINE
  5
6CD
100
AcDbEntity
  8
0
370
     5
390
0
 62
     7
 48
0.000028
100
AcDbLine
 10
0.910376
 20
-0.575838
 30
0.0
 11
0.910666
 21
-0.576921
 31
0.0
210
0.0
220
0.0
230
1.0
  0
LINE
  5
6CE
100
AcDbEntity
  8
0
370
     5
390
0
 62
     7
 48
0.000028
100
AcDbLine
 10
0.910666
 20
-0.576921
 30
0.0
 11
0.911037
 21
-0.57798
 31
0.0
210
0.0
220
0.0
230
1.0
  0
LINE
  5
6CF
100
AcDbEntity
  8
0
370
     5
390
0
 62
     7
 48
0.000028
100
AcDbLine
 10
0.911037
 20
-0.57798
 30
0.0
 11
0.911485
 21
-0.579008
 31
0.0
210
0.0
220
0.0
230
1.0
  0
LINE
  5
6D0
100
AcDbEntity
  8
0
370
     5
390
0
 62
     7
 48
0.000028
100
AcDbLine
 10
0.911485
 20
-0.579008
 30
0.0
 11
0.91201
 21
-0.58
 31
0.0
210
0.0
220
0.0
230
1.0
  0
LINE
  5
6D1
100
AcDbEntity
  8
0
370
     5
390
0
 62
     7
 48
0.000028
100
AcDbLine
 10
0.91201
 20
-0.58
 30
0.0
 11
0.912606
 21
-0.58095
 31
0.0
210
0.0
220
0.0
230
1.0
  0
LINE
  5
6D2
100
AcDbEntity
  8
0
370
     5
390
0
 62
     7
 48
0.000028
100
AcDbLine
 10
0.912606
 20
-0.58095
 30
0.0
 11
0.913273
 21
-0.581852
 31
0.0
210
0.0
220
0.0
230
1.0
  0
LINE
  5
6D3
100
AcDbEntity
  8
0
370
     5
390
0
 62
     7
 48
0.000028
100
AcDbLine
 10
0.913273
 20
-0.581852
 30
0.0
 11
0.914004
 21
-0.582703
 31
0.0
210
0.0
220
0.0
230
1.0
  0
LINE
  5
6D4
100
AcDbEntity
  8
0
370
     5
390
0
 62
     7
 48
0.000028
100
AcDbLine
 10
0.914004
 20
-0.582703
 30
0.0
 11
0.914797
 21
-0.583496
 31
0.0
210
0.0
220
0.0
230
1.0
  0
LINE
  5
6D5
100
AcDbEntity
  8
0
370
     5
390
0
 62
     7
 48
0.000028
100
AcDbLine
 10
0.914797
 20
-0.583496
 30
0.0
 11
0.915648
 21
-0.584227
 31
0.0
210
0.0
220
0.0
230
1.0
  0
LINE
  5
6D6
100
AcDbEntity
  8
0
370
     5
390
0
 62
     7
 48
0.000028
100
AcDbLine
 10
0.915648
 20
-0.584227
 30
0.0
 11
0.91655
 21
-0.584894
 31
0.0
210
0.0
220
0.0
230
1.0
  0
LINE
  5
6D7
100
AcDbEntity
  8
0
370
     5
390
0
 62
     7
 48
0.000028
100
AcDbLine
 10
0.91655
 20
-0.584894
 30
0.0
 11
0.9175
 21
-0.58549
 31
0.0
210
0.0
220
0.0
230
1.0
  0
LINE
  5
6D8
100
AcDbEntity
  8
0
370
     5
390
0
 62
     7
 48
0.00065
100
AcDbLine
 10
0.9175
 20
-0.58549
 30
0.0
 11
0.94
 21
-0.598481
 31
0.0
210
0.0
220
0.0
230
1.0
  0
LINE
  5
6D9
100
AcDbEntity
  8
0
370
     5
390
0
 62
     7
 48
0.03937
100
AcDbLine
 10
0.94
 20
-0.598481
 30
0.0
 11
0.94
 21
-1.4375
 31
0.0
210
0.0
220
0.0
230
1.0
  0
LINE
  5
6DA
100
AcDbEntity
  8
0
370
     5
390
0
 62
     7
 48
0.03937
100
AcDbLine
 10
0.94
 20
-1.4375
 30
0.0
 11
2.31
 21
-2.22847
 31
0.0
210
0.0
220
0.0
230
1.0
  0
LINE
  5
6DB
100
AcDbEntity
  8
0
370
     5
390
0
 62
     7
 48
0.03937
100
AcDbLine
 10
2.31
 20
-2.22847
 30
0.0
 11
2.31
 21
-8.9375
 31
0.0
210
0.0
220
0.0
230
1.0
  0
LINE
  5
6DC
100
AcDbEntity
  8
0
370
     5
390
0
 62
     7
 48
0.03937
100
AcDbLine
 10
2.31
 20
-8.9375
 30
0.0
 11
0.375
 21
-8.9375
 31
0.0
210
0.0
220
0.0
230
1.0
  0
LINE
  5
6DD
100
AcDbEntity
  8
0
370
     5
390
0
 62
     7
 48
0.03937
100
AcDbLine
 10
0.375
 20
-8.9375
 30
0.0
 11
0.375
 21
0.25
 31
0.0
210
0.0
220
0.0
230
1.0
  0
LINE
  5
6DE
100
AcDbEntity
  8
0
370
     5
390
0
 62
     7
 48
0.007425
100
AcDbLine
 10
0.375
 20
0.25
 30
0.0
 11
0.672
 21
0.25
 31
0.0
210
0.0
220
0.0
230
1.0
  0
LINE
  5
6DF
100
AcDbEntity
  8
0
370
     5
390
0
 62
     7
 48
0.006277
100
AcDbLine
 10
0.672
 20
0.25
 30
0.0
 11
0.770101
 21
0.018887
 31
0.0
210
0.0
220
0.0
230
1.0
  0
LINE
  5
6E0
100
AcDbEntity
  8
0
370
     5
390
0
 62
     7
 48
0.000048
100
AcDbLine
 10
0.770101
 20
0.018887
 30
0.0
 11
0.770901
 21
0.017155
 31
0.0
210
0.0
220
0.0
230
1.0
  0
LINE
  5
6E1
100
AcDbEntity
  8
0
370
     5
390
0
 62
     7
 48
0.000048
100
AcDbLine
 10
0.770901
 20
0.017155
 30
0.0
 11
0.771805
 21
0.015475
 31
0.0
210
0.0
220
0.0
230
1.0
  0
LINE
  5
6E2
100
AcDbEntity
  8
0
370
     5
390
0
 62
     7
 48
0.000048
100
AcDbLine
 10
0.771805
 20
0.015475
 30
0.0
 11
0.77281
 21
0.013854
 31
0.0
210
0.0
220
0.0
230
1.0
  0
LINE
  5
6E3
100
AcDbEntity
  8
0
370
     5
390
0
 62
     7
 48
0.000048
100
AcDbLine
 10
0.77281
 20
0.013854
 30
0.0
 11
0.773914
 21
0.012298
 31
0.0
210
0.0
220
0.0
230
1.0
  0
LINE
  5
6E4
100
AcDbEntity
  8
0
370
     5
390
0
 62
     7
 48
0.000048
100
AcDbLine
 10
0.773914
 20
0.012298
 30
0.0
 11
0.775111
 21
0.010813
 31
0.0
210
0.0
220
0.0
230
1.0
  0
LINE
  5
6E5
100
AcDbEntity
  8
0
370
     5
390
0
 62
     7
 48
0.000048
100
AcDbLine
 10
0.775111
 20
0.010813
 30
0.0
 11
0.776397
 21
0.009404
 31
0.0
210
0.0
220
0.0
230
1.0
  0
LINE
  5
6E6
100
AcDbEntity
  8
0
370
     5
390
0
 62
     7
 48
0.000048
100
AcDbLine
 10
0.776397
 20
0.009404
 30
0.0
 11
0.777768
 21
0.008077
 31
0.0
210
0.0
220
0.0
230
1.0
  0
LINE
  5
6E7
100
AcDbEntity
  8
0
370
     5
390
0
 62
     7
 48
0.000048
100
AcDbLine
 10
0.777768
 20
0.008077
 30
0.0
 11
0.779217
 21
0.006837
 31
0.0
210
0.0
220
0.0
230
1.0
  0
LINE
  5
6E8
100
AcDbEntity
  8
0
370
     5
390
0
 62
     7
 48
0.000048
100
AcDbLine
 10
0.779217
 20
0.006837
 30
0.0
 11
0.78074
 21
0.005688
 31
0.0
210
0.0
220
0.0
230
1.0
  0
LINE
  5
6E9
100
AcDbEntity
  8
0
370
     5
390
0
 62
     7
 48
0.000048
100
AcDbLine
 10
0.78074
 20
0.005688
 30
0.0
 11
0.782331
 21
0.004635
 31
0.0
210
0.0
220
0.0
230
1.0
  0
LINE
  5
6EA
100
AcDbEntity
  8
0
370
     5
390
0
 62
     7
 48
0.000048
100
AcDbLine
 10
0.782331
 20
0.004635
 30
0.0
 11
0.783983
 21
0.003682
 31
0.0
210
0.0
220
0.0
230
1.0
  0
LINE
  5
6EB
100
AcDbEntity
  8
0
370
     5
390
0
 62
     7
 48
0.000048
100
AcDbLine
 10
0.783983
 20
0.003682
 30
0.0
 11
0.785691
 21
0.002833
 31
0.0
210
0.0
220
0.0
230
1.0
  0
LINE
  5
6EC
100
AcDbEntity
  8
0
370
     5
390
0
 62
     7
 48
0.000048
100
AcDbLine
 10
0.785691
 20
0.002833
 30
0.0
 11
0.787448
 21
0.00209
 31
0.0
210
0.0
220
0.0
230
1.0
  0
LINE
  5
6ED
100
AcDbEntity
  8
0
370
     5
390
0
 62
     7
 48
0.000048
100
AcDbLine
 10
0.787448
 20
0.00209
 30
0.0
 11
0.789247
 21
0.001456
 31
0.0
210
0.0
220
0.0
230
1.0
  0
LINE
  5
6EE
100
AcDbEntity
  8
0
370
     5
390
0
 62
     7
 48
0.000048
100
AcDbLine
 10
0.789247
 20
0.001456
 30
0.0
 11
0.791082
 21
0.000935
 31
0.0
210
0.0
220
0.0
230
1.0
  0
LINE
  5
6EF
100
AcDbEntity
  8
0
370
     5
390
0
 62
     7
 48
0.000048
100
AcDbLine
 10
0.791082
 20
0.000935
 30
0.0
 11
0.792946
 21
0.000527
 31
0.0
210
0.0
220
0.0
230
1.0
  0
LINE
  5
6F0
100
AcDbEntity
  8
0
370
     5
390
0
 62
     7
 48
0.000048
100
AcDbLine
 10
0.792946
 20
0.000527
 30
0.0
 11
0.794831
 21
0.000235
 31
0.0
210
0.0
220
0.0
230
1.0
  0
LINE
  5
6F1
100
AcDbEntity
  8
0
370
     5
390
0
 62
     7
 48
0.000048
100
AcDbLine
 10
0.794831
 20
0.000235
 30
0.0
 11
0.79673
 21
0.000059
 31
0.0
210
0.0
220
0.0
230
1.0
  0
LINE
  5
6F2
100
AcDbEntity
  8
0
370
     5
390
0
 62
     7
 48
0.000048
100
AcDbLine
 10
0.79673
 20
0.000059
 30
0.0
 11
0.798637
 21
0.0
 31
0.0
210
0.0
220
0.0
230
1.0
  0
LINE
  5
6F3
100
AcDbEntity
  8
0
370
     5
390
0
 62
     7
 48
0.002268
100
AcDbLine
 10
0.798637
 20
0.0
 30
0.0
 11
0.889363
 21
0.0
 31
0.0
210
0.0
220
0.0
230
1.0
  0
LINE
  5
6F4
100
AcDbEntity
  8
0
370
     5
390
0
 62
     7
 48
0.000048
100
AcDbLine
 10
0.889363
 20
0.0
 30
0.0
 11
0.89127
 21
0.000059
 31
0.0
210
0.0
220
0.0
230
1.0
  0
LINE
  5
6F5
100
AcDbEntity
  8
0
370
     5
390
0
 62
     7
 48
0.000048
100
AcDbLine
 10
0.89127
 20
0.000059
 30
0.0
 11
0.893169
 21
0.000235
 31
0.0
210
0.0
220
0.0
230
1.0
  0
LINE
  5
6F6
100
AcDbEntity
  8
0
370
     5
390
0
 62
     7
 48
0.000048
100
AcDbLine
 10
0.893169
 20
0.000235
 30
0.0
 11
0.895054
 21
0.000527
 31
0.0
210
0.0
220
0.0
230
1.0
  0
LINE
  5
6F7
100
AcDbEntity
  8
0
370
     5
390
0
 62
     7
 48
0.000048
100
AcDbLine
 10
0.895054
 20
0.000527
 30
0.0
 11
0.896918
 21
0.000935
 31
0.0
210
0.0
220
0.0
230
1.0
  0
LINE
  5
6F8
100
AcDbEntity
  8
0
370
     5
390
0
 62
     7
 48
0.000048
100
AcDbLine
 10
0.896918
 20
0.000935
 30
0.0
 11
0.898753
 21
0.001456
 31
0.0
210
0.0
220
0.0
230
1.0
  0
LINE
  5
6F9
100
AcDbEntity
  8
0
370
     5
390
0
 62
     7
 48
0.000048
100
AcDbLine
 10
0.898753
 20
0.001456
 30
0.0
 11
0.900552
 21
0.00209
 31
0.0
210
0.0
220
0.0
230
1.0
  0
LINE
  5
6FA
100
AcDbEntity
  8
0
370
     5
390
0
 62
     7
 48
0.000048
100
AcDbLine
 10
0.900552
 20
0.00209
 30
0.0
 11
0.902309
 21
0.002833
 31
0.0
210
0.0
220
0.0
230
1.0
  0
LINE
  5
6FB
100
AcDbEntity
  8
0
370
     5
390
0
 62
     7
 48
0.000048
100
AcDbLine
 10
0.902309
 20
0.002833
 30
0.0
 11
0.904017
 21
0.003682
 31
0.0
210
0.0
220
0.0
230
1.0
  0
LINE
  5
6FC
100
AcDbEntity
  8
0
370
     5
390
0
 62
     7
 48
0.000048
100
AcDbLine
 10
0.904017
 20
0.003682
 30
0.0
 11
0.905669
 21
0.004635
 31
0.0
210
0.0
220
0.0
230
1.0
  0
LINE
  5
6FD
100
AcDbEntity
  8
0
370
     5
390
0
 62
     7
 48
0.000048
100
AcDbLine
 10
0.905669
 20
0.004635
 30
0.0
 11
0.90726
 21
0.005688
 31
0.0
210
0.0
220
0.0
230
1.0
  0
LINE
  5
6FE
100
AcDbEntity
  8
0
370
     5
390
0
 62
     7
 48
0.000048
100
AcDbLine
 10
0.90726
 20
0.005688
 30
0.0
 11
0.908783
 21
0.006837
 31
0.0
210
0.0
220
0.0
230
1.0
  0
LINE
  5
6FF
100
AcDbEntity
  8
0
370
     5
390
0
 62
     7
 48
0.000048
100
AcDbLine
 10
0.908783
 20
0.006837
 30
0.0
 11
0.910233
 21
0.008077
 31
0.0
210
0.0
220
0.0
230
1.0
  0
LINE
  5
700
100
AcDbEntity
  8
0
370
     5
390
0
 62
     7
 48
0.000048
100
AcDbLine
 10
0.910233
 20
0.008077
 30
0.0
 11
0.911603
 21
0.009404
 31
0.0
210
0.0
220
0.0
230
1.0
  0
LINE
  5
701
100
AcDbEntity
  8
0
370
     5
390
0
 62
     7
 48
0.000048
100
AcDbLine
 10
0.911603
 20
0.009404
 30
0.0
 11
0.912889
 21
0.010813
 31
0.0
210
0.0
220
0.0
230
1.0
  0
LINE
  5
702
100
AcDbEntity
  8
0
370
     5
390
0
 62
     7
 48
0.000048
100
AcDbLine
 10
0.912889
 20
0.010813
 30
0.0
 11
0.914086
 21
0.012298
 31
0.0
210
0.0
220
0.0
230
1.0
  0
LINE
  5
703
100
AcDbEntity
  8
0
370
     5
390
0
 62
     7
 48
0.000048
100
AcDbLine
 10
0.914086
 20
0.012298
 30
0.0
 11
0.91519
 21
0.013854
 31
0.0
210
0.0
220
0.0
230
1.0
  0
LINE
  5
704
100
AcDbEntity
  8
0
370
     5
390
0
 62
     7
 48
0.000048
100
AcDbLine
 10
0.91519
 20
0.013854
 30
0.0
 11
0.916195
 21
0.015475
 31
0.0
210
0.0
220
0.0
230
1.0
  0
LINE
  5
705
100
AcDbEntity
  8
0
370
     5
390
0
 62
     7
 48
0.000048
100
AcDbLine
 10
0.916195
 20
0.015475
 30
0.0
 11
0.917099
 21
0.017155
 31
0.0
210
0.0
220
0.0
230
1.0
  0
LINE
  5
706
100
AcDbEntity
  8
0
370
     5
390
0
 62
     7
 48
0.000048
100
AcDbLine
 10
0.917099
 20
0.017155
 30
0.0
 11
0.917898
 21
0.018887
 31
0.0
210
0.0
220
0.0
230
1.0
  0
LINE
  5
707
100
AcDbEntity
  8
0
370
     5
390
0
 62
     7
 48
0.006277
100
AcDbLine
 10
0.917898
 20
0.018887
 30
0.0
 11
1.016
 21
0.25
 31
0.0
210
0.0
220
0.0
230
1.0
  0
LINE
  5
708
100
AcDbEntity
  8
0
370
     5
390
0
 62
     7
 48
0.00585
100
AcDbLine
 10
1.016
 20
0.25
 30
0.0
 11
1.25
 21
0.25
 31
0.0
210
0.0
220
0.0
230
1.0
  0
LINE
  5
709
100
AcDbEntity
  8
0
370
     5
390
0
 62
     7
 48
0.00625
100
AcDbLine
 10
1.25
 20
0.25
 30
0.0
 11
1.25
 21
0.0
 31
0.0
210
0.0
220
0.0
230
1.0
  0
LINE
  5
70A
100
AcDbEntity
  8
0
370
     5
390
0
 62
     7
 48
0.013937
100
AcDbLine
 10
1.25
 20
0.0
 30
0.0
 11
1.25
 21
-0.5575
 31
0.0
210
0.0
220
0.0
230
1.0
  0
ENDBLK
  5
70B
100
AcDbEntity
  8
0
390
0
100
AcDbBlockEnd
  0
BLOCK
  5
70C
100
AcDbEntity
  8
0
370
     0
390
0
100
AcDbBlockBegin
  2
BLOCK29
 70
     0
 10
0.0
 20
0.0
 30
0.0
  3
BLOCK29
  1

  0
LINE
  5
70D
100
AcDbEntity
  8
0
370
     5
390
0
 62
     7
 48
0.013937
100
AcDbLine
 10
-1.25
 20
-0.5575
 30
0.0
 11
-1.25
 21
0.0
 31
0.0
210
0.0
220
0.0
230
1.0
  0
LINE
  5
70E
100
AcDbEntity
  8
0
370
     5
390
0
 62
     7
 48
0.00625
100
AcDbLine
 10
-1.25
 20
0.0
 30
0.0
 11
-1.25
 21
0.25
 31
0.0
210
0.0
220
0.0
230
1.0
  0
LINE
  5
70F
100
AcDbEntity
  8
0
370
     5
390
0
 62
     7
 48
0.00585
100
AcDbLine
 10
-1.25
 20
0.25
 30
0.0
 11
-1.016
 21
0.25
 31
0.0
210
0.0
220
0.0
230
1.0
  0
LINE
  5
710
100
AcDbEntity
  8
0
370
     5
390
0
 62
     7
 48
0.006277
100
AcDbLine
 10
-1.016
 20
0.25
 30
0.0
 11
-0.917898
 21
0.018887
 31
0.0
210
0.0
220
0.0
230
1.0
  0
LINE
  5
711
100
AcDbEntity
  8
0
370
     5
390
0
 62
     7
 48
0.000048
100
AcDbLine
 10
-0.917898
 20
0.018887
 30
0.0
 11
-0.917099
 21
0.017155
 31
0.0
210
0.0
220
0.0
230
1.0
  0
LINE
  5
712
100
AcDbEntity
  8
0
370
     5
390
0
 62
     7
 48
0.000048
100
AcDbLine
 10
-0.917099
 20
0.017155
 30
0.0
 11
-0.916195
 21
0.015475
 31
0.0
210
0.0
220
0.0
230
1.0
  0
LINE
  5
713
100
AcDbEntity
  8
0
370
     5
390
0
 62
     7
 48
0.000048
100
AcDbLine
 10
-0.916195
 20
0.015475
 30
0.0
 11
-0.91519
 21
0.013854
 31
0.0
210
0.0
220
0.0
230
1.0
  0
LINE
  5
714
100
AcDbEntity
  8
0
370
     5
390
0
 62
     7
 48
0.000048
100
AcDbLine
 10
-0.91519
 20
0.013854
 30
0.0
 11
-0.914086
 21
0.012298
 31
0.0
210
0.0
220
0.0
230
1.0
  0
LINE
  5
715
100
AcDbEntity
  8
0
370
     5
390
0
 62
     7
 48
0.000048
100
AcDbLine
 10
-0.914086
 20
0.012298
 30
0.0
 11
-0.912889
 21
0.010813
 31
0.0
210
0.0
220
0.0
230
1.0
  0
LINE
  5
716
100
AcDbEntity
  8
0
370
     5
390
0
 62
     7
 48
0.000048
100
AcDbLine
 10
-0.912889
 20
0.010813
 30
0.0
 11
-0.911603
 21
0.009404
 31
0.0
210
0.0
220
0.0
230
1.0
  0
LINE
  5
717
100
AcDbEntity
  8
0
370
     5
390
0
 62
     7
 48
0.000048
100
AcDbLine
 10
-0.911603
 20
0.009404
 30
0.0
 11
-0.910233
 21
0.008077
 31
0.0
210
0.0
220
0.0
230
1.0
  0
LINE
  5
718
100
AcDbEntity
  8
0
370
     5
390
0
 62
     7
 48
0.000048
100
AcDbLine
 10
-0.910233
 20
0.008077
 30
0.0
 11
-0.908783
 21
0.006837
 31
0.0
210
0.0
220
0.0
230
1.0
  0
LINE
  5
719
100
AcDbEntity
  8
0
370
     5
390
0
 62
     7
 48
0.000048
100
AcDbLine
 10
-0.908783
 20
0.006837
 30
0.0
 11
-0.90726
 21
0.005688
 31
0.0
210
0.0
220
0.0
230
1.0
  0
LINE
  5
71A
100
AcDbEntity
  8
0
370
     5
390
0
 62
     7
 48
0.000048
100
AcDbLine
 10
-0.90726
 20
0.005688
 30
0.0
 11
-0.905669
 21
0.004635
 31
0.0
210
0.0
220
0.0
230
1.0
  0
LINE
  5
71B
100
AcDbEntity
  8
0
370
     5
390
0
 62
     7
 48
0.000048
100
AcDbLine
 10
-0.905669
 20
0.004635
 30
0.0
 11
-0.904017
 21
0.003682
 31
0.0
210
0.0
220
0.0
230
1.0
  0
LINE
  5
71C
100
AcDbEntity
  8
0
370
     5
390
0
 62
     7
 48
0.000048
100
AcDbLine
 10
-0.904017
 20
0.003682
 30
0.0
 11
-0.902309
 21
0.002833
 31
0.0
210
0.0
220
0.0
230
1.0
  0
LINE
  5
71D
100
AcDbEntity
  8
0
370
     5
390
0
 62
     7
 48
0.000048
100
AcDbLine
 10
-0.902309
 20
0.002833
 30
0.0
 11
-0.900552
 21
0.00209
 31
0.0
210
0.0
220
0.0
230
1.0
  0
LINE
  5
71E
100
AcDbEntity
  8
0
370
     5
390
0
 62
     7
 48
0.000048
100
AcDbLine
 10
-0.900552
 20
0.00209
 30
0.0
 11
-0.898753
 21
0.001456
 31
0.0
210
0.0
220
0.0
230
1.0
  0
LINE
  5
71F
100
AcDbEntity
  8
0
370
     5
390
0
 62
     7
 48
0.000048
100
AcDbLine
 10
-0.898753
 20
0.001456
 30
0.0
 11
-0.896918
 21
0.000935
 31
0.0
210
0.0
220
0.0
230
1.0
  0
LINE
  5
720
100
AcDbEntity
  8
0
370
     5
390
0
 62
     7
 48
0.000048
100
AcDbLine
 10
-0.896918
 20
0.000935
 30
0.0
 11
-0.895054
 21
0.000527
 31
0.0
210
0.0
220
0.0
230
1.0
  0
LINE
  5
721
100
AcDbEntity
  8
0
370
     5
390
0
 62
     7
 48
0.000048
100
AcDbLine
 10
-0.895054
 20
0.000527
 30
0.0
 11
-0.893169
 21
0.000235
 31
0.0
210
0.0
220
0.0
230
1.0
  0
LINE
  5
722
100
AcDbEntity
  8
0
370
     5
390
0
 62
     7
 48
0.000048
100
AcDbLine
 10
-0.893169
 20
0.000235
 30
0.0
 11
-0.89127
 21
0.000059
 31
0.0
210
0.0
220
0.0
230
1.0
  0
LINE
  5
723
100
AcDbEntity
  8
0
370
     5
390
0
 62
     7
 48
0.000048
100
AcDbLine
 10
-0.89127
 20
0.000059
 30
0.0
 11
-0.889363
 21
0.0
 31
0.0
210
0.0
220
0.0
230
1.0
  0
LINE
  5
724
100
AcDbEntity
  8
0
370
     5
390
0
 62
     7
 48
0.002268
100
AcDbLine
 10
-0.889363
 20
0.0
 30
0.0
 11
-0.798637
 21
0.0
 31
0.0
210
0.0
220
0.0
230
1.0
  0
LINE
  5
725
100
AcDbEntity
  8
0
370
     5
390
0
 62
     7
 48
0.000048
100
AcDbLine
 10
-0.798637
 20
0.0
 30
0.0
 11
-0.79673
 21
0.000059
 31
0.0
210
0.0
220
0.0
230
1.0
  0
LINE
  5
726
100
AcDbEntity
  8
0
370
     5
390
0
 62
     7
 48
0.000048
100
AcDbLine
 10
-0.79673
 20
0.000059
 30
0.0
 11
-0.794831
 21
0.000235
 31
0.0
210
0.0
220
0.0
230
1.0
  0
LINE
  5
727
100
AcDbEntity
  8
0
370
     5
390
0
 62
     7
 48
0.000048
100
AcDbLine
 10
-0.794831
 20
0.000235
 30
0.0
 11
-0.792946
 21
0.000527
 31
0.0
210
0.0
220
0.0
230
1.0
  0
LINE
  5
728
100
AcDbEntity
  8
0
370
     5
390
0
 62
     7
 48
0.000048
100
AcDbLine
 10
-0.792946
 20
0.000527
 30
0.0
 11
-0.791082
 21
0.000935
 31
0.0
210
0.0
220
0.0
230
1.0
  0
LINE
  5
729
100
AcDbEntity
  8
0
370
     5
390
0
 62
     7
 48
0.000048
100
AcDbLine
 10
-0.791082
 20
0.000935
 30
0.0
 11
-0.789247
 21
0.001456
 31
0.0
210
0.0
220
0.0
230
1.0
  0
LINE
  5
72A
100
AcDbEntity
  8
0
370
     5
390
0
 62
     7
 48
0.000048
100
AcDbLine
 10
-0.789247
 20
0.001456
 30
0.0
 11
-0.787448
 21
0.00209
 31
0.0
210
0.0
220
0.0
230
1.0
  0
LINE
  5
72B
100
AcDbEntity
  8
0
370
     5
390
0
 62
     7
 48
0.000048
100
AcDbLine
 10
-0.787448
 20
0.00209
 30
0.0
 11
-0.785691
 21
0.002833
 31
0.0
210
0.0
220
0.0
230
1.0
  0
LINE
  5
72C
100
AcDbEntity
  8
0
370
     5
390
0
 62
     7
 48
0.000048
100
AcDbLine
 10
-0.785691
 20
0.002833
 30
0.0
 11
-0.783983
 21
0.003682
 31
0.0
210
0.0
220
0.0
230
1.0
  0
LINE
  5
72D
100
AcDbEntity
  8
0
370
     5
390
0
 62
     7
 48
0.000048
100
AcDbLine
 10
-0.783983
 20
0.003682
 30
0.0
 11
-0.782331
 21
0.004635
 31
0.0
210
0.0
220
0.0
230
1.0
  0
LINE
  5
72E
100
AcDbEntity
  8
0
370
     5
390
0
 62
     7
 48
0.000048
100
AcDbLine
 10
-0.782331
 20
0.004635
 30
0.0
 11
-0.78074
 21
0.005688
 31
0.0
210
0.0
220
0.0
230
1.0
  0
LINE
  5
72F
100
AcDbEntity
  8
0
370
     5
390
0
 62
     7
 48
0.000048
100
AcDbLine
 10
-0.78074
 20
0.005688
 30
0.0
 11
-0.779217
 21
0.006837
 31
0.0
210
0.0
220
0.0
230
1.0
  0
LINE
  5
730
100
AcDbEntity
  8
0
370
     5
390
0
 62
     7
 48
0.000048
100
AcDbLine
 10
-0.779217
 20
0.006837
 30
0.0
 11
-0.777768
 21
0.008077
 31
0.0
210
0.0
220
0.0
230
1.0
  0
LINE
  5
731
100
AcDbEntity
  8
0
370
     5
390
0
 62
     7
 48
0.000048
100
AcDbLine
 10
-0.777768
 20
0.008077
 30
0.0
 11
-0.776397
 21
0.009404
 31
0.0
210
0.0
220
0.0
230
1.0
  0
LINE
  5
732
100
AcDbEntity
  8
0
370
     5
390
0
 62
     7
 48
0.000048
100
AcDbLine
 10
-0.776397
 20
0.009404
 30
0.0
 11
-0.775111
 21
0.010813
 31
0.0
210
0.0
220
0.0
230
1.0
  0
LINE
  5
733
100
AcDbEntity
  8
0
370
     5
390
0
 62
     7
 48
0.000048
100
AcDbLine
 10
-0.775111
 20
0.010813
 30
0.0
 11
-0.773914
 21
0.012298
 31
0.0
210
0.0
220
0.0
230
1.0
  0
LINE
  5
734
100
AcDbEntity
  8
0
370
     5
390
0
 62
     7
 48
0.000048
100
AcDbLine
 10
-0.773914
 20
0.012298
 30
0.0
 11
-0.77281
 21
0.013854
 31
0.0
210
0.0
220
0.0
230
1.0
  0
LINE
  5
735
100
AcDbEntity
  8
0
370
     5
390
0
 62
     7
 48
0.000048
100
AcDbLine
 10
-0.77281
 20
0.013854
 30
0.0
 11
-0.771805
 21
0.015475
 31
0.0
210
0.0
220
0.0
230
1.0
  0
LINE
  5
736
100
AcDbEntity
  8
0
370
     5
390
0
 62
     7
 48
0.000048
100
AcDbLine
 10
-0.771805
 20
0.015475
 30
0.0
 11
-0.770901
 21
0.017155
 31
0.0
210
0.0
220
0.0
230
1.0
  0
LINE
  5
737
100
AcDbEntity
  8
0
370
     5
390
0
 62
     7
 48
0.000048
100
AcDbLine
 10
-0.770901
 20
0.017155
 30
0.0
 11
-0.770101
 21
0.018887
 31
0.0
210
0.0
220
0.0
230
1.0
  0
LINE
  5
738
100
AcDbEntity
  8
0
370
     5
390
0
 62
     7
 48
0.006277
100
AcDbLine
 10
-0.770101
 20
0.018887
 30
0.0
 11
-0.672
 21
0.25
 31
0.0
210
0.0
220
0.0
230
1.0
  0
LINE
  5
739
100
AcDbEntity
  8
0
370
     5
390
0
 62
     7
 48
0.007425
100
AcDbLine
 10
-0.672
 20
0.25
 30
0.0
 11
-0.375
 21
0.25
 31
0.0
210
0.0
220
0.0
230
1.0
  0
LINE
  5
73A
100
AcDbEntity
  8
0
370
     5
390
0
 62
     7
 48
0.03937
100
AcDbLine
 10
-0.375
 20
0.25
 30
0.0
 11
-0.375
 21
-8.9375
 31
0.0
210
0.0
220
0.0
230
1.0
  0
LINE
  5
73B
100
AcDbEntity
  8
0
370
     5
390
0
 62
     7
 48
0.03937
100
AcDbLine
 10
-0.375
 20
-8.9375
 30
0.0
 11
-2.31
 21
-8.9375
 31
0.0
210
0.0
220
0.0
230
1.0
  0
LINE
  5
73C
100
AcDbEntity
  8
0
370
     5
390
0
 62
     7
 48
0.03937
100
AcDbLine
 10
-2.31
 20
-8.9375
 30
0.0
 11
-2.31
 21
-2.22847
 31
0.0
210
0.0
220
0.0
230
1.0
  0
LINE
  5
73D
100
AcDbEntity
  8
0
370
     5
390
0
 62
     7
 48
0.03937
100
AcDbLine
 10
-2.31
 20
-2.22847
 30
0.0
 11
-0.94
 21
-1.4375
 31
0.0
210
0.0
220
0.0
230
1.0
  0
LINE
  5
73E
100
AcDbEntity
  8
0
370
     5
390
0
 62
     7
 48
0.03937
100
AcDbLine
 10
-0.94
 20
-1.4375
 30
0.0
 11
-0.94
 21
-0.598481
 31
0.0
210
0.0
220
0.0
230
1.0
  0
LINE
  5
73F
100
AcDbEntity
  8
0
370
     5
390
0
 62
     7
 48
0.00065
100
AcDbLine
 10
-0.94
 20
-0.598481
 30
0.0
 11
-0.9175
 21
-0.58549
 31
0.0
210
0.0
220
0.0
230
1.0
  0
LINE
  5
740
100
AcDbEntity
  8
0
370
     5
390
0
 62
     7
 48
0.000028
100
AcDbLine
 10
-0.9175
 20
-0.58549
 30
0.0
 11
-0.91655
 21
-0.584894
 31
0.0
210
0.0
220
0.0
230
1.0
  0
LINE
  5
741
100
AcDbEntity
  8
0
370
     5
390
0
 62
     7
 48
0.000028
100
AcDbLine
 10
-0.91655
 20
-0.584894
 30
0.0
 11
-0.915648
 21
-0.584227
 31
0.0
210
0.0
220
0.0
230
1.0
  0
LINE
  5
742
100
AcDbEntity
  8
0
370
     5
390
0
 62
     7
 48
0.000028
100
AcDbLine
 10
-0.915648
 20
-0.584227
 30
0.0
 11
-0.914797
 21
-0.583496
 31
0.0
210
0.0
220
0.0
230
1.0
  0
LINE
  5
743
100
AcDbEntity
  8
0
370
     5
390
0
 62
     7
 48
0.000028
100
AcDbLine
 10
-0.914797
 20
-0.583496
 30
0.0
 11
-0.914004
 21
-0.582703
 31
0.0
210
0.0
220
0.0
230
1.0
  0
LINE
  5
744
100
AcDbEntity
  8
0
370
     5
390
0
 62
     7
 48
0.000028
100
AcDbLine
 10
-0.914004
 20
-0.582703
 30
0.0
 11
-0.913273
 21
-0.581852
 31
0.0
210
0.0
220
0.0
230
1.0
  0
LINE
  5
745
100
AcDbEntity
  8
0
370
     5
390
0
 62
     7
 48
0.000028
100
AcDbLine
 10
-0.913273
 20
-0.581852
 30
0.0
 11
-0.912606
 21
-0.58095
 31
0.0
210
0.0
220
0.0
230
1.0
  0
LINE
  5
746
100
AcDbEntity
  8
0
370
     5
390
0
 62
     7
 48
0.000028
100
AcDbLine
 10
-0.912606
 20
-0.58095
 30
0.0
 11
-0.91201
 21
-0.58
 31
0.0
210
0.0
220
0.0
230
1.0
  0
LINE
  5
747
100
AcDbEntity
  8
0
370
     5
390
0
 62
     7
 48
0.000028
100
AcDbLine
 10
-0.91201
 20
-0.58
 30
0.0
 11
-0.911485
 21
-0.579008
 31
0.0
210
0.0
220
0.0
230
1.0
  0
LINE
  5
748
100
AcDbEntity
  8
0
370
     5
390
0
 62
     7
 48
0.000028
100
AcDbLine
 10
-0.911485
 20
-0.579008
 30
0.0
 11
-0.911037
 21
-0.57798
 31
0.0
210
0.0
220
0.0
230
1.0
  0
LINE
  5
749
100
AcDbEntity
  8
0
370
     5
390
0
 62
     7
 48
0.000028
100
AcDbLine
 10
-0.911037
 20
-0.57798
 30
0.0
 11
-0.910666
 21
-0.576921
 31
0.0
210
0.0
220
0.0
230
1.0
  0
LINE
  5
74A
100
AcDbEntity
  8
0
370
     5
390
0
 62
     7
 48
0.000028
100
AcDbLine
 10
-0.910666
 20
-0.576921
 30
0.0
 11
-0.910376
 21
-0.575838
 31
0.0
210
0.0
220
0.0
230
1.0
  0
LINE
  5
74B
100
AcDbEntity
  8
0
370
     5
390
0
 62
     7
 48
0.000028
100
AcDbLine
 10
-0.910376
 20
-0.575838
 30
0.0
 11
-0.910168
 21
-0.574736
 31
0.0
210
0.0
220
0.0
230
1.0
  0
LINE
  5
74C
100
AcDbEntity
  8
0
370
     5
390
0
 62
     7
 48
0.000028
100
AcDbLine
 10
-0.910168
 20
-0.574736
 30
0.0
 11
-0.910042
 21
-0.573621
 31
0.0
210
0.0
220
0.0
230
1.0
  0
LINE
  5
74D
100
AcDbEntity
  8
0
370
     5
390
0
 62
     7
 48
0.000028
100
AcDbLine
 10
-0.910042
 20
-0.573621
 30
0.0
 11
-0.91
 21
-0.5725
 31
0.0
210
0.0
220
0.0
230
1.0
  0
LINE
  5
74E
100
AcDbEntity
  8
0
370
     5
390
0
 62
     7
 48
0.000028
100
AcDbLine
 10
-0.91
 20
-0.5725
 30
0.0
 11
-0.910042
 21
-0.571379
 31
0.0
210
0.0
220
0.0
230
1.0
  0
LINE
  5
74F
100
AcDbEntity
  8
0
370
     5
390
0
 62
     7
 48
0.000028
100
AcDbLine
 10
-0.910042
 20
-0.571379
 30
0.0
 11
-0.910168
 21
-0.570264
 31
0.0
210
0.0
220
0.0
230
1.0
  0
LINE
  5
750
100
AcDbEntity
  8
0
370
     5
390
0
 62
     7
 48
0.000028
100
AcDbLine
 10
-0.910168
 20
-0.570264
 30
0.0
 11
-0.910376
 21
-0.569162
 31
0.0
210
0.0
220
0.0
230
1.0
  0
LINE
  5
751
100
AcDbEntity
  8
0
370
     5
390
0
 62
     7
 48
0.000028
100
AcDbLine
 10
-0.910376
 20
-0.569162
 30
0.0
 11
-0.910666
 21
-0.568079
 31
0.0
210
0.0
220
0.0
230
1.0
  0
LINE
  5
752
100
AcDbEntity
  8
0
370
     5
390
0
 62
     7
 48
0.000028
100
AcDbLine
 10
-0.910666
 20
-0.568079
 30
0.0
 11
-0.911037
 21
-0.56702
 31
0.0
210
0.0
220
0.0
230
1.0
  0
LINE
  5
753
100
AcDbEntity
  8
0
370
     5
390
0
 62
     7
 48
0.000028
100
AcDbLine
 10
-0.911037
 20
-0.56702
 30
0.0
 11
-0.911485
 21
-0.565992
 31
0.0
210
0.0
220
0.0
230
1.0
  0
LINE
  5
754
100
AcDbEntity
  8
0
370
     5
390
0
 62
     7
 48
0.000028
100
AcDbLine
 10
-0.911485
 20
-0.565992
 30
0.0
 11
-0.91201
 21
-0.565
 31
0.0
210
0.0
220
0.0
230
1.0
  0
LINE
  5
755
100
AcDbEntity
  8
0
370
     5
390
0
 62
     7
 48
0.000028
100
AcDbLine
 10
-0.91201
 20
-0.565
 30
0.0
 11
-0.912606
 21
-0.56405
 31
0.0
210
0.0
220
0.0
230
1.0
  0
LINE
  5
756
100
AcDbEntity
  8
0
370
     5
390
0
 62
     7
 48
0.000028
100
AcDbLine
 10
-0.912606
 20
-0.56405
 30
0.0
 11
-0.913273
 21
-0.563148
 31
0.0
210
0.0
220
0.0
230
1.0
  0
LINE
  5
757
100
AcDbEntity
  8
0
370
     5
390
0
 62
     7
 48
0.000028
100
AcDbLine
 10
-0.913273
 20
-0.563148
 30
0.0
 11
-0.914004
 21
-0.562297
 31
0.0
210
0.0
220
0.0
230
1.0
  0
LINE
  5
758
100
AcDbEntity
  8
0
370
     5
390
0
 62
     7
 48
0.000028
100
AcDbLine
 10
-0.914004
 20
-0.562297
 30
0.0
 11
-0.914797
 21
-0.561504
 31
0.0
210
0.0
220
0.0
230
1.0
  0
LINE
  5
759
100
AcDbEntity
  8
0
370
     5
390
0
 62
     7
 48
0.000028
100
AcDbLine
 10
-0.914797
 20
-0.561504
 30
0.0
 11
-0.915648
 21
-0.560773
 31
0.0
210
0.0
220
0.0
230
1.0
  0
LINE
  5
75A
100
AcDbEntity
  8
0
370
     5
390
0
 62
     7
 48
0.000028
100
AcDbLine
 10
-0.915648
 20
-0.560773
 30
0.0
 11
-0.91655
 21
-0.560106
 31
0.0
210
0.0
220
0.0
230
1.0
  0
LINE
  5
75B
100
AcDbEntity
  8
0
370
     5
390
0
 62
     7
 48
0.000028
100
AcDbLine
 10
-0.91655
 20
-0.560106
 30
0.0
 11
-0.9175
 21
-0.55951
 31
0.0
210
0.0
220
0.0
230
1.0
  0
LINE
  5
75C
100
AcDbEntity
  8
0
370
     5
390
0
 62
     7
 48
0.000028
100
AcDbLine
 10
-0.9175
 20
-0.55951
 30
0.0
 11
-0.918492
 21
-0.558985
 31
0.0
210
0.0
220
0.0
230
1.0
  0
LINE
  5
75D
100
AcDbEntity
  8
0
370
     5
390
0
 62
     7
 48
0.000028
100
AcDbLine
 10
-0.918492
 20
-0.558985
 30
0.0
 11
-0.91952
 21
-0.558537
 31
0.0
210
0.0
220
0.0
230
1.0
  0
LINE
  5
75E
100
AcDbEntity
  8
0
370
     5
390
0
 62
     7
 48
0.000028
100
AcDbLine
 10
-0.91952
 20
-0.558537
 30
0.0
 11
-0.920579
 21
-0.558166
 31
0.0
210
0.0
220
0.0
230
1.0
  0
LINE
  5
75F
100
AcDbEntity
  8
0
370
     5
390
0
 62
     7
 48
0.000028
100
AcDbLine
 10
-0.920579
 20
-0.558166
 30
0.0
 11
-0.921662
 21
-0.557876
 31
0.0
210
0.0
220
0.0
230
1.0
  0
LINE
  5
760
100
AcDbEntity
  8
0
370
     5
390
0
 62
     7
 48
0.000028
100
AcDbLine
 10
-0.921662
 20
-0.557876
 30
0.0
 11
-0.922764
 21
-0.557668
 31
0.0
210
0.0
220
0.0
230
1.0
  0
LINE
  5
761
100
AcDbEntity
  8
0
370
     5
390
0
 62
     7
 48
0.000028
100
AcDbLine
 10
-0.922764
 20
-0.557668
 30
0.0
 11
-0.923879
 21
-0.557542
 31
0.0
210
0.0
220
0.0
230
1.0
  0
LINE
  5
762
100
AcDbEntity
  8
0
370
     5
390
0
 62
     7
 48
0.000028
100
AcDbLine
 10
-0.923879
 20
-0.557542
 30
0.0
 11
-0.925
 21
-0.5575
 31
0.0
210
0.0
220
0.0
230
1.0
  0
LINE
  5
763
100
AcDbEntity
  8
0
370
     5
390
0
 62
     7
 48
0.008125
100
AcDbLine
 10
-0.925
 20
-0.5575
 30
0.0
 11
-1.25
 21
-0.5575
 31
0.0
210
0.0
220
0.0
230
1.0
  0
ENDBLK
  5
764
100
AcDbEntity
  8
0
390
0
100
AcDbBlockEnd
  0
BLOCK
  5
765
100
AcDbEntity
  8
0
370
     0
390
0
100
AcDbBlockBegin
  2
BLOCK30
 70
     0
 10
0.0
 20
0.0
 30
0.0
  3
BLOCK30
  1

  0
LINE
  5
766
100
AcDbEntity
  8
0
370
     5
390
0
 62
     7
 48
0.00775
100
AcDbLine
 10
-2.0
 20
-0.5575
 30
0.0
 11
-2.31
 21
-0.5575
 31
0.0
210
0.0
220
0.0
230
1.0
  0
LINE
  5
767
100
AcDbEntity
  8
0
370
     5
390
0
 62
     7
 48
0.013937
100
AcDbLine
 10
-2.31
 20
-0.5575
 30
0.0
 11
-2.31
 21
0.0
 31
0.0
210
0.0
220
0.0
230
1.0
  0
LINE
  5
768
100
AcDbEntity
  8
0
370
     5
390
0
 62
     7
 48
0.00775
100
AcDbLine
 10
-2.31
 20
0.0
 30
0.0
 11
-2.0
 21
0.0
 31
0.0
210
0.0
220
0.0
230
1.0
  0
LINE
  5
769
100
AcDbEntity
  8
0
370
     5
390
0
 62
     7
 48
0.013937
100
AcDbLine
 10
-2.0
 20
0.0
 30
0.0
 11
-2.0
 21
-0.5575
 31
0.0
210
0.0
220
0.0
230
1.0
  0
ENDBLK
  5
76A
100
AcDbEntity
  8
0
390
0
100
AcDbBlockEnd
  0
ENDSEC
  0
SECTION
  2
ENTITIES
  0
VIEWPORT
  5
451
100
AcDbEntity
 67
     1
  8
0
370
     0
390
0
 62
     0
 48
0.0
100
AcDbViewport
 10
0.0
 20
0.0
 30
0.0
 40
1000.0
 41
1000.0
 68
     1
 69
     1
 12
0.0
 22
0.0
 13
0.0
 23
0.0
 14
1.0
 24
1.0
 15
1.0
 25
1.0
 16
0.0
 26
0.0
 36
1.0
 17
0.0
 27
0.0
 37
0.0
 42
50.0
 43
0.0
 44
0.0
 45
1000.0
 50
0.0
 51
0.0
 72
   100
 90
        0
340
0
  1

281
     0
 71
     0
 74
     1
110
0.0
120
0.0
130
0.0
111
1.0
121
0.0
131
0.0
112
0.0
122
1.0
132
0.0
345
0
346
0
 79
     0
146
0.0
  0
TEXT
  5
27
100
AcDbEntity
  8
0
370
    13
390
0
 62
     7
 48
0.03937
100
AcDbText
 10
7.774762
 20
1.08216
 30
0.0
 40
0.06
  1
SIZE:
 72
     5
 11
8.064134
 21
1.08216
 31
0.0
100
AcDbText
  0
TEXT
  5
28
100
AcDbEntity
  8
0
370
    13
390
0
 62
     7
 48
0.03937
100
AcDbText
 10
7.774762
 20
0.894218
 30
0.0
 40
0.06
  1
TYPE:
 72
     5
 11
8.064134
 21
0.894218
 31
0.0
100
AcDbText
  0
POINT
  5
29
100
AcDbEntity
  8
0
370
     5
390
0
 62
     7
 48
0.03937
100
AcDbPoint
 10
0.0
 20
0.0
 30
0.0
210
0.0
220
0.0
230
1.0
  0
POINT
  5
2A
100
AcDbEntity
  8
0
370
     5
390
0
 62
     7
 48
0.03937
100
AcDbPoint
 10
8.029755
 20
0.53125
 30
0.0
210
0.0
220
0.0
230
1.0
  0
LINE
  5
2B
100
AcDbEntity
  8
1
370
    35
390
0
 62
     7
 48
0.000032
100
AcDbLine
 10
9.035676
 20
0.778761
 30
0.0
 11
9.036922
 21
0.778449
 31
0.0
210
0.0
220
0.0
230
1.0
  0
LINE
  5
2C
100
AcDbEntity
  8
1
370
    35
390
0
 62
     7
 48
0.03937
100
AcDbLine
 10
0.25
 20
0.25
 30
0.0
 11
0.25
 21
8.25
 31
0.0
210
0.0
220
0.0
230
1.0
  0
LINE
  5
2D
100
AcDbEntity
  8
1
370
    35
390
0
 62
     7
 48
0.03937
100
AcDbLine
 10
7.75
 20
1.1875
 30
0.0
 11
10.75
 21
1.1875
 31
0.0
210
0.0
220
0.0
230
1.0
  0
LINE
  5
2E
100
AcDbEntity
  8
1
370
    35
390
0
 62
     7
 48
0.03937
100
AcDbLine
 10
7.75
 20
1.0
 30
0.0
 11
10.75
 21
1.0
 31
0.0
210
0.0
220
0.0
230
1.0
  0
LINE
  5
2F
100
AcDbEntity
  8
1
370
    35
390
0
 62
     7
 48
0.03937
100
AcDbLine
 10
0.25
 20
8.25
 30
0.0
 11
10.75
 21
8.25
 31
0.0
210
0.0
220
0.0
230
1.0
  0
LINE
  5
30
100
AcDbEntity
  8
1
370
    35
390
0
 62
     7
 48
0.03937
100
AcDbLine
 10
7.75
 20
0.8125
 30
0.0
 11
10.75
 21
0.8125
 31
0.0
210
0.0
220
0.0
230
1.0
  0
LINE
  5
31
100
AcDbEntity
  8
1
370
    35
390
0
 62
     7
 48
0.03937
100
AcDbLine
 10
0.25
 20
0.25
 30
0.0
 11
10.75
 21
0.25
 31
0.0
210
0.0
220
0.0
230
1.0
  0
LINE
  5
32
100
AcDbEntity
  8
1
370
    35
390
0
 62
     7
 48
0.03937
100
AcDbLine
 10
10.75
 20
8.25
 30
0.0
 11
10.75
 21
0.25
 31
0.0
210
0.0
220
0.0
230
1.0
  0
LINE
  5
33
100
AcDbEntity
  8
1
370
    35
390
0
 62
     7
 48
0.03937
100
AcDbLine
 10
7.75
 20
1.1875
 30
0.0
 11
7.75
 21
0.25
 31
0.0
210
0.0
220
0.0
230
1.0
  0
CIRCLE
  5
34
100
AcDbEntity
  8
0
370
    70
390
0
 62
     7
 48
0.03937
100
AcDbCircle
 10
8.029755
 20
0.53125
 30
0.0
 40
0.2475
210
0.0
220
0.0
230
1.0
  0
CIRCLE
  5
35
100
AcDbEntity
  8
0
370
    70
390
0
 62
     7
 48
0.03937
100
AcDbCircle
 10
8.029755
 20
0.53125
 30
0.0
 40
0.195
210
0.0
220
0.0
230
1.0
  0
CIRCLE
  5
36
100
AcDbEntity
  8
0
370
    35
390
0
 62
     7
 48
0.03937
100
AcDbCircle
 10
8.029755
 20
0.7525
 30
0.0
 40
0.015
210
0.0
220
0.0
230
1.0
  0
CIRCLE
  5
37
100
AcDbEntity
  8
0
370
    35
390
0
 62
     7
 48
0.03937
100
AcDbCircle
 10
8.251005
 20
0.53125
 30
0.0
 40
0.015
210
0.0
220
0.0
230
1.0
  0
CIRCLE
  5
38
100
AcDbEntity
  8
0
370
    35
390
0
 62
     7
 48
0.03937
100
AcDbCircle
 10
8.186202
 20
0.687697
 30
0.0
 40
0.015
210
0.0
220
0.0
230
1.0
  0
CIRCLE
  5
39
100
AcDbEntity
  8
0
370
    35
390
0
 62
     7
 48
0.03937
100
AcDbCircle
 10
8.029755
 20
0.31
 30
0.0
 40
0.015
210
0.0
220
0.0
230
1.0
  0
CIRCLE
  5
3A
100
AcDbEntity
  8
0
370
    35
390
0
 62
     7
 48
0.03937
100
AcDbCircle
 10
8.186202
 20
0.374803
 30
0.0
 40
0.015
210
0.0
220
0.0
230
1.0
  0
CIRCLE
  5
3B
100
AcDbEntity
  8
0
370
    35
390
0
 62
     7
 48
0.03937
100
AcDbCircle
 10
7.808505
 20
0.53125
 30
0.0
 40
0.015
210
0.0
220
0.0
230
1.0
  0
CIRCLE
  5
3C
100
AcDbEntity
  8
0
370
    35
390
0
 62
     7
 48
0.03937
100
AcDbCircle
 10
7.873308
 20
0.687697
 30
0.0
 40
0.015
210
0.0
220
0.0
230
1.0
  0
CIRCLE
  5
3D
100
AcDbEntity
  8
0
370
    35
390
0
 62
     7
 48
0.03937
100
AcDbCircle
 10
7.873308
 20
0.374803
 30
0.0
 40
0.015
210
0.0
220
0.0
230
1.0
  0
POLYLINE
  5
3E
100
AcDbEntity
  8
0
370
    13
390
0
 62
     7
 48
0.03937
100
AcDb2dPolyline
 66
     1
 10
0.0
 20
0.0
 30
0.0
 70
     1
 71
   118
  0
VERTEX
  5
3F
100
AcDbEntity
  8
0
370
     0
390
0
100
AcDbVertex
100
AcDb2dVertex
 10
8.029831
 20
0.605292
 30
0.0
  0
VERTEX
  5
40
100
AcDbEntity
  8
0
370
     0
390
0
100
AcDbVertex
100
AcDb2dVertex
 10
8.029019
 20
0.60375
 30
0.0
  0
VERTEX
  5
41
100
AcDbEntity
  8
0
370
     0
390
0
100
AcDbVertex
100
AcDb2dVertex
 10
8.021177
 20
0.589826
 30
0.0
  0
VERTEX
  5
42
100
AcDbEntity
  8
0
370
     0
390
0
100
AcDbVertex
100
AcDb2dVertex
 10
8.020426
 20
0.588405
 30
0.0
  0
VERTEX
  5
43
100
AcDbEntity
  8
0
370
     0
390
0
100
AcDbVertex
100
AcDb2dVertex
 10
8.019684
 20
0.586917
 30
0.0
  0
VERTEX
  5
44
100
AcDbEntity
  8
0
370
     0
390
0
100
AcDbVertex
100
AcDb2dVertex
 10
8.018954
 20
0.58536
 30
0.0
  0
VERTEX
  5
45
100
AcDbEntity
  8
0
370
     0
390
0
100
AcDbVertex
100
AcDb2dVertex
 10
8.018235
 20
0.583734
 30
0.0
  0
VERTEX
  5
46
100
AcDbEntity
  8
0
370
     0
390
0
100
AcDbVertex
100
AcDb2dVertex
 10
8.017528
 20
0.582038
 30
0.0
  0
VERTEX
  5
47
100
AcDbEntity
  8
0
370
     0
390
0
100
AcDbVertex
100
AcDb2dVertex
 10
8.01683
 20
0.580272
 30
0.0
  0
VERTEX
  5
48
100
AcDbEntity
  8
0
370
     0
390
0
100
AcDbVertex
100
AcDb2dVertex
 10
8.016143
 20
0.578438
 30
0.0
  0
VERTEX
  5
49
100
AcDbEntity
  8
0
370
     0
390
0
100
AcDbVertex
100
AcDb2dVertex
 10
8.015467
 20
0.576534
 30
0.0
  0
VERTEX
  5
4A
100
AcDbEntity
  8
0
370
     0
390
0
100
AcDbVertex
100
AcDb2dVertex
 10
8.014802
 20
0.574562
 30
0.0
  0
VERTEX
  5
4B
100
AcDbEntity
  8
0
370
     0
390
0
100
AcDbVertex
100
AcDb2dVertex
 10
8.014147
 20
0.572519
 30
0.0
  0
VERTEX
  5
4C
100
AcDbEntity
  8
0
370
     0
390
0
100
AcDbVertex
100
AcDb2dVertex
 10
8.012525
 20
0.574142
 30
0.0
  0
VERTEX
  5
4D
100
AcDbEntity
  8
0
370
     0
390
0
100
AcDbVertex
100
AcDb2dVertex
 10
8.011871
 20
0.576531
 30
0.0
  0
VERTEX
  5
4E
100
AcDbEntity
  8
0
370
     0
390
0
100
AcDbVertex
100
AcDb2dVertex
 10
8.011163
 20
0.578771
 30
0.0
  0
VERTEX
  5
4F
100
AcDbEntity
  8
0
370
     0
390
0
100
AcDbVertex
100
AcDb2dVertex
 10
8.010404
 20
0.580859
 30
0.0
  0
VERTEX
  5
50
100
AcDbEntity
  8
0
370
     0
390
0
100
AcDbVertex
100
AcDb2dVertex
 10
8.009591
 20
0.582795
 30
0.0
  0
VERTEX
  5
51
100
AcDbEntity
  8
0
370
     0
390
0
100
AcDbVertex
100
AcDb2dVertex
 10
8.008726
 20
0.584579
 30
0.0
  0
VERTEX
  5
52
100
AcDbEntity
  8
0
370
     0
390
0
100
AcDbVertex
100
AcDb2dVertex
 10
8.007806
 20
0.586212
 30
0.0
  0
VERTEX
  5
53
100
AcDbEntity
  8
0
370
     0
390
0
100
AcDbVertex
100
AcDb2dVertex
 10
8.006836
 20
0.587694
 30
0.0
  0
VERTEX
  5
54
100
AcDbEntity
  8
0
370
     0
390
0
100
AcDbVertex
100
AcDb2dVertex
 10
8.00581
 20
0.589025
 30
0.0
  0
VERTEX
  5
55
100
AcDbEntity
  8
0
370
     0
390
0
100
AcDbVertex
100
AcDb2dVertex
 10
8.004733
 20
0.590204
 30
0.0
  0
VERTEX
  5
56
100
AcDbEntity
  8
0
370
     0
390
0
100
AcDbVertex
100
AcDb2dVertex
 10
8.003601
 20
0.591231
 30
0.0
  0
VERTEX
  5
57
100
AcDbEntity
  8
0
370
     0
390
0
100
AcDbVertex
100
AcDb2dVertex
 10
8.002384
 20
0.592136
 30
0.0
  0
VERTEX
  5
58
100
AcDbEntity
  8
0
370
     0
390
0
100
AcDbVertex
100
AcDb2dVertex
 10
8.001043
 20
0.592944
 30
0.0
  0
VERTEX
  5
59
100
AcDbEntity
  8
0
370
     0
390
0
100
AcDbVertex
100
AcDb2dVertex
 10
7.99958
 20
0.593658
 30
0.0
  0
VERTEX
  5
5A
100
AcDbEntity
  8
0
370
     0
390
0
100
AcDbVertex
100
AcDb2dVertex
 10
7.997995
 20
0.594276
 30
0.0
  0
VERTEX
  5
5B
100
AcDbEntity
  8
0
370
     0
390
0
100
AcDbVertex
100
AcDb2dVertex
 10
7.996287
 20
0.5948
 30
0.0
  0
VERTEX
  5
5C
100
AcDbEntity
  8
0
370
     0
390
0
100
AcDbVertex
100
AcDb2dVertex
 10
7.994457
 20
0.595229
 30
0.0
  0
VERTEX
  5
5D
100
AcDbEntity
  8
0
370
     0
390
0
100
AcDbVertex
100
AcDb2dVertex
 10
7.992506
 20
0.595562
 30
0.0
  0
VERTEX
  5
5E
100
AcDbEntity
  8
0
370
     0
390
0
100
AcDbVertex
100
AcDb2dVertex
 10
7.990431
 20
0.595799
 30
0.0
  0
VERTEX
  5
5F
100
AcDbEntity
  8
0
370
     0
390
0
100
AcDbVertex
100
AcDb2dVertex
 10
7.988236
 20
0.595943
 30
0.0
  0
VERTEX
  5
60
100
AcDbEntity
  8
0
370
     0
390
0
100
AcDbVertex
100
AcDb2dVertex
 10
7.985918
 20
0.595991
 30
0.0
  0
VERTEX
  5
61
100
AcDbEntity
  8
0
370
     0
390
0
100
AcDbVertex
100
AcDb2dVertex
 10
7.983971
 20
0.595973
 30
0.0
  0
VERTEX
  5
62
100
AcDbEntity
  8
0
370
     0
390
0
100
AcDbVertex
100
AcDb2dVertex
 10
7.982024
 20
0.59592
 30
0.0
  0
VERTEX
  5
63
100
AcDbEntity
  8
0
370
     0
390
0
100
AcDbVertex
100
AcDb2dVertex
 10
7.980077
 20
0.595835
 30
0.0
  0
VERTEX
  5
64
100
AcDbEntity
  8
0
370
     0
390
0
100
AcDbVertex
100
AcDb2dVertex
 10
7.97813
 20
0.595713
 30
0.0
  0
VERTEX
  5
65
100
AcDbEntity
  8
0
370
     0
390
0
100
AcDbVertex
100
AcDb2dVertex
 10
7.976183
 20
0.595557
 30
0.0
  0
VERTEX
  5
66
100
AcDbEntity
  8
0
370
     0
390
0
100
AcDbVertex
100
AcDb2dVertex
 10
7.974885
 20
0.478313
 30
0.0
  0
VERTEX
  5
67
100
AcDbEntity
  8
0
370
     0
390
0
100
AcDbVertex
100
AcDb2dVertex
 10
7.987647
 20
0.466523
 30
0.0
  0
VERTEX
  5
68
100
AcDbEntity
  8
0
370
     0
390
0
100
AcDbVertex
100
AcDb2dVertex
 10
7.93822
 20
0.466523
 30
0.0
  0
VERTEX
  5
69
100
AcDbEntity
  8
0
370
     0
390
0
100
AcDbVertex
100
AcDb2dVertex
 10
7.953361
 20
0.479178
 30
0.0
  0
VERTEX
  5
6A
100
AcDbEntity
  8
0
370
     0
390
0
100
AcDbVertex
100
AcDb2dVertex
 10
7.953361
 20
0.586796
 30
0.0
  0
VERTEX
  5
6B
100
AcDbEntity
  8
0
370
     0
390
0
100
AcDbVertex
100
AcDb2dVertex
 10
7.945682
 20
0.586905
 30
0.0
  0
VERTEX
  5
6C
100
AcDbEntity
  8
0
370
     0
390
0
100
AcDbVertex
100
AcDb2dVertex
 10
7.943519
 20
0.58686
 30
0.0
  0
VERTEX
  5
6D
100
AcDbEntity
  8
0
370
     0
390
0
100
AcDbVertex
100
AcDb2dVertex
 10
7.941484
 20
0.58673
 30
0.0
  0
VERTEX
  5
6E
100
AcDbEntity
  8
0
370
     0
390
0
100
AcDbVertex
100
AcDb2dVertex
 10
7.939577
 20
0.586511
 30
0.0
  0
VERTEX
  5
6F
100
AcDbEntity
  8
0
370
     0
390
0
100
AcDbVertex
100
AcDb2dVertex
 10
7.937799
 20
0.586203
 30
0.0
  0
VERTEX
  5
70
100
AcDbEntity
  8
0
370
     0
390
0
100
AcDbVertex
100
AcDb2dVertex
 10
7.936151
 20
0.585809
 30
0.0
  0
VERTEX
  5
71
100
AcDbEntity
  8
0
370
     0
390
0
100
AcDbVertex
100
AcDb2dVertex
 10
7.93463
 20
0.585327
 30
0.0
  0
VERTEX
  5
72
100
AcDbEntity
  8
0
370
     0
390
0
100
AcDbVertex
100
AcDb2dVertex
 10
7.93324
 20
0.584759
 30
0.0
  0
VERTEX
  5
73
100
AcDbEntity
  8
0
370
     0
390
0
100
AcDbVertex
100
AcDb2dVertex
 10
7.930843
 20
0.583356
 30
0.0
  0
VERTEX
  5
74
100
AcDbEntity
  8
0
370
     0
390
0
100
AcDbVertex
100
AcDb2dVertex
 10
7.928935
 20
0.581582
 30
0.0
  0
VERTEX
  5
75
100
AcDbEntity
  8
0
370
     0
390
0
100
AcDbVertex
100
AcDb2dVertex
 10
7.92736
 20
0.579297
 30
0.0
  0
VERTEX
  5
76
100
AcDbEntity
  8
0
370
     0
390
0
100
AcDbVertex
100
AcDb2dVertex
 10
7.926092
 20
0.57648
 30
0.0
  0
VERTEX
  5
77
100
AcDbEntity
  8
0
370
     0
390
0
100
AcDbVertex
100
AcDb2dVertex
 10
7.925573
 20
0.574872
 30
0.0
  0
VERTEX
  5
78
100
AcDbEntity
  8
0
370
     0
390
0
100
AcDbVertex
100
AcDb2dVertex
 10
7.92513
 20
0.573132
 30
0.0
  0
VERTEX
  5
79
100
AcDbEntity
  8
0
370
     0
390
0
100
AcDbVertex
100
AcDb2dVertex
 10
7.924766
 20
0.571259
 30
0.0
  0
VERTEX
  5
7A
100
AcDbEntity
  8
0
370
     0
390
0
100
AcDbVertex
100
AcDb2dVertex
 10
7.924478
 20
0.569252
 30
0.0
  0
VERTEX
  5
7B
100
AcDbEntity
  8
0
370
     0
390
0
100
AcDbVertex
100
AcDb2dVertex
 10
7.924266
 20
0.567111
 30
0.0
  0
VERTEX
  5
7C
100
AcDbEntity
  8
0
370
     0
390
0
100
AcDbVertex
100
AcDb2dVertex
 10
7.921454
 20
0.567111
 30
0.0
  0
VERTEX
  5
7D
100
AcDbEntity
  8
0
370
     0
390
0
100
AcDbVertex
100
AcDb2dVertex
 10
7.921734
 20
0.569565
 30
0.0
  0
VERTEX
  5
7E
100
AcDbEntity
  8
0
370
     0
390
0
100
AcDbVertex
100
AcDb2dVertex
 10
7.922096
 20
0.571866
 30
0.0
  0
VERTEX
  5
7F
100
AcDbEntity
  8
0
370
     0
390
0
100
AcDbVertex
100
AcDb2dVertex
 10
7.922543
 20
0.574013
 30
0.0
  0
VERTEX
  5
80
100
AcDbEntity
  8
0
370
     0
390
0
100
AcDbVertex
100
AcDb2dVertex
 10
7.923073
 20
0.576006
 30
0.0
  0
VERTEX
  5
81
100
AcDbEntity
  8
0
370
     0
390
0
100
AcDbVertex
100
AcDb2dVertex
 10
7.923684
 20
0.577847
 30
0.0
  0
VERTEX
  5
82
100
AcDbEntity
  8
0
370
     0
390
0
100
AcDbVertex
100
AcDb2dVertex
 10
7.924381
 20
0.579533
 30
0.0
  0
VERTEX
  5
83
100
AcDbEntity
  8
0
370
     0
390
0
100
AcDbVertex
100
AcDb2dVertex
 10
7.92516
 20
0.581064
 30
0.0
  0
VERTEX
  5
84
100
AcDbEntity
  8
0
370
     0
390
0
100
AcDbVertex
100
AcDb2dVertex
 10
7.926023
 20
0.582444
 30
0.0
  0
VERTEX
  5
85
100
AcDbEntity
  8
0
370
     0
390
0
100
AcDbVertex
100
AcDb2dVertex
 10
7.926968
 20
0.58367
 30
0.0
  0
VERTEX
  5
86
100
AcDbEntity
  8
0
370
     0
390
0
100
AcDbVertex
100
AcDb2dVertex
 10
7.929138
 20
0.585687
 30
0.0
  0
VERTEX
  5
87
100
AcDbEntity
  8
0
370
     0
390
0
100
AcDbVertex
100
AcDb2dVertex
 10
7.930418
 20
0.586532
 30
0.0
  0
VERTEX
  5
88
100
AcDbEntity
  8
0
370
     0
390
0
100
AcDbVertex
100
AcDb2dVertex
 10
7.931839
 20
0.587279
 30
0.0
  0
VERTEX
  5
89
100
AcDbEntity
  8
0
370
     0
390
0
100
AcDbVertex
100
AcDb2dVertex
 10
7.933397
 20
0.587925
 30
0.0
  0
VERTEX
  5
8A
100
AcDbEntity
  8
0
370
     0
390
0
100
AcDbVertex
100
AcDb2dVertex
 10
7.935095
 20
0.588473
 30
0.0
  0
VERTEX
  5
8B
100
AcDbEntity
  8
0
370
     0
390
0
100
AcDbVertex
100
AcDb2dVertex
 10
7.936934
 20
0.588921
 30
0.0
  0
VERTEX
  5
8C
100
AcDbEntity
  8
0
370
     0
390
0
100
AcDbVertex
100
AcDb2dVertex
 10
7.938912
 20
0.589269
 30
0.0
  0
VERTEX
  5
8D
100
AcDbEntity
  8
0
370
     0
390
0
100
AcDbVertex
100
AcDb2dVertex
 10
7.941029
 20
0.589518
 30
0.0
  0
VERTEX
  5
8E
100
AcDbEntity
  8
0
370
     0
390
0
100
AcDbVertex
100
AcDb2dVertex
 10
7.943286
 20
0.589667
 30
0.0
  0
VERTEX
  5
8F
100
AcDbEntity
  8
0
370
     0
390
0
100
AcDbVertex
100
AcDb2dVertex
 10
7.945682
 20
0.589716
 30
0.0
  0
VERTEX
  5
90
100
AcDbEntity
  8
0
370
     0
390
0
100
AcDbVertex
100
AcDb2dVertex
 10
7.952171
 20
0.589608
 30
0.0
  0
VERTEX
  5
91
100
AcDbEntity
  8
0
370
     0
390
0
100
AcDbVertex
100
AcDb2dVertex
 10
7.953361
 20
0.594908
 30
0.0
  0
VERTEX
  5
92
100
AcDbEntity
  8
0
370
     0
390
0
100
AcDbVertex
100
AcDb2dVertex
 10
7.951177
 20
0.595142
 30
0.0
  0
VERTEX
  5
93
100
AcDbEntity
  8
0
370
     0
390
0
100
AcDbVertex
100
AcDb2dVertex
 10
7.949034
 20
0.595323
 30
0.0
  0
VERTEX
  5
94
100
AcDbEntity
  8
0
370
     0
390
0
100
AcDbVertex
100
AcDb2dVertex
 10
7.946936
 20
0.595454
 30
0.0
  0
VERTEX
  5
95
100
AcDbEntity
  8
0
370
     0
390
0
100
AcDbVertex
100
AcDb2dVertex
 10
7.944881
 20
0.595532
 30
0.0
  0
VERTEX
  5
96
100
AcDbEntity
  8
0
370
     0
390
0
100
AcDbVertex
100
AcDb2dVertex
 10
7.94287
 20
0.595557
 30
0.0
  0
VERTEX
  5
97
100
AcDbEntity
  8
0
370
     0
390
0
100
AcDbVertex
100
AcDb2dVertex
 10
7.940158
 20
0.5955
 30
0.0
  0
VERTEX
  5
98
100
AcDbEntity
  8
0
370
     0
390
0
100
AcDbVertex
100
AcDb2dVertex
 10
7.9376
 20
0.595331
 30
0.0
  0
VERTEX
  5
99
100
AcDbEntity
  8
0
370
     0
390
0
100
AcDbVertex
100
AcDb2dVertex
 10
7.9352
 20
0.595046
 30
0.0
  0
VERTEX
  5
9A
100
AcDbEntity
  8
0
370
     0
390
0
100
AcDbVertex
100
AcDb2dVertex
 10
7.932953
 20
0.594648
 30
0.0
  0
VERTEX
  5
9B
100
AcDbEntity
  8
0
370
     0
390
0
100
AcDbVertex
100
AcDb2dVertex
 10
7.930864
 20
0.594138
 30
0.0
  0
VERTEX
  5
9C
100
AcDbEntity
  8
0
370
     0
390
0
100
AcDbVertex
100
AcDb2dVertex
 10
7.92893
 20
0.593513
 30
0.0
  0
VERTEX
  5
9D
100
AcDbEntity
  8
0
370
     0
390
0
100
AcDbVertex
100
AcDb2dVertex
 10
7.927152
 20
0.592775
 30
0.0
  0
VERTEX
  5
9E
100
AcDbEntity
  8
0
370
     0
390
0
100
AcDbVertex
100
AcDb2dVertex
 10
7.92553
 20
0.591923
 30
0.0
  0
VERTEX
  5
9F
100
AcDbEntity
  8
0
370
     0
390
0
100
AcDbVertex
100
AcDb2dVertex
 10
7.924063
 20
0.590958
 30
0.0
  0
VERTEX
  5
A0
100
AcDbEntity
  8
0
370
     0
390
0
100
AcDbVertex
100
AcDb2dVertex
 10
7.922751
 20
0.58988
 30
0.0
  0
VERTEX
  5
A1
100
AcDbEntity
  8
0
370
     0
390
0
100
AcDbVertex
100
AcDb2dVertex
 10
7.921574
 20
0.588665
 30
0.0
  0
VERTEX
  5
A2
100
AcDbEntity
  8
0
370
     0
390
0
100
AcDbVertex
100
AcDb2dVertex
 10
7.920506
 20
0.587294
 30
0.0
  0
VERTEX
  5
A3
100
AcDbEntity
  8
0
370
     0
390
0
100
AcDbVertex
100
AcDb2dVertex
 10
7.919549
 20
0.585767
 30
0.0
  0
VERTEX
  5
A4
100
AcDbEntity
  8
0
370
     0
390
0
100
AcDbVertex
100
AcDb2dVertex
 10
7.918703
 20
0.584081
 30
0.0
  0
VERTEX
  5
A5
100
AcDbEntity
  8
0
370
     0
390
0
100
AcDbVertex
100
AcDb2dVertex
 10
7.917966
 20
0.58224
 30
0.0
  0
VERTEX
  5
A6
100
AcDbEntity
  8
0
370
     0
390
0
100
AcDbVertex
100
AcDb2dVertex
 10
7.917339
 20
0.580242
 30
0.0
  0
VERTEX
  5
A7
100
AcDbEntity
  8
0
370
     0
390
0
100
AcDbVertex
100
AcDb2dVertex
 10
7.916824
 20
0.578087
 30
0.0
  0
VERTEX
  5
A8
100
AcDbEntity
  8
0
370
     0
390
0
100
AcDbVertex
100
AcDb2dVertex
 10
7.916418
 20
0.575775
 30
0.0
  0
VERTEX
  5
A9
100
AcDbEntity
  8
0
370
     0
390
0
100
AcDbVertex
100
AcDb2dVertex
 10
7.916123
 20
0.573306
 30
0.0
  0
VERTEX
  5
AA
100
AcDbEntity
  8
0
370
     0
390
0
100
AcDbVertex
100
AcDb2dVertex
 10
7.915938
 20
0.570681
 30
0.0
  0
VERTEX
  5
AB
100
AcDbEntity
  8
0
370
     0
390
0
100
AcDbVertex
100
AcDb2dVertex
 10
7.913659
 20
0.573722
 30
0.0
  0
VERTEX
  5
AC
100
AcDbEntity
  8
0
370
     0
390
0
100
AcDbVertex
100
AcDb2dVertex
 10
7.912577
 20
0.576833
 30
0.0
  0
VERTEX
  5
AD
100
AcDbEntity
  8
0
370
     0
390
0
100
AcDbVertex
100
AcDb2dVertex
 10
7.911392
 20
0.580013
 30
0.0
  0
VERTEX
  5
AE
100
AcDbEntity
  8
0
370
     0
390
0
100
AcDbVertex
100
AcDb2dVertex
 10
7.910106
 20
0.583262
 30
0.0
  0
VERTEX
  5
AF
100
AcDbEntity
  8
0
370
     0
390
0
100
AcDbVertex
100
AcDb2dVertex
 10
7.908719
 20
0.58658
 30
0.0
  0
VERTEX
  5
B0
100
AcDbEntity
  8
0
370
     0
390
0
100
AcDbVertex
100
AcDb2dVertex
 10
7.907229
 20
0.589967
 30
0.0
  0
VERTEX
  5
B1
100
AcDbEntity
  8
0
370
     0
390
0
100
AcDbVertex
100
AcDb2dVertex
 10
7.905638
 20
0.593424
 30
0.0
  0
VERTEX
  5
B2
100
AcDbEntity
  8
0
370
     0
390
0
100
AcDbVertex
100
AcDb2dVertex
 10
7.903945
 20
0.596951
 30
0.0
  0
VERTEX
  5
B3
100
AcDbEntity
  8
0
370
     0
390
0
100
AcDbVertex
100
AcDb2dVertex
 10
7.902151
 20
0.600546
 30
0.0
  0
VERTEX
  5
B4
100
AcDbEntity
  8
0
370
     0
390
0
100
AcDbVertex
100
AcDb2dVertex
 10
7.900255
 20
0.604209
 30
0.0
  0
SEQEND
  5
B5
100
AcDbEntity
  8
0
370
     0
390
0
  0
POLYLINE
  5
B6
100
AcDbEntity
  8
0
370
    13
390
0
 62
     7
 48
0.03937
100
AcDb2dPolyline
 66
     1
 10
0.0
 20
0.0
 30
0.0
 70
     1
 71
    22
  0
VERTEX
  5
B7
100
AcDbEntity
  8
0
370
     0
390
0
100
AcDbVertex
100
AcDb2dVertex
 10
8.036644
 20
0.598478
 30
0.0
  0
VERTEX
  5
B8
100
AcDbEntity
  8
0
370
     0
390
0
100
AcDbVertex
100
AcDb2dVertex
 10
8.035144
 20
0.596448
 30
0.0
  0
VERTEX
  5
B9
100
AcDbEntity
  8
0
370
     0
390
0
100
AcDbVertex
100
AcDb2dVertex
 10
8.033629
 20
0.594168
 30
0.0
  0
VERTEX
  5
BA
100
AcDbEntity
  8
0
370
     0
390
0
100
AcDbVertex
100
AcDb2dVertex
 10
8.032099
 20
0.591638
 30
0.0
  0
VERTEX
  5
BB
100
AcDbEntity
  8
0
370
     0
390
0
100
AcDbVertex
100
AcDb2dVertex
 10
8.030552
 20
0.588855
 30
0.0
  0
VERTEX
  5
BC
100
AcDbEntity
  8
0
370
     0
390
0
100
AcDbVertex
100
AcDb2dVertex
 10
8.028992
 20
0.585822
 30
0.0
  0
VERTEX
  5
BD
100
AcDbEntity
  8
0
370
     0
390
0
100
AcDbVertex
100
AcDb2dVertex
 10
8.027416
 20
0.582539
 30
0.0
  0
VERTEX
  5
BE
100
AcDbEntity
  8
0
370
     0
390
0
100
AcDbVertex
100
AcDb2dVertex
 10
8.025824
 20
0.579005
 30
0.0
  0
VERTEX
  5
BF
100
AcDbEntity
  8
0
370
     0
390
0
100
AcDbVertex
100
AcDb2dVertex
 10
8.024219
 20
0.575219
 30
0.0
  0
VERTEX
  5
C0
100
AcDbEntity
  8
0
370
     0
390
0
100
AcDbVertex
100
AcDb2dVertex
 10
8.022597
 20
0.571182
 30
0.0
  0
VERTEX
  5
C1
100
AcDbEntity
  8
0
370
     0
390
0
100
AcDbVertex
100
AcDb2dVertex
 10
8.020961
 20
0.566895
 30
0.0
  0
VERTEX
  5
C2
100
AcDbEntity
  8
0
370
     0
390
0
100
AcDbVertex
100
AcDb2dVertex
 10
8.018149
 20
0.567869
 30
0.0
  0
VERTEX
  5
C3
100
AcDbEntity
  8
0
370
     0
390
0
100
AcDbVertex
100
AcDb2dVertex
 10
8.020069
 20
0.573183
 30
0.0
  0
VERTEX
  5
C4
100
AcDbEntity
  8
0
370
     0
390
0
100
AcDbVertex
100
AcDb2dVertex
 10
8.021652
 20
0.577253
 30
0.0
  0
VERTEX
  5
C5
100
AcDbEntity
  8
0
370
     0
390
0
100
AcDbVertex
100
AcDb2dVertex
 10
8.023227
 20
0.581049
 30
0.0
  0
VERTEX
  5
C6
100
AcDbEntity
  8
0
370
     0
390
0
100
AcDbVertex
100
AcDb2dVertex
 10
8.024791
 20
0.584573
 30
0.0
  0
VERTEX
  5
C7
100
AcDbEntity
  8
0
370
     0
390
0
100
AcDbVertex
100
AcDb2dVertex
 10
8.026342
 20
0.587825
 30
0.0
  0
VERTEX
  5
C8
100
AcDbEntity
  8
0
370
     0
390
0
100
AcDbVertex
100
AcDb2dVertex
 10
8.027884
 20
0.590802
 30
0.0
  0
VERTEX
  5
C9
100
AcDbEntity
  8
0
370
     0
390
0
100
AcDbVertex
100
AcDb2dVertex
 10
8.029413
 20
0.593508
 30
0.0
  0
VERTEX
  5
CA
100
AcDbEntity
  8
0
370
     0
390
0
100
AcDbVertex
100
AcDb2dVertex
 10
8.030933
 20
0.595943
 30
0.0
  0
VERTEX
  5
CB
100
AcDbEntity
  8
0
370
     0
390
0
100
AcDbVertex
100
AcDb2dVertex
 10
8.032442
 20
0.598104
 30
0.0
  0
VERTEX
  5
CC
100
AcDbEntity
  8
0
370
     0
390
0
100
AcDbVertex
100
AcDb2dVertex
 10
8.03394
 20
0.599991
 30
0.0
  0
SEQEND
  5
CD
100
AcDbEntity
  8
0
370
     0
390
0
  0
POLYLINE
  5
CE
100
AcDbEntity
  8
0
370
    13
390
0
 62
     7
 48
0.03937
100
AcDb2dPolyline
 66
     1
 10
0.0
 20
0.0
 30
0.0
 70
     1
 71
    34
  0
VERTEX
  5
CF
100
AcDbEntity
  8
0
370
     0
390
0
100
AcDbVertex
100
AcDb2dVertex
 10
8.007766
 20
0.581604
 30
0.0
  0
VERTEX
  5
D0
100
AcDbEntity
  8
0
370
     0
390
0
100
AcDbVertex
100
AcDb2dVertex
 10
8.006072
 20
0.582632
 30
0.0
  0
VERTEX
  5
D1
100
AcDbEntity
  8
0
370
     0
390
0
100
AcDbVertex
100
AcDb2dVertex
 10
8.004322
 20
0.583551
 30
0.0
  0
VERTEX
  5
D2
100
AcDbEntity
  8
0
370
     0
390
0
100
AcDbVertex
100
AcDb2dVertex
 10
8.002516
 20
0.584363
 30
0.0
  0
VERTEX
  5
D3
100
AcDbEntity
  8
0
370
     0
390
0
100
AcDbVertex
100
AcDb2dVertex
 10
8.000652
 20
0.585066
 30
0.0
  0
VERTEX
  5
D4
100
AcDbEntity
  8
0
370
     0
390
0
100
AcDbVertex
100
AcDb2dVertex
 10
7.998734
 20
0.58566
 30
0.0
  0
VERTEX
  5
D5
100
AcDbEntity
  8
0
370
     0
390
0
100
AcDbVertex
100
AcDb2dVertex
 10
7.996758
 20
0.586148
 30
0.0
  0
VERTEX
  5
D6
100
AcDbEntity
  8
0
370
     0
390
0
100
AcDbVertex
100
AcDb2dVertex
 10
7.994728
 20
0.586526
 30
0.0
  0
VERTEX
  5
D7
100
AcDbEntity
  8
0
370
     0
390
0
100
AcDbVertex
100
AcDb2dVertex
 10
7.992641
 20
0.586796
 30
0.0
  0
VERTEX
  5
D8
100
AcDbEntity
  8
0
370
     0
390
0
100
AcDbVertex
100
AcDb2dVertex
 10
7.990496
 20
0.586959
 30
0.0
  0
VERTEX
  5
D9
100
AcDbEntity
  8
0
370
     0
390
0
100
AcDbVertex
100
AcDb2dVertex
 10
7.988297
 20
0.587013
 30
0.0
  0
VERTEX
  5
DA
100
AcDbEntity
  8
0
370
     0
390
0
100
AcDbVertex
100
AcDb2dVertex
 10
7.986785
 20
0.586983
 30
0.0
  0
VERTEX
  5
DB
100
AcDbEntity
  8
0
370
     0
390
0
100
AcDbVertex
100
AcDb2dVertex
 10
7.985234
 20
0.586896
 30
0.0
  0
VERTEX
  5
DC
100
AcDbEntity
  8
0
370
     0
390
0
100
AcDbVertex
100
AcDb2dVertex
 10
7.983644
 20
0.586751
 30
0.0
  0
VERTEX
  5
DD
100
AcDbEntity
  8
0
370
     0
390
0
100
AcDbVertex
100
AcDb2dVertex
 10
7.983538
 20
0.477987
 30
0.0
  0
VERTEX
  5
DE
100
AcDbEntity
  8
0
370
     0
390
0
100
AcDbVertex
100
AcDb2dVertex
 10
8.000735
 20
0.457653
 30
0.0
  0
VERTEX
  5
DF
100
AcDbEntity
  8
0
370
     0
390
0
100
AcDbVertex
100
AcDb2dVertex
 10
7.945466
 20
0.457653
 30
0.0
  0
VERTEX
  5
E0
100
AcDbEntity
  8
0
370
     0
390
0
100
AcDbVertex
100
AcDb2dVertex
 10
7.942978
 20
0.460574
 30
0.0
  0
VERTEX
  5
E1
100
AcDbEntity
  8
0
370
     0
390
0
100
AcDbVertex
100
AcDb2dVertex
 10
7.994786
 20
0.460574
 30
0.0
  0
VERTEX
  5
E2
100
AcDbEntity
  8
0
370
     0
390
0
100
AcDbVertex
100
AcDb2dVertex
 10
7.980293
 20
0.477123
 30
0.0
  0
VERTEX
  5
E3
100
AcDbEntity
  8
0
370
     0
390
0
100
AcDbVertex
100
AcDb2dVertex
 10
7.980293
 20
0.589826
 30
0.0
  0
VERTEX
  5
E4
100
AcDbEntity
  8
0
370
     0
390
0
100
AcDbVertex
100
AcDb2dVertex
 10
7.986134
 20
0.589934
 30
0.0
  0
VERTEX
  5
E5
100
AcDbEntity
  8
0
370
     0
390
0
100
AcDbVertex
100
AcDb2dVertex
 10
7.988171
 20
0.589916
 30
0.0
  0
VERTEX
  5
E6
100
AcDbEntity
  8
0
370
     0
390
0
100
AcDbVertex
100
AcDb2dVertex
 10
7.990086
 20
0.589866
 30
0.0
  0
VERTEX
  5
E7
100
AcDbEntity
  8
0
370
     0
390
0
100
AcDbVertex
100
AcDb2dVertex
 10
7.991879
 20
0.589782
 30
0.0
  0
VERTEX
  5
E8
100
AcDbEntity
  8
0
370
     0
390
0
100
AcDbVertex
100
AcDb2dVertex
 10
7.993549
 20
0.589665
 30
0.0
  0
VERTEX
  5
E9
100
AcDbEntity
  8
0
370
     0
390
0
100
AcDbVertex
100
AcDb2dVertex
 10
7.995098
 20
0.589514
 30
0.0
  0
VERTEX
  5
EA
100
AcDbEntity
  8
0
370
     0
390
0
100
AcDbVertex
100
AcDb2dVertex
 10
7.997828
 20
0.589112
 30
0.0
  0
VERTEX
  5
EB
100
AcDbEntity
  8
0
370
     0
390
0
100
AcDbVertex
100
AcDb2dVertex
 10
8.000069
 20
0.588575
 30
0.0
  0
VERTEX
  5
EC
100
AcDbEntity
  8
0
370
     0
390
0
100
AcDbVertex
100
AcDb2dVertex
 10
8.001862
 20
0.587888
 30
0.0
  0
VERTEX
  5
ED
100
AcDbEntity
  8
0
370
     0
390
0
100
AcDbVertex
100
AcDb2dVertex
 10
8.003455
 20
0.586953
 30
0.0
  0
VERTEX
  5
EE
100
AcDbEntity
  8
0
370
     0
390
0
100
AcDbVertex
100
AcDb2dVertex
 10
8.004886
 20
0.585755
 30
0.0
  0
VERTEX
  5
EF
100
AcDbEntity
  8
0
370
     0
390
0
100
AcDbVertex
100
AcDb2dVertex
 10
8.006157
 20
0.584294
 30
0.0
  0
VERTEX
  5
F0
100
AcDbEntity
  8
0
370
     0
390
0
100
AcDbVertex
100
AcDb2dVertex
 10
8.007269
 20
0.582567
 30
0.0
  0
SEQEND
  5
F1
100
AcDbEntity
  8
0
370
     0
390
0
  0
POLYLINE
  5
F2
100
AcDbEntity
  8
0
370
    13
390
0
 62
     7
 48
0.03937
100
AcDb2dPolyline
 66
     1
 10
0.0
 20
0.0
 30
0.0
 70
     1
 71
   138
  0
VERTEX
  5
F3
100
AcDbEntity
  8
0
370
     0
390
0
100
AcDbVertex
100
AcDb2dVertex
 10
8.03978
 20
0.605292
 30
0.0
  0
VERTEX
  5
F4
100
AcDbEntity
  8
0
370
     0
390
0
100
AcDbVertex
100
AcDb2dVertex
 10
8.152051
 20
0.605292
 30
0.0
  0
VERTEX
  5
F5
100
AcDbEntity
  8
0
370
     0
390
0
100
AcDbVertex
100
AcDb2dVertex
 10
8.150747
 20
0.603555
 30
0.0
  0
VERTEX
  5
F6
100
AcDbEntity
  8
0
370
     0
390
0
100
AcDbVertex
100
AcDb2dVertex
 10
8.149522
 20
0.601895
 30
0.0
  0
VERTEX
  5
F7
100
AcDbEntity
  8
0
370
     0
390
0
100
AcDbVertex
100
AcDb2dVertex
 10
8.148372
 20
0.600311
 30
0.0
  0
VERTEX
  5
F8
100
AcDbEntity
  8
0
370
     0
390
0
100
AcDbVertex
100
AcDb2dVertex
 10
8.1473
 20
0.598802
 30
0.0
  0
VERTEX
  5
F9
100
AcDbEntity
  8
0
370
     0
390
0
100
AcDbVertex
100
AcDb2dVertex
 10
8.146304
 20
0.597369
 30
0.0
  0
VERTEX
  5
FA
100
AcDbEntity
  8
0
370
     0
390
0
100
AcDbVertex
100
AcDb2dVertex
 10
8.145386
 20
0.596012
 30
0.0
  0
VERTEX
  5
FB
100
AcDbEntity
  8
0
370
     0
390
0
100
AcDbVertex
100
AcDb2dVertex
 10
8.144543
 20
0.594729
 30
0.0
  0
VERTEX
  5
FC
100
AcDbEntity
  8
0
370
     0
390
0
100
AcDbVertex
100
AcDb2dVertex
 10
8.143089
 20
0.592394
 30
0.0
  0
VERTEX
  5
FD
100
AcDbEntity
  8
0
370
     0
390
0
100
AcDbVertex
100
AcDb2dVertex
 10
8.14189
 20
0.590261
 30
0.0
  0
VERTEX
  5
FE
100
AcDbEntity
  8
0
370
     0
390
0
100
AcDbVertex
100
AcDb2dVertex
 10
8.140617
 20
0.587735
 30
0.0
  0
VERTEX
  5
FF
100
AcDbEntity
  8
0
370
     0
390
0
100
AcDbVertex
100
AcDb2dVertex
 10
8.139935
 20
0.586286
 30
0.0
  0
VERTEX
  5
100
100
AcDbEntity
  8
0
370
     0
390
0
100
AcDbVertex
100
AcDb2dVertex
 10
8.13922
 20
0.584714
 30
0.0
  0
VERTEX
  5
101
100
AcDbEntity
  8
0
370
     0
390
0
100
AcDbVertex
100
AcDb2dVertex
 10
8.138474
 20
0.583019
 30
0.0
  0
VERTEX
  5
102
100
AcDbEntity
  8
0
370
     0
390
0
100
AcDbVertex
100
AcDb2dVertex
 10
8.137697
 20
0.581201
 30
0.0
  0
VERTEX
  5
103
100
AcDbEntity
  8
0
370
     0
390
0
100
AcDbVertex
100
AcDb2dVertex
 10
8.136889
 20
0.57926
 30
0.0
  0
VERTEX
  5
104
100
AcDbEntity
  8
0
370
     0
390
0
100
AcDbVertex
100
AcDb2dVertex
 10
8.136049
 20
0.577196
 30
0.0
  0
VERTEX
  5
105
100
AcDbEntity
  8
0
370
     0
390
0
100
AcDbVertex
100
AcDb2dVertex
 10
8.135177
 20
0.575007
 30
0.0
  0
VERTEX
  5
106
100
AcDbEntity
  8
0
370
     0
390
0
100
AcDbVertex
100
AcDb2dVertex
 10
8.134311
 20
0.572844
 30
0.0
  0
VERTEX
  5
107
100
AcDbEntity
  8
0
370
     0
390
0
100
AcDbVertex
100
AcDb2dVertex
 10
8.132887
 20
0.575682
 30
0.0
  0
VERTEX
  5
108
100
AcDbEntity
  8
0
370
     0
390
0
100
AcDbVertex
100
AcDb2dVertex
 10
8.131463
 20
0.578313
 30
0.0
  0
VERTEX
  5
109
100
AcDbEntity
  8
0
370
     0
390
0
100
AcDbVertex
100
AcDb2dVertex
 10
8.130044
 20
0.580736
 30
0.0
  0
VERTEX
  5
10A
100
AcDbEntity
  8
0
370
     0
390
0
100
AcDbVertex
100
AcDb2dVertex
 10
8.128628
 20
0.582951
 30
0.0
  0
VERTEX
  5
10B
100
AcDbEntity
  8
0
370
     0
390
0
100
AcDbVertex
100
AcDb2dVertex
 10
8.127215
 20
0.584958
 30
0.0
  0
VERTEX
  5
10C
100
AcDbEntity
  8
0
370
     0
390
0
100
AcDbVertex
100
AcDb2dVertex
 10
8.125804
 20
0.586758
 30
0.0
  0
VERTEX
  5
10D
100
AcDbEntity
  8
0
370
     0
390
0
100
AcDbVertex
100
AcDb2dVertex
 10
8.124398
 20
0.58835
 30
0.0
  0
VERTEX
  5
10E
100
AcDbEntity
  8
0
370
     0
390
0
100
AcDbVertex
100
AcDb2dVertex
 10
8.122994
 20
0.589734
 30
0.0
  0
VERTEX
  5
10F
100
AcDbEntity
  8
0
370
     0
390
0
100
AcDbVertex
100
AcDb2dVertex
 10
8.121594
 20
0.59091
 30
0.0
  0
VERTEX
  5
110
100
AcDbEntity
  8
0
370
     0
390
0
100
AcDbVertex
100
AcDb2dVertex
 10
8.120198
 20
0.591881
 30
0.0
  0
VERTEX
  5
111
100
AcDbEntity
  8
0
370
     0
390
0
100
AcDbVertex
100
AcDb2dVertex
 10
8.118707
 20
0.592701
 30
0.0
  0
VERTEX
  5
112
100
AcDbEntity
  8
0
370
     0
390
0
100
AcDbVertex
100
AcDb2dVertex
 10
8.117024
 20
0.593438
 30
0.0
  0
VERTEX
  5
113
100
AcDbEntity
  8
0
370
     0
390
0
100
AcDbVertex
100
AcDb2dVertex
 10
8.11515
 20
0.594086
 30
0.0
  0
VERTEX
  5
114
100
AcDbEntity
  8
0
370
     0
390
0
100
AcDbVertex
100
AcDb2dVertex
 10
8.113085
 20
0.594648
 30
0.0
  0
VERTEX
  5
115
100
AcDbEntity
  8
0
370
     0
390
0
100
AcDbVertex
100
AcDb2dVertex
 10
8.110827
 20
0.595125
 30
0.0
  0
VERTEX
  5
116
100
AcDbEntity
  8
0
370
     0
390
0
100
AcDbVertex
100
AcDb2dVertex
 10
8.108379
 20
0.595514
 30
0.0
  0
VERTEX
  5
117
100
AcDbEntity
  8
0
370
     0
390
0
100
AcDbVertex
100
AcDb2dVertex
 10
8.10574
 20
0.595817
 30
0.0
  0
VERTEX
  5
118
100
AcDbEntity
  8
0
370
     0
390
0
100
AcDbVertex
100
AcDb2dVertex
 10
8.102909
 20
0.596033
 30
0.0
  0
VERTEX
  5
119
100
AcDbEntity
  8
0
370
     0
390
0
100
AcDbVertex
100
AcDb2dVertex
 10
8.099887
 20
0.596163
 30
0.0
  0
VERTEX
  5
11A
100
AcDbEntity
  8
0
370
     0
390
0
100
AcDbVertex
100
AcDb2dVertex
 10
8.096672
 20
0.596207
 30
0.0
  0
VERTEX
  5
11B
100
AcDbEntity
  8
0
370
     0
390
0
100
AcDbVertex
100
AcDb2dVertex
 10
8.090507
 20
0.596099
 30
0.0
  0
VERTEX
  5
11C
100
AcDbEntity
  8
0
370
     0
390
0
100
AcDbVertex
100
AcDb2dVertex
 10
8.080016
 20
0.596207
 30
0.0
  0
VERTEX
  5
11D
100
AcDbEntity
  8
0
370
     0
390
0
100
AcDbVertex
100
AcDb2dVertex
 10
8.076014
 20
0.596315
 30
0.0
  0
VERTEX
  5
11E
100
AcDbEntity
  8
0
370
     0
390
0
100
AcDbVertex
100
AcDb2dVertex
 10
8.076014
 20
0.545696
 30
0.0
  0
VERTEX
  5
11F
100
AcDbEntity
  8
0
370
     0
390
0
100
AcDbVertex
100
AcDb2dVertex
 10
8.082612
 20
0.545696
 30
0.0
  0
VERTEX
  5
120
100
AcDbEntity
  8
0
370
     0
390
0
100
AcDbVertex
100
AcDb2dVertex
 10
8.082612
 20
0.590366
 30
0.0
  0
VERTEX
  5
121
100
AcDbEntity
  8
0
370
     0
390
0
100
AcDbVertex
100
AcDb2dVertex
 10
8.085749
 20
0.590474
 30
0.0
  0
VERTEX
  5
122
100
AcDbEntity
  8
0
370
     0
390
0
100
AcDbVertex
100
AcDb2dVertex
 10
8.088465
 20
0.590591
 30
0.0
  0
VERTEX
  5
123
100
AcDbEntity
  8
0
370
     0
390
0
100
AcDbVertex
100
AcDb2dVertex
 10
8.091251
 20
0.590682
 30
0.0
  0
VERTEX
  5
124
100
AcDbEntity
  8
0
370
     0
390
0
100
AcDbVertex
100
AcDb2dVertex
 10
8.094107
 20
0.590747
 30
0.0
  0
VERTEX
  5
125
100
AcDbEntity
  8
0
370
     0
390
0
100
AcDbVertex
100
AcDb2dVertex
 10
8.097032
 20
0.590786
 30
0.0
  0
VERTEX
  5
126
100
AcDbEntity
  8
0
370
     0
390
0
100
AcDbVertex
100
AcDb2dVertex
 10
8.100026
 20
0.590798
 30
0.0
  0
VERTEX
  5
127
100
AcDbEntity
  8
0
370
     0
390
0
100
AcDbVertex
100
AcDb2dVertex
 10
8.104273
 20
0.590684
 30
0.0
  0
VERTEX
  5
128
100
AcDbEntity
  8
0
370
     0
390
0
100
AcDbVertex
100
AcDb2dVertex
 10
8.108189
 20
0.59034
 30
0.0
  0
VERTEX
  5
129
100
AcDbEntity
  8
0
370
     0
390
0
100
AcDbVertex
100
AcDb2dVertex
 10
8.111775
 20
0.589767
 30
0.0
  0
VERTEX
  5
12A
100
AcDbEntity
  8
0
370
     0
390
0
100
AcDbVertex
100
AcDb2dVertex
 10
8.115029
 20
0.588965
 30
0.0
  0
VERTEX
  5
12B
100
AcDbEntity
  8
0
370
     0
390
0
100
AcDbVertex
100
AcDb2dVertex
 10
8.117954
 20
0.587933
 30
0.0
  0
VERTEX
  5
12C
100
AcDbEntity
  8
0
370
     0
390
0
100
AcDbVertex
100
AcDb2dVertex
 10
8.120546
 20
0.586671
 30
0.0
  0
VERTEX
  5
12D
100
AcDbEntity
  8
0
370
     0
390
0
100
AcDbVertex
100
AcDb2dVertex
 10
8.122807
 20
0.58518
 30
0.0
  0
VERTEX
  5
12E
100
AcDbEntity
  8
0
370
     0
390
0
100
AcDbVertex
100
AcDb2dVertex
 10
8.124737
 20
0.583461
 30
0.0
  0
VERTEX
  5
12F
100
AcDbEntity
  8
0
370
     0
390
0
100
AcDbVertex
100
AcDb2dVertex
 10
8.126338
 20
0.581511
 30
0.0
  0
VERTEX
  5
130
100
AcDbEntity
  8
0
370
     0
390
0
100
AcDbVertex
100
AcDb2dVertex
 10
8.127607
 20
0.579333
 30
0.0
  0
VERTEX
  5
131
100
AcDbEntity
  8
0
370
     0
390
0
100
AcDbVertex
100
AcDb2dVertex
 10
8.125449
 20
0.581235
 30
0.0
  0
VERTEX
  5
132
100
AcDbEntity
  8
0
370
     0
390
0
100
AcDbVertex
100
AcDb2dVertex
 10
8.123219
 20
0.582873
 30
0.0
  0
VERTEX
  5
133
100
AcDbEntity
  8
0
370
     0
390
0
100
AcDbVertex
100
AcDb2dVertex
 10
8.120915
 20
0.584246
 30
0.0
  0
VERTEX
  5
134
100
AcDbEntity
  8
0
370
     0
390
0
100
AcDbVertex
100
AcDb2dVertex
 10
8.118538
 20
0.585356
 30
0.0
  0
VERTEX
  5
135
100
AcDbEntity
  8
0
370
     0
390
0
100
AcDbVertex
100
AcDb2dVertex
 10
8.116087
 20
0.586202
 30
0.0
  0
VERTEX
  5
136
100
AcDbEntity
  8
0
370
     0
390
0
100
AcDbVertex
100
AcDb2dVertex
 10
8.113329
 20
0.586844
 30
0.0
  0
VERTEX
  5
137
100
AcDbEntity
  8
0
370
     0
390
0
100
AcDbVertex
100
AcDb2dVertex
 10
8.111747
 20
0.587112
 30
0.0
  0
VERTEX
  5
138
100
AcDbEntity
  8
0
370
     0
390
0
100
AcDbVertex
100
AcDb2dVertex
 10
8.110031
 20
0.587343
 30
0.0
  0
VERTEX
  5
139
100
AcDbEntity
  8
0
370
     0
390
0
100
AcDbVertex
100
AcDb2dVertex
 10
8.108179
 20
0.58754
 30
0.0
  0
VERTEX
  5
13A
100
AcDbEntity
  8
0
370
     0
390
0
100
AcDbVertex
100
AcDb2dVertex
 10
8.106191
 20
0.5877
 30
0.0
  0
VERTEX
  5
13B
100
AcDbEntity
  8
0
370
     0
390
0
100
AcDbVertex
100
AcDb2dVertex
 10
8.104068
 20
0.587826
 30
0.0
  0
VERTEX
  5
13C
100
AcDbEntity
  8
0
370
     0
390
0
100
AcDbVertex
100
AcDb2dVertex
 10
8.101811
 20
0.587915
 30
0.0
  0
VERTEX
  5
13D
100
AcDbEntity
  8
0
370
     0
390
0
100
AcDbVertex
100
AcDb2dVertex
 10
8.099417
 20
0.587969
 30
0.0
  0
VERTEX
  5
13E
100
AcDbEntity
  8
0
370
     0
390
0
100
AcDbVertex
100
AcDb2dVertex
 10
8.09689
 20
0.587987
 30
0.0
  0
VERTEX
  5
13F
100
AcDbEntity
  8
0
370
     0
390
0
100
AcDbVertex
100
AcDb2dVertex
 10
8.094938
 20
0.587964
 30
0.0
  0
VERTEX
  5
140
100
AcDbEntity
  8
0
370
     0
390
0
100
AcDbVertex
100
AcDb2dVertex
 10
8.092805
 20
0.5879
 30
0.0
  0
VERTEX
  5
141
100
AcDbEntity
  8
0
370
     0
390
0
100
AcDbVertex
100
AcDb2dVertex
 10
8.090491
 20
0.587792
 30
0.0
  0
VERTEX
  5
142
100
AcDbEntity
  8
0
370
     0
390
0
100
AcDbVertex
100
AcDb2dVertex
 10
8.087994
 20
0.58764
 30
0.0
  0
VERTEX
  5
143
100
AcDbEntity
  8
0
370
     0
390
0
100
AcDbVertex
100
AcDb2dVertex
 10
8.085316
 20
0.587445
 30
0.0
  0
VERTEX
  5
144
100
AcDbEntity
  8
0
370
     0
390
0
100
AcDbVertex
100
AcDb2dVertex
 10
8.085316
 20
0.545696
 30
0.0
  0
VERTEX
  5
145
100
AcDbEntity
  8
0
370
     0
390
0
100
AcDbVertex
100
AcDb2dVertex
 10
8.101647
 20
0.545696
 30
0.0
  0
VERTEX
  5
146
100
AcDbEntity
  8
0
370
     0
390
0
100
AcDbVertex
100
AcDb2dVertex
 10
8.118953
 20
0.563975
 30
0.0
  0
VERTEX
  5
147
100
AcDbEntity
  8
0
370
     0
390
0
100
AcDbVertex
100
AcDb2dVertex
 10
8.118953
 20
0.518655
 30
0.0
  0
VERTEX
  5
148
100
AcDbEntity
  8
0
370
     0
390
0
100
AcDbVertex
100
AcDb2dVertex
 10
8.100782
 20
0.53661
 30
0.0
  0
VERTEX
  5
149
100
AcDbEntity
  8
0
370
     0
390
0
100
AcDbVertex
100
AcDb2dVertex
 10
8.076014
 20
0.53661
 30
0.0
  0
VERTEX
  5
14A
100
AcDbEntity
  8
0
370
     0
390
0
100
AcDbVertex
100
AcDb2dVertex
 10
8.076014
 20
0.482097
 30
0.0
  0
VERTEX
  5
14B
100
AcDbEntity
  8
0
370
     0
390
0
100
AcDbVertex
100
AcDb2dVertex
 10
8.089859
 20
0.468038
 30
0.0
  0
VERTEX
  5
14C
100
AcDbEntity
  8
0
370
     0
390
0
100
AcDbVertex
100
AcDb2dVertex
 10
8.036753
 20
0.468038
 30
0.0
  0
VERTEX
  5
14D
100
AcDbEntity
  8
0
370
     0
390
0
100
AcDbVertex
100
AcDb2dVertex
 10
8.054382
 20
0.482097
 30
0.0
  0
VERTEX
  5
14E
100
AcDbEntity
  8
0
370
     0
390
0
100
AcDbVertex
100
AcDb2dVertex
 10
8.054382
 20
0.528606
 30
0.0
  0
VERTEX
  5
14F
100
AcDbEntity
  8
0
370
     0
390
0
100
AcDbVertex
100
AcDb2dVertex
 10
8.052737
 20
0.528543
 30
0.0
  0
VERTEX
  5
150
100
AcDbEntity
  8
0
370
     0
390
0
100
AcDbVertex
100
AcDb2dVertex
 10
8.051134
 20
0.528356
 30
0.0
  0
VERTEX
  5
151
100
AcDbEntity
  8
0
370
     0
390
0
100
AcDbVertex
100
AcDb2dVertex
 10
8.049571
 20
0.528042
 30
0.0
  0
VERTEX
  5
152
100
AcDbEntity
  8
0
370
     0
390
0
100
AcDbVertex
100
AcDb2dVertex
 10
8.048048
 20
0.527603
 30
0.0
  0
VERTEX
  5
153
100
AcDbEntity
  8
0
370
     0
390
0
100
AcDbVertex
100
AcDb2dVertex
 10
8.046567
 20
0.527039
 30
0.0
  0
VERTEX
  5
154
100
AcDbEntity
  8
0
370
     0
390
0
100
AcDbVertex
100
AcDb2dVertex
 10
8.045129
 20
0.526349
 30
0.0
  0
VERTEX
  5
155
100
AcDbEntity
  8
0
370
     0
390
0
100
AcDbVertex
100
AcDb2dVertex
 10
8.04373
 20
0.525533
 30
0.0
  0
VERTEX
  5
156
100
AcDbEntity
  8
0
370
     0
390
0
100
AcDbVertex
100
AcDb2dVertex
 10
8.042372
 20
0.524592
 30
0.0
  0
VERTEX
  5
157
100
AcDbEntity
  8
0
370
     0
390
0
100
AcDbVertex
100
AcDb2dVertex
 10
8.041057
 20
0.523526
 30
0.0
  0
VERTEX
  5
158
100
AcDbEntity
  8
0
370
     0
390
0
100
AcDbVertex
100
AcDb2dVertex
 10
8.03978
 20
0.522333
 30
0.0
  0
VERTEX
  5
159
100
AcDbEntity
  8
0
370
     0
390
0
100
AcDbVertex
100
AcDb2dVertex
 10
8.037725
 20
0.524604
 30
0.0
  0
VERTEX
  5
15A
100
AcDbEntity
  8
0
370
     0
390
0
100
AcDbVertex
100
AcDb2dVertex
 10
8.039021
 20
0.52592
 30
0.0
  0
VERTEX
  5
15B
100
AcDbEntity
  8
0
370
     0
390
0
100
AcDbVertex
100
AcDb2dVertex
 10
8.0404
 20
0.527097
 30
0.0
  0
VERTEX
  5
15C
100
AcDbEntity
  8
0
370
     0
390
0
100
AcDbVertex
100
AcDb2dVertex
 10
8.041859
 20
0.528135
 30
0.0
  0
VERTEX
  5
15D
100
AcDbEntity
  8
0
370
     0
390
0
100
AcDbVertex
100
AcDb2dVertex
 10
8.043403
 20
0.529035
 30
0.0
  0
VERTEX
  5
15E
100
AcDbEntity
  8
0
370
     0
390
0
100
AcDbVertex
100
AcDb2dVertex
 10
8.045027
 20
0.529796
 30
0.0
  0
VERTEX
  5
15F
100
AcDbEntity
  8
0
370
     0
390
0
100
AcDbVertex
100
AcDb2dVertex
 10
8.046733
 20
0.53042
 30
0.0
  0
VERTEX
  5
160
100
AcDbEntity
  8
0
370
     0
390
0
100
AcDbVertex
100
AcDb2dVertex
 10
8.048522
 20
0.530904
 30
0.0
  0
VERTEX
  5
161
100
AcDbEntity
  8
0
370
     0
390
0
100
AcDbVertex
100
AcDb2dVertex
 10
8.050394
 20
0.531249
 30
0.0
  0
VERTEX
  5
162
100
AcDbEntity
  8
0
370
     0
390
0
100
AcDbVertex
100
AcDb2dVertex
 10
8.052347
 20
0.531458
 30
0.0
  0
VERTEX
  5
163
100
AcDbEntity
  8
0
370
     0
390
0
100
AcDbVertex
100
AcDb2dVertex
 10
8.054382
 20
0.531527
 30
0.0
  0
VERTEX
  5
164
100
AcDbEntity
  8
0
370
     0
390
0
100
AcDbVertex
100
AcDb2dVertex
 10
8.054382
 20
0.53661
 30
0.0
  0
VERTEX
  5
165
100
AcDbEntity
  8
0
370
     0
390
0
100
AcDbVertex
100
AcDb2dVertex
 10
8.052773
 20
0.536748
 30
0.0
  0
VERTEX
  5
166
100
AcDbEntity
  8
0
370
     0
390
0
100
AcDbVertex
100
AcDb2dVertex
 10
8.051138
 20
0.536826
 30
0.0
  0
VERTEX
  5
167
100
AcDbEntity
  8
0
370
     0
390
0
100
AcDbVertex
100
AcDb2dVertex
 10
8.049152
 20
0.536744
 30
0.0
  0
VERTEX
  5
168
100
AcDbEntity
  8
0
370
     0
390
0
100
AcDbVertex
100
AcDb2dVertex
 10
8.047222
 20
0.536498
 30
0.0
  0
VERTEX
  5
169
100
AcDbEntity
  8
0
370
     0
390
0
100
AcDbVertex
100
AcDb2dVertex
 10
8.045345
 20
0.536087
 30
0.0
  0
VERTEX
  5
16A
100
AcDbEntity
  8
0
370
     0
390
0
100
AcDbVertex
100
AcDb2dVertex
 10
8.043522
 20
0.535512
 30
0.0
  0
VERTEX
  5
16B
100
AcDbEntity
  8
0
370
     0
390
0
100
AcDbVertex
100
AcDb2dVertex
 10
8.041754
 20
0.534771
 30
0.0
  0
VERTEX
  5
16C
100
AcDbEntity
  8
0
370
     0
390
0
100
AcDbVertex
100
AcDb2dVertex
 10
8.04004
 20
0.533868
 30
0.0
  0
VERTEX
  5
16D
100
AcDbEntity
  8
0
370
     0
390
0
100
AcDbVertex
100
AcDb2dVertex
 10
8.038381
 20
0.532799
 30
0.0
  0
VERTEX
  5
16E
100
AcDbEntity
  8
0
370
     0
390
0
100
AcDbVertex
100
AcDb2dVertex
 10
8.036774
 20
0.531566
 30
0.0
  0
VERTEX
  5
16F
100
AcDbEntity
  8
0
370
     0
390
0
100
AcDbVertex
100
AcDb2dVertex
 10
8.035222
 20
0.530168
 30
0.0
  0
VERTEX
  5
170
100
AcDbEntity
  8
0
370
     0
390
0
100
AcDbVertex
100
AcDb2dVertex
 10
8.033725
 20
0.528606
 30
0.0
  0
VERTEX
  5
171
100
AcDbEntity
  8
0
370
     0
390
0
100
AcDbVertex
100
AcDb2dVertex
 10
8.032967
 20
0.530337
 30
0.0
  0
VERTEX
  5
172
100
AcDbEntity
  8
0
370
     0
390
0
100
AcDbVertex
100
AcDb2dVertex
 10
8.034058
 20
0.533022
 30
0.0
  0
VERTEX
  5
173
100
AcDbEntity
  8
0
370
     0
390
0
100
AcDbVertex
100
AcDb2dVertex
 10
8.03538
 20
0.535451
 30
0.0
  0
VERTEX
  5
174
100
AcDbEntity
  8
0
370
     0
390
0
100
AcDbVertex
100
AcDb2dVertex
 10
8.036938
 20
0.537626
 30
0.0
  0
VERTEX
  5
175
100
AcDbEntity
  8
0
370
     0
390
0
100
AcDbVertex
100
AcDb2dVertex
 10
8.03873
 20
0.539544
 30
0.0
  0
VERTEX
  5
176
100
AcDbEntity
  8
0
370
     0
390
0
100
AcDbVertex
100
AcDb2dVertex
 10
8.040755
 20
0.541208
 30
0.0
  0
VERTEX
  5
177
100
AcDbEntity
  8
0
370
     0
390
0
100
AcDbVertex
100
AcDb2dVertex
 10
8.043013
 20
0.542615
 30
0.0
  0
VERTEX
  5
178
100
AcDbEntity
  8
0
370
     0
390
0
100
AcDbVertex
100
AcDb2dVertex
 10
8.045504
 20
0.543768
 30
0.0
  0
VERTEX
  5
179
100
AcDbEntity
  8
0
370
     0
390
0
100
AcDbVertex
100
AcDb2dVertex
 10
8.048231
 20
0.544665
 30
0.0
  0
VERTEX
  5
17A
100
AcDbEntity
  8
0
370
     0
390
0
100
AcDbVertex
100
AcDb2dVertex
 10
8.051189
 20
0.545309
 30
0.0
  0
VERTEX
  5
17B
100
AcDbEntity
  8
0
370
     0
390
0
100
AcDbVertex
100
AcDb2dVertex
 10
8.054382
 20
0.545696
 30
0.0
  0
VERTEX
  5
17C
100
AcDbEntity
  8
0
370
     0
390
0
100
AcDbVertex
100
AcDb2dVertex
 10
8.054382
 20
0.591339
 30
0.0
  0
SEQEND
  5
17D
100
AcDbEntity
  8
0
370
     0
390
0
  0
POLYLINE
  5
17E
100
AcDbEntity
  8
0
370
    13
390
0
 62
     7
 48
0.03937
100
AcDb2dPolyline
 66
     1
 10
0.0
 20
0.0
 30
0.0
 70
     1
 71
    22
  0
VERTEX
  5
17F
100
AcDbEntity
  8
0
370
     0
390
0
100
AcDbVertex
100
AcDb2dVertex
 10
8.160271
 20
0.598694
 30
0.0
  0
VERTEX
  5
180
100
AcDbEntity
  8
0
370
     0
390
0
100
AcDbVertex
100
AcDb2dVertex
 10
8.157292
 20
0.595112
 30
0.0
  0
VERTEX
  5
181
100
AcDbEntity
  8
0
370
     0
390
0
100
AcDbVertex
100
AcDb2dVertex
 10
8.154542
 20
0.59159
 30
0.0
  0
VERTEX
  5
182
100
AcDbEntity
  8
0
370
     0
390
0
100
AcDbVertex
100
AcDb2dVertex
 10
8.152022
 20
0.588129
 30
0.0
  0
VERTEX
  5
183
100
AcDbEntity
  8
0
370
     0
390
0
100
AcDbVertex
100
AcDb2dVertex
 10
8.149732
 20
0.584729
 30
0.0
  0
VERTEX
  5
184
100
AcDbEntity
  8
0
370
     0
390
0
100
AcDbVertex
100
AcDb2dVertex
 10
8.147671
 20
0.581388
 30
0.0
  0
VERTEX
  5
185
100
AcDbEntity
  8
0
370
     0
390
0
100
AcDbVertex
100
AcDb2dVertex
 10
8.145838
 20
0.578109
 30
0.0
  0
VERTEX
  5
186
100
AcDbEntity
  8
0
370
     0
390
0
100
AcDbVertex
100
AcDb2dVertex
 10
8.144234
 20
0.57489
 30
0.0
  0
VERTEX
  5
187
100
AcDbEntity
  8
0
370
     0
390
0
100
AcDbVertex
100
AcDb2dVertex
 10
8.142862
 20
0.571733
 30
0.0
  0
VERTEX
  5
188
100
AcDbEntity
  8
0
370
     0
390
0
100
AcDbVertex
100
AcDb2dVertex
 10
8.141717
 20
0.568634
 30
0.0
  0
VERTEX
  5
189
100
AcDbEntity
  8
0
370
     0
390
0
100
AcDbVertex
100
AcDb2dVertex
 10
8.140802
 20
0.565596
 30
0.0
  0
VERTEX
  5
18A
100
AcDbEntity
  8
0
370
     0
390
0
100
AcDbVertex
100
AcDb2dVertex
 10
8.138531
 20
0.567111
 30
0.0
  0
VERTEX
  5
18B
100
AcDbEntity
  8
0
370
     0
390
0
100
AcDbVertex
100
AcDb2dVertex
 10
8.139469
 20
0.570503
 30
0.0
  0
VERTEX
  5
18C
100
AcDbEntity
  8
0
370
     0
390
0
100
AcDbVertex
100
AcDb2dVertex
 10
8.140637
 20
0.573882
 30
0.0
  0
VERTEX
  5
18D
100
AcDbEntity
  8
0
370
     0
390
0
100
AcDbVertex
100
AcDb2dVertex
 10
8.142038
 20
0.577251
 30
0.0
  0
VERTEX
  5
18E
100
AcDbEntity
  8
0
370
     0
390
0
100
AcDbVertex
100
AcDb2dVertex
 10
8.14367
 20
0.58061
 30
0.0
  0
VERTEX
  5
18F
100
AcDbEntity
  8
0
370
     0
390
0
100
AcDbVertex
100
AcDb2dVertex
 10
8.145533
 20
0.583958
 30
0.0
  0
VERTEX
  5
190
100
AcDbEntity
  8
0
370
     0
390
0
100
AcDbVertex
100
AcDb2dVertex
 10
8.147629
 20
0.587294
 30
0.0
  0
VERTEX
  5
191
100
AcDbEntity
  8
0
370
     0
390
0
100
AcDbVertex
100
AcDb2dVertex
 10
8.149955
 20
0.590619
 30
0.0
  0
VERTEX
  5
192
100
AcDbEntity
  8
0
370
     0
390
0
100
AcDbVertex
100
AcDb2dVertex
 10
8.152513
 20
0.593936
 30
0.0
  0
VERTEX
  5
193
100
AcDbEntity
  8
0
370
     0
390
0
100
AcDbVertex
100
AcDb2dVertex
 10
8.155303
 20
0.597239
 30
0.0
  0
VERTEX
  5
194
100
AcDbEntity
  8
0
370
     0
390
0
100
AcDbVertex
100
AcDb2dVertex
 10
8.158324
 20
0.600533
 30
0.0
  0
SEQEND
  5
195
100
AcDbEntity
  8
0
370
     0
390
0
  0
POLYLINE
  5
196
100
AcDbEntity
  8
0
370
    13
390
0
 62
     7
 48
0.03937
100
AcDb2dPolyline
 66
     1
 10
0.0
 20
0.0
 30
0.0
 70
     1
 71
     4
  0
VERTEX
  5
197
100
AcDbEntity
  8
0
370
     0
390
0
100
AcDbVertex
100
AcDb2dVertex
 10
8.126849
 20
0.560189
 30
0.0
  0
VERTEX
  5
198
100
AcDbEntity
  8
0
370
     0
390
0
100
AcDbVertex
100
AcDb2dVertex
 10
8.126849
 20
0.513464
 30
0.0
  0
VERTEX
  5
199
100
AcDbEntity
  8
0
370
     0
390
0
100
AcDbVertex
100
AcDb2dVertex
 10
8.124036
 20
0.515087
 30
0.0
  0
VERTEX
  5
19A
100
AcDbEntity
  8
0
370
     0
390
0
100
AcDbVertex
100
AcDb2dVertex
 10
8.124036
 20
0.561812
 30
0.0
  0
SEQEND
  5
19B
100
AcDbEntity
  8
0
370
     0
390
0
  0
POLYLINE
  5
19C
100
AcDbEntity
  8
0
370
    13
390
0
 62
     7
 48
0.03937
100
AcDb2dPolyline
 66
     1
 10
0.0
 20
0.0
 30
0.0
 70
     1
 71
    10
  0
VERTEX
  5
19D
100
AcDbEntity
  8
0
370
     0
390
0
100
AcDbVertex
100
AcDb2dVertex
 10
8.107488
 20
0.527525
 30
0.0
  0
VERTEX
  5
19E
100
AcDbEntity
  8
0
370
     0
390
0
100
AcDbVertex
100
AcDb2dVertex
 10
8.085316
 20
0.527525
 30
0.0
  0
VERTEX
  5
19F
100
AcDbEntity
  8
0
370
     0
390
0
100
AcDbVertex
100
AcDb2dVertex
 10
8.085316
 20
0.481233
 30
0.0
  0
VERTEX
  5
1A0
100
AcDbEntity
  8
0
370
     0
390
0
100
AcDbVertex
100
AcDb2dVertex
 10
8.104352
 20
0.457653
 30
0.0
  0
VERTEX
  5
1A1
100
AcDbEntity
  8
0
370
     0
390
0
100
AcDbVertex
100
AcDb2dVertex
 10
8.041727
 20
0.457653
 30
0.0
  0
VERTEX
  5
1A2
100
AcDbEntity
  8
0
370
     0
390
0
100
AcDbVertex
100
AcDb2dVertex
 10
8.039024
 20
0.460574
 30
0.0
  0
VERTEX
  5
1A3
100
AcDbEntity
  8
0
370
     0
390
0
100
AcDbVertex
100
AcDb2dVertex
 10
8.098295
 20
0.460574
 30
0.0
  0
VERTEX
  5
1A4
100
AcDbEntity
  8
0
370
     0
390
0
100
AcDbVertex
100
AcDb2dVertex
 10
8.082612
 20
0.479934
 30
0.0
  0
VERTEX
  5
1A5
100
AcDbEntity
  8
0
370
     0
390
0
100
AcDbVertex
100
AcDb2dVertex
 10
8.082612
 20
0.530445
 30
0.0
  0
VERTEX
  5
1A6
100
AcDbEntity
  8
0
370
     0
390
0
100
AcDbVertex
100
AcDb2dVertex
 10
8.104352
 20
0.530445
 30
0.0
  0
SEQEND
  5
1A7
100
AcDbEntity
  8
0
370
     0
390
0
  0
CIRCLE
  5
1A8
100
AcDbEntity
  8
0
370
    35
390
0
 62
     7
 48
0.03937
100
AcDbCircle
 10
3.749571
 20
6.919784
 30
0.0
 40
0.142217
210
0.0
220
0.0
230
1.0
  0
CIRCLE
  5
1A9
100
AcDbEntity
  8
0
370
    35
390
0
 62
     7
 48
0.03937
100
AcDbCircle
 10
3.133298
 20
6.919784
 30
0.0
 40
0.876057
210
0.0
220
0.0
230
1.0
  0
CIRCLE
  5
1AA
100
AcDbEntity
  8
0
370
    35
390
0
 62
     7
 48
0.03937
100
AcDbCircle
 10
2.517024
 20
6.919784
 30
0.0
 40
0.142217
210
0.0
220
0.0
230
1.0
  0
CIRCLE
  5
1AB
100
AcDbEntity
  8
0
370
    35
390
0
 62
     7
 48
0.03937
100
AcDbCircle
 10
3.133298
 20
7.536058
 30
0.0
 40
0.142217
210
0.0
220
0.0
230
1.0
  0
CIRCLE
  5
1AC
100
AcDbEntity
  8
0
370
    35
390
0
 62
     7
 48
0.03937
100
AcDbCircle
 10
3.133298
 20
6.30351
 30
0.0
 40
0.142217
210
0.0
220
0.0
230
1.0
  0
CIRCLE
  5
1AD
100
AcDbEntity
  8
0
370
    35
390
0
 62
     7
 48
0.03937
100
AcDbCircle
 10
3.133298
 20
6.919784
 30
0.0
 40
0.142217
210
0.0
220
0.0
230
1.0
  0
CIRCLE
  5
1AE
100
AcDbEntity
  8
0
370
    35
390
0
 62
     7
 48
0.03937
100
AcDbCircle
 10
3.133298
 20
6.919784
 30
0.0
 40
0.254853
210
0.0
220
0.0
230
1.0
  0
CIRCLE
  5
1AF
100
AcDbEntity
  8
0
370
    35
390
0
 62
     7
 48
0.03937
100
AcDbCircle
 10
3.133298
 20
6.919784
 30
0.0
 40
0.385313
210
0.0
220
0.0
230
1.0
  0
CIRCLE
  5
1B0
100
AcDbEntity
  8
0
370
    35
390
0
 62
     7
 48
0.03937
100
AcDbCircle
 10
3.133298
 20
6.919784
 30
0.0
 40
0.474057
210
0.0
220
0.0
230
1.0
  0
ELLIPSE
  5
1B1
100
AcDbEntity
  8
0
370
    35
390
0
 62
     7
 48
0.03937
100
AcDbEllipse
 10
7.950265
 20
3.621639
 30
0.0
 11
-0.1422159764954533
 21
-0.0005557838926771
 31
0.0
210
0.0
220
0.0
230
1.0
 40
0.364583
 41
6.2831852818557685
 42
9.424777935445567
  0
ELLIPSE
  5
1B2
100
AcDbEntity
  8
0
370
    35
390
0
 62
     7
 48
0.03937
100
AcDbEllipse
 10
7.950265
 20
3.621639
 30
0.0
 11
-0.1422159764954533
 21
-0.0005557838926771
 31
0.0
210
0.0
220
0.0
230
1.0
 40
0.364583
 41
4.2840029521786205
 42
6.2831852818557685
  0
ELLIPSE
  5
1B3
100
AcDbEntity
  8
0
370
    35
390
0
 62
     7
 48
0.03937
100
AcDbEllipse
 10
8.443927
 20
3.561305
 30
0.0
 11
-0.8760504152119931
 21
-0.0034236287788917
 31
0.0
210
0.0
220
0.0
230
1.0
 40
0.364583
 41
1.7132066253837264
 42
3.1415887940398561
  0
ELLIPSE
  5
1B4
100
AcDbEntity
  8
0
370
    35
390
0
 62
     7
 48
0.03937
100
AcDbEllipse
 10
8.443927
 20
3.561305
 30
0.0
 11
-0.8760504152119931
 21
-0.0034236287788917
 31
0.0
210
0.0
220
0.0
230
1.0
 40
0.364583
 41
6.2831814476296488
 42
7.9963919325633128
  0
ELLIPSE
  5
1B5
100
AcDbEntity
  8
0
370
    35
390
0
 62
     7
 48
0.03937
100
AcDbEllipse
 10
8.443157
 20
3.75818
 30
0.0
 11
-0.8760504152119931
 21
-0.003423628778891
 31
0.0
210
0.0
220
0.0
230
1.0
 40
0.364583
 41
3.1415887940398561
 42
4.222820271249577
  0
ELLIPSE
  5
1B6
100
AcDbEntity
  8
0
370
    35
390
0
 62
     7
 48
0.03937
100
AcDbEllipse
 10
8.443157
 20
3.75818
 30
0.0
 11
-0.8760504152119931
 21
-0.003423628778891
 31
0.0
210
0.0
220
0.0
230
1.0
 40
0.364583
 41
1.7132066253837286
 42
3.1415887940398561
  0
ELLIPSE
  5
1B7
100
AcDbEntity
  8
0
370
    35
390
0
 62
     7
 48
0.03937
100
AcDbEllipse
 10
8.443157
 20
3.75818
 30
0.0
 11
-0.8760504152119931
 21
-0.003423628778891
 31
0.0
210
0.0
220
0.0
230
1.0
 40
0.364583
 41
6.2831814476296506
 42
7.9963919325633128
  0
ELLIPSE
  5
1B8
100
AcDbEntity
  8
0
370
    35
390
0
 62
     7
 48
0.03937
100
AcDbEllipse
 10
8.443157
 20
3.75818
 30
0.0
 11
-0.8760504152119931
 21
-0.003423628778891
 31
0.0
210
0.0
220
0.0
230
1.0
 40
0.364583
 41
5.2019576891841393
 42
6.2831814476296506
  0
ELLIPSE
  5
1B9
100
AcDbEntity
  8
0
370
    13
390
0
 62
     7
 48
0.03937
100
AcDbEllipse
 10
8.443157
 20
3.75818
 30
0.0
 11
-0.3507994086887851
 21
-0.0013709336019369
 31
0.0
210
0.0
220
0.0
230
1.0
 40
0.364583
 41
0.0880087672402876
 42
3.0535839525354378
  0
ELLIPSE
  5
1BA
100
AcDbEntity
  8
0
370
    13
390
0
 62
     7
 48
0.03937
100
AcDbEllipse
 10
8.443119
 20
3.768065
 30
0.0
 11
-0.3479550891588766
 21
-0.0013598179240833
 31
0.0
210
0.0
220
0.0
230
1.0
 40
0.364583
 41
0.7452513643515025
 42
2.3963030850784293
  0
ELLIPSE
  5
1BB
100
AcDbEntity
  8
0
370
    35
390
0
 62
     7
 48
0.03937
100
AcDbEllipse
 10
8.443101
 20
3.772652
 30
0.0
 11
-0.3564880477486056
 21
-0.0013931649576439
 31
0.0
210
0.0
220
0.0
230
1.0
 40
0.364583
 41
0.7452513643512682
 42
2.3963030850784266
  0
ELLIPSE
  5
1BC
100
AcDbEntity
  8
0
370
    35
390
0
 62
     7
 48
0.03937
100
AcDbEllipse
 10
8.443101
 20
3.772652
 30
0.0
 11
-0.3564880477486056
 21
-0.0013931649576439
 31
0.0
210
0.0
220
0.0
230
1.0
 40
0.364583
 41
6.2831814476296506
 42
7.0284366715308533
  0
ELLIPSE
  5
1BD
100
AcDbEntity
  8
0
370
    35
390
0
 62
     7
 48
0.03937
100
AcDbEllipse
 10
8.443101
 20
3.772652
 30
0.0
 11
-0.3564880477486056
 21
-0.0013931649576439
 31
0.0
210
0.0
220
0.0
230
1.0
 40
0.364583
 41
2.3963030850784279
 42
3.1415887940398579
  0
ELLIPSE
  5
1BE
100
AcDbEntity
  8
0
370
    35
390
0
 62
     7
 48
0.03937
100
AcDbEllipse
 10
8.441943
 20
4.068943
 30
0.0
 11
-0.3564880477486032
 21
-0.0013931649576431
 31
0.0
210
0.0
220
0.0
230
1.0
 40
0.364583
 41
0.7452897328809671
 42
2.3963030850784293
  0
ELLIPSE
  5
1BF
100
AcDbEntity
  8
0
370
    35
390
0
 62
     7
 48
0.03937
100
AcDbEllipse
 10
8.440851
 20
4.348266
 30
0.0
 11
-0.8760504152119931
 21
-0.003423628778889
 31
0.0
210
0.0
220
0.0
230
1.0
 40
0.364583
 41
0.7452897328809657
 42
2.3963030850784293
  0
ELLIPSE
  5
1C0
100
AcDbEntity
  8
0
370
    35
390
0
 62
     7
 48
0.03937
100
AcDbEllipse
 10
8.440851
 20
4.348266
 30
0.0
 11
-0.8760504152119931
 21
-0.003423628778889
 31
0.0
210
0.0
220
0.0
230
1.0
 40
0.364583
 41
6.2831814476296515
 42
7.0284750400605516
  0
ELLIPSE
  5
1C1
100
AcDbEntity
  8
0
370
    35
390
0
 62
     7
 48
0.03937
100
AcDbEllipse
 10
8.440851
 20
4.348266
 30
0.0
 11
-0.8760504152119931
 21
-0.003423628778889
 31
0.0
210
0.0
220
0.0
230
1.0
 40
0.364583
 41
2.3963030850784302
 42
3.1415887940398552
  0
ELLIPSE
  5
1C2
100
AcDbEntity
  8
0
370
    35
390
0
 62
     7
 48
0.03937
100
AcDbEllipse
 10
8.431592
 20
6.71749
 30
0.0
 11
-0.8760504152119931
 21
-0.003423628778889
 31
0.0
210
0.0
220
0.0
230
1.0
 40
0.364583
 41
6.2831814476296497
 42
9.424774101219441
  0
ELLIPSE
  5
1C3
100
AcDbEntity
  8
0
370
    35
390
0
 62
     7
 48
0.03937
100
AcDbEllipse
 10
8.431592
 20
6.71749
 30
0.0
 11
-0.8760504152119931
 21
-0.003423628778889
 31
0.0
210
0.0
220
0.0
230
1.0
 40
0.364583
 41
4.8547992789735179
 42
6.2831814476296506
  0
ELLIPSE
  5
1C4
100
AcDbEntity
  8
0
370
    35
390
0
 62
     7
 48
0.03937
100
AcDbEllipse
 10
8.431592
 20
6.71749
 30
0.0
 11
-0.8760504152119931
 21
-0.003423628778889
 31
0.0
210
0.0
220
0.0
230
1.0
 40
0.364583
 41
3.1415887940398561
 42
4.8547992789735179
  0
ELLIPSE
  5
1C5
100
AcDbEntity
  8
0
370
    35
390
0
 62
     7
 48
0.03937
100
AcDbEllipse
 10
8.431592
 20
6.71749
 30
0.0
 11
-0.1422159764954534
 21
-0.0005557838926768
 31
0.0
210
0.0
220
0.0
230
1.0
 40
0.364583
 41
3.1415925986854489
 42
6.283185252275242
  0
ELLIPSE
  5
1C6
100
AcDbEntity
  8
0
370
    35
390
0
 62
     7
 48
0.03937
100
AcDbEllipse
 10
8.431592
 20
6.71749
 30
0.0
 11
-0.1422159764954534
 21
-0.0005557838926768
 31
0.0
210
0.0
220
0.0
230
1.0
 40
0.364583
 41
1.7132066253837288
 42
3.1415925986854489
  0
ELLIPSE
  5
1C7
100
AcDbEntity
  8
0
370
    35
390
0
 62
     7
 48
0.03937
100
AcDbEllipse
 10
8.431592
 20
6.71749
 30
0.0
 11
-0.1422159764954534
 21
-0.0005557838926768
 31
0.0
210
0.0
220
0.0
230
1.0
 40
0.364583
 41
6.283185252275242
 42
7.9963919325633137
  0
ELLIPSE
  5
1C8
100
AcDbEntity
  8
0
370
    35
390
0
 62
     7
 48
0.03937
100
AcDbEllipse
 10
7.950265
 20
3.621639
 30
0.0
 11
-0.1422159764954533
 21
-0.0005557838926771
 31
0.0
210
0.0
220
0.0
230
1.0
 40
0.364583
 41
3.1415926282659767
 42
4.2840029521786231
  0
ELLIPSE
  5
1C9
100
AcDbEntity
  8
0
370
    35
390
0
 62
     7
 48
0.03937
100
AcDbEllipse
 10
8.073231
 20
3.93663
 30
0.0
 11
-0.1422159764954533
 21
-0.0005557838926779
 31
0.0
210
0.0
220
0.0
230
1.0
 40
0.364583
 41
4.6227185484118936
 42
6.2831852818557685
  0
ELLIPSE
  5
1CA
100
AcDbEntity
  8
0
370
    35
390
0
 62
     7
 48
0.03937
100
AcDbEllipse
 10
8.073231
 20
3.93663
 30
0.0
 11
-0.1422159764954533
 21
-0.0005557838926779
 31
0.0
210
0.0
220
0.0
230
1.0
 40
0.364583
 41
6.2831852818557685
 42
7.9436520668571706
  0
ELLIPSE
  5
1CB
100
AcDbEntity
  8
0
370
    35
390
0
 62
     7
 48
0.03937
100
AcDbEllipse
 10
8.93605
 20
3.894721
 30
0.0
 11
-0.1422159764954535
 21
-0.0005557838926774
 31
0.0
210
0.0
220
0.0
230
1.0
 40
0.364583
 41
3.1415926282659776
 42
6.0096855049564102
  0
ELLIPSE
  5
1CC
100
AcDbEntity
  8
0
370
    35
390
0
 62
     7
 48
0.03937
100
AcDbEllipse
 10
8.93605
 20
3.894721
 30
0.0
 11
-0.1422159764954535
 21
-0.0005557838926768
 31
0.0
210
0.0
220
0.0
230
1.0
 40
0.364583
 41
1.1424102985888289
 42
3.1415926282659776
  0
ELLIPSE
  5
1CD
100
AcDbEntity
  8
0
370
    35
390
0
 62
     7
 48
0.03937
100
AcDbEllipse
 10
8.93605
 20
3.894721
 30
0.0
 11
-0.1422159764954535
 21
-0.0005557838926774
 31
0.0
210
0.0
220
0.0
230
1.0
 40
0.364583
 41
0.2735014097523936
 42
1.1424102985888296
  0
ELLIPSE
  5
1CE
100
AcDbEntity
  8
0
370
    35
390
0
 62
     7
 48
0.03937
100
AcDbEllipse
 10
8.813084
 20
3.579731
 30
0.0
 11
-0.1422159764954533
 21
-0.0005557838926774
 31
0.0
210
0.0
220
0.0
230
1.0
 40
0.364583
 41
6.2831852818557694
 42
9.4247779354455616
  0
ELLIPSE
  5
1CF
100
AcDbEntity
  8
0
370
    35
390
0
 62
     7
 48
0.03937
100
AcDbEllipse
 10
8.813084
 20
3.579731
 30
0.0
 11
-0.1422159764954533
 21
-0.0005557838926776
 31
0.0
210
0.0
220
0.0
230
1.0
 40
0.364583
 41
5.8547992789735197
 42
6.2831852818557694
  0
ELLIPSE
  5
1D0
100
AcDbEntity
  8
0
370
    35
390
0
 62
     7
 48
0.03937
100
AcDbEllipse
 10
8.813084
 20
3.579731
 30
0.0
 11
-0.1422159764954533
 21
-0.0005557838926774
 31
0.0
210
0.0
220
0.0
230
1.0
 40
0.364583
 41
3.1415926282659754
 42
5.8547992789735197
  0
ELLIPSE
  5
1D1
100
AcDbEntity
  8
0
370
    35
390
0
 62
     7
 48
0.03937
100
AcDbEllipse
 10
8.356207
 20
3.535449
 30
0.0
 11
0.1611781050830661
 21
0.0006298884054022
 31
0.0
210
0.0
220
0.0
230
1.0
 40
0.364583
 41
0.0000000540707186
 42
3.1415927076605121
  0
ELLIPSE
  5
1D2
100
AcDbEntity
  8
0
370
    35
390
0
 62
     7
 48
0.03937
100
AcDbEllipse
 10
8.356207
 20
3.535449
 30
0.0
 11
0.1611781050830661
 21
0.0006298884054022
 31
0.0
210
0.0
220
0.0
230
1.0
 40
0.364583
 41
3.1415927076605121
 42
6.1401974423709733
  0
ELLIPSE
  5
1D3
100
AcDbEntity
  8
0
370
    35
390
0
 62
     7
 48
0.03937
100
AcDbEllipse
 10
8.356207
 20
3.535449
 30
0.0
 11
0.1611781050830661
 21
0.0006298884054022
 31
0.0
210
0.0
220
0.0
230
1.0
 40
0.364583
 41
6.1401974423709769
 42
6.2831853612503066
  0
ELLIPSE
  5
1D4
100
AcDbEntity
  8
0
370
    35
390
0
 62
     7
 48
0.03937
100
AcDbEllipse
 10
8.356207
 20
3.535449
 30
0.0
 11
0.126988810065446
 21
0.0004962757133472
 31
0.0
210
0.0
220
0.0
230
1.0
 40
0.364583
 41
0.0000000540707187
 42
3.1415927076605121
  0
ELLIPSE
  5
1D5
100
AcDbEntity
  8
0
370
    35
390
0
 62
     7
 48
0.03937
100
AcDbEllipse
 10
8.356207
 20
3.535449
 30
0.0
 11
0.126988810065446
 21
0.0004962757133472
 31
0.0
210
0.0
220
0.0
230
1.0
 40
0.364583
 41
3.1415927076605121
 42
6.1401974423709733
  0
ELLIPSE
  5
1D6
100
AcDbEntity
  8
0
370
    35
390
0
 62
     7
 48
0.03937
100
AcDbEllipse
 10
8.356207
 20
3.535449
 30
0.0
 11
0.126988810065446
 21
0.0004962757133472
 31
0.0
210
0.0
220
0.0
230
1.0
 40
0.364583
 41
6.1401974423709751
 42
6.2831853612503048
  0
LINE
  5
1D7
100
AcDbEntity
  8
0
370
    35
390
0
 62
     7
 48
0.000176
100
AcDbLine
 10
8.362394
 20
3.552536
 30
0.0
 11
8.356059
 21
3.549504
 31
0.0
210
0.0
220
0.0
230
1.0
  0
LINE
  5
1D8
100
AcDbEntity
  8
0
370
    35
390
0
 62
     7
 48
0.000017
100
AcDbLine
 10
8.356059
 20
3.549504
 30
0.0
 11
8.355444
 21
3.549193
 31
0.0
210
0.0
220
0.0
230
1.0
  0
LINE
  5
1D9
100
AcDbEntity
  8
0
370
    35
390
0
 62
     7
 48
0.000017
100
AcDbLine
 10
8.355444
 20
3.549193
 30
0.0
 11
8.35483
 21
3.548866
 31
0.0
210
0.0
220
0.0
230
1.0
  0
LINE
  5
1DA
100
AcDbEntity
  8
0
370
    35
390
0
 62
     7
 48
0.000018
100
AcDbLine
 10
8.35483
 20
3.548866
 30
0.0
 11
8.354216
 21
3.548522
 31
0.0
210
0.0
220
0.0
230
1.0
  0
LINE
  5
1DB
100
AcDbEntity
  8
0
370
    35
390
0
 62
     7
 48
0.000018
100
AcDbLine
 10
8.354216
 20
3.548522
 30
0.0
 11
8.353603
 21
3.548162
 31
0.0
210
0.0
220
0.0
230
1.0
  0
LINE
  5
1DC
100
AcDbEntity
  8
0
370
    35
390
0
 62
     7
 48
0.000018
100
AcDbLine
 10
8.353603
 20
3.548162
 30
0.0
 11
8.352991
 21
3.547785
 31
0.0
210
0.0
220
0.0
230
1.0
  0
LINE
  5
1DD
100
AcDbEntity
  8
0
370
    35
390
0
 62
     7
 48
0.000018
100
AcDbLine
 10
8.352991
 20
3.547785
 30
0.0
 11
8.352379
 21
3.547391
 31
0.0
210
0.0
220
0.0
230
1.0
  0
LINE
  5
1DE
100
AcDbEntity
  8
0
370
    35
390
0
 62
     7
 48
0.000018
100
AcDbLine
 10
8.352379
 20
3.547391
 30
0.0
 11
8.351767
 21
3.546981
 31
0.0
210
0.0
220
0.0
230
1.0
  0
LINE
  5
1DF
100
AcDbEntity
  8
0
370
    35
390
0
 62
     7
 48
0.000019
100
AcDbLine
 10
8.351767
 20
3.546981
 30
0.0
 11
8.351156
 21
3.546554
 31
0.0
210
0.0
220
0.0
230
1.0
  0
LINE
  5
1E0
100
AcDbEntity
  8
0
370
    35
390
0
 62
     7
 48
0.000019
100
AcDbLine
 10
8.351156
 20
3.546554
 30
0.0
 11
8.350547
 21
3.546111
 31
0.0
210
0.0
220
0.0
230
1.0
  0
LINE
  5
1E1
100
AcDbEntity
  8
0
370
    35
390
0
 62
     7
 48
0.000019
100
AcDbLine
 10
8.350547
 20
3.546111
 30
0.0
 11
8.349936
 21
3.545651
 31
0.0
210
0.0
220
0.0
230
1.0
  0
LINE
  5
1E2
100
AcDbEntity
  8
0
370
    35
390
0
 62
     7
 48
0.000025
100
AcDbLine
 10
8.349936
 20
3.545651
 30
0.0
 11
8.34904
 21
3.546083
 31
0.0
210
0.0
220
0.0
230
1.0
  0
LINE
  5
1E3
100
AcDbEntity
  8
0
370
    35
390
0
 62
     7
 48
0.000015
100
AcDbLine
 10
8.34904
 20
3.546083
 30
0.0
 11
8.348838
 21
3.546666
 31
0.0
210
0.0
220
0.0
230
1.0
  0
LINE
  5
1E4
100
AcDbEntity
  8
0
370
    35
390
0
 62
     7
 48
0.000015
100
AcDbLine
 10
8.348838
 20
3.546666
 30
0.0
 11
8.348587
 21
3.547215
 31
0.0
210
0.0
220
0.0
230
1.0
  0
LINE
  5
1E5
100
AcDbEntity
  8
0
370
    35
390
0
 62
     7
 48
0.000015
100
AcDbLine
 10
8.348587
 20
3.547215
 30
0.0
 11
8.34829
 21
3.547731
 31
0.0
210
0.0
220
0.0
230
1.0
  0
LINE
  5
1E6
100
AcDbEntity
  8
0
370
    35
390
0
 62
     7
 48
0.000015
100
AcDbLine
 10
8.34829
 20
3.547731
 30
0.0
 11
8.347943
 21
3.548212
 31
0.0
210
0.0
220
0.0
230
1.0
  0
LINE
  5
1E7
100
AcDbEntity
  8
0
370
    35
390
0
 62
     7
 48
0.000015
100
AcDbLine
 10
8.347943
 20
3.548212
 30
0.0
 11
8.347549
 21
3.548659
 31
0.0
210
0.0
220
0.0
230
1.0
  0
LINE
  5
1E8
100
AcDbEntity
  8
0
370
    35
390
0
 62
     7
 48
0.000015
100
AcDbLine
 10
8.347549
 20
3.548659
 30
0.0
 11
8.347107
 21
3.549072
 31
0.0
210
0.0
220
0.0
230
1.0
  0
LINE
  5
1E9
100
AcDbEntity
  8
0
370
    35
390
0
 62
     7
 48
0.000015
100
AcDbLine
 10
8.347107
 20
3.549072
 30
0.0
 11
8.346617
 21
3.549451
 31
0.0
210
0.0
220
0.0
230
1.0
  0
LINE
  5
1EA
100
AcDbEntity
  8
0
370
    35
390
0
 62
     7
 48
0.000016
100
AcDbLine
 10
8.346617
 20
3.549451
 30
0.0
 11
8.346078
 21
3.549797
 31
0.0
210
0.0
220
0.0
230
1.0
  0
LINE
  5
1EB
100
AcDbEntity
  8
0
370
    35
390
0
 62
     7
 48
0.000017
100
AcDbLine
 10
8.346078
 20
3.549797
 30
0.0
 11
8.345492
 21
3.550108
 31
0.0
210
0.0
220
0.0
230
1.0
  0
LINE
  5
1EC
100
AcDbEntity
  8
0
370
    35
390
0
 62
     7
 48
0.000017
100
AcDbLine
 10
8.345492
 20
3.550108
 30
0.0
 11
8.344857
 21
3.550385
 31
0.0
210
0.0
220
0.0
230
1.0
  0
LINE
  5
1ED
100
AcDbEntity
  8
0
370
    35
390
0
 62
     7
 48
0.000019
100
AcDbLine
 10
8.344857
 20
3.550385
 30
0.0
 11
8.344155
 21
3.550636
 31
0.0
210
0.0
220
0.0
230
1.0
  0
LINE
  5
1EE
100
AcDbEntity
  8
0
370
    35
390
0
 62
     7
 48
0.000021
100
AcDbLine
 10
8.344155
 20
3.550636
 30
0.0
 11
8.343365
 21
3.550868
 31
0.0
210
0.0
220
0.0
230
1.0
  0
LINE
  5
1EF
100
AcDbEntity
  8
0
370
    35
390
0
 62
     7
 48
0.000023
100
AcDbLine
 10
8.343365
 20
3.550868
 30
0.0
 11
8.342487
 21
3.551082
 31
0.0
210
0.0
220
0.0
230
1.0
  0
LINE
  5
1F0
100
AcDbEntity
  8
0
370
    35
390
0
 62
     7
 48
0.000025
100
AcDbLine
 10
8.342487
 20
3.551082
 30
0.0
 11
8.341522
 21
3.551277
 31
0.0
210
0.0
220
0.0
230
1.0
  0
LINE
  5
1F1
100
AcDbEntity
  8
0
370
    35
390
0
 62
     7
 48
0.000027
100
AcDbLine
 10
8.341522
 20
3.551277
 30
0.0
 11
8.34047
 21
3.551454
 31
0.0
210
0.0
220
0.0
230
1.0
  0
LINE
  5
1F2
100
AcDbEntity
  8
0
370
    35
390
0
 62
     7
 48
0.000029
100
AcDbLine
 10
8.34047
 20
3.551454
 30
0.0
 11
8.339329
 21
3.551612
 31
0.0
210
0.0
220
0.0
230
1.0
  0
LINE
  5
1F3
100
AcDbEntity
  8
0
370
    35
390
0
 62
     7
 48
0.000031
100
AcDbLine
 10
8.339329
 20
3.551612
 30
0.0
 11
8.338102
 21
3.551752
 31
0.0
210
0.0
220
0.0
230
1.0
  0
LINE
  5
1F4
100
AcDbEntity
  8
0
370
    35
390
0
 62
     7
 48
0.000033
100
AcDbLine
 10
8.338102
 20
3.551752
 30
0.0
 11
8.336786
 21
3.551872
 31
0.0
210
0.0
220
0.0
230
1.0
  0
LINE
  5
1F5
100
AcDbEntity
  8
0
370
    35
390
0
 62
     7
 48
0.000035
100
AcDbLine
 10
8.336786
 20
3.551872
 30
0.0
 11
8.335383
 21
3.551975
 31
0.0
210
0.0
220
0.0
230
1.0
  0
LINE
  5
1F6
100
AcDbEntity
  8
0
370
    35
390
0
 62
     7
 48
0.000037
100
AcDbLine
 10
8.335383
 20
3.551975
 30
0.0
 11
8.333894
 21
3.552059
 31
0.0
210
0.0
220
0.0
230
1.0
  0
LINE
  5
1F7
100
AcDbEntity
  8
0
370
    35
390
0
 62
     7
 48
0.000031
100
AcDbLine
 10
8.333894
 20
3.552059
 30
0.0
 11
8.332637
 21
3.552116
 31
0.0
210
0.0
220
0.0
230
1.0
  0
LINE
  5
1F8
100
AcDbEntity
  8
0
370
    35
390
0
 62
     7
 48
0.000032
100
AcDbLine
 10
8.332637
 20
3.552116
 30
0.0
 11
8.331377
 21
3.552164
 31
0.0
210
0.0
220
0.0
230
1.0
  0
LINE
  5
1F9
100
AcDbEntity
  8
0
370
    35
390
0
 62
     7
 48
0.000032
100
AcDbLine
 10
8.331377
 20
3.552164
 30
0.0
 11
8.330114
 21
3.552205
 31
0.0
210
0.0
220
0.0
230
1.0
  0
LINE
  5
1FA
100
AcDbEntity
  8
0
370
    35
390
0
 62
     7
 48
0.000032
100
AcDbLine
 10
8.330114
 20
3.552205
 30
0.0
 11
8.328847
 21
3.552238
 31
0.0
210
0.0
220
0.0
230
1.0
  0
LINE
  5
1FB
100
AcDbEntity
  8
0
370
    35
390
0
 62
     7
 48
0.000032
100
AcDbLine
 10
8.328847
 20
3.552238
 30
0.0
 11
8.327578
 21
3.552262
 31
0.0
210
0.0
220
0.0
230
1.0
  0
LINE
  5
1FC
100
AcDbEntity
  8
0
370
    35
390
0
 62
     7
 48
0.000748
100
AcDbLine
 10
8.327578
 20
3.552262
 30
0.0
 11
8.315968
 21
3.524707
 31
0.0
210
0.0
220
0.0
230
1.0
  0
LINE
  5
1FD
100
AcDbEntity
  8
0
370
    35
390
0
 62
     7
 48
0.000195
100
AcDbLine
 10
8.315968
 20
3.524707
 30
0.0
 11
8.323113
 21
3.521533
 31
0.0
210
0.0
220
0.0
230
1.0
  0
LINE
  5
1FE
100
AcDbEntity
  8
0
370
    35
390
0
 62
     7
 48
0.000798
100
AcDbLine
 10
8.323113
 20
3.521533
 30
0.0
 11
8.291246
 21
3.52308
 31
0.0
210
0.0
220
0.0
230
1.0
  0
LINE
  5
1FF
100
AcDbEntity
  8
0
370
    35
390
0
 62
     7
 48
0.00028
100
AcDbLine
 10
8.291246
 20
3.52308
 30
0.0
 11
8.30217
 21
3.525585
 31
0.0
210
0.0
220
0.0
230
1.0
  0
LINE
  5
200
100
AcDbEntity
  8
0
370
    35
390
0
 62
     7
 48
0.00068
100
AcDbLine
 10
8.30217
 20
3.525585
 30
0.0
 11
8.312059
 21
3.550914
 31
0.0
210
0.0
220
0.0
230
1.0
  0
LINE
  5
201
100
AcDbEntity
  8
0
370
    35
390
0
 62
     7
 48
0.000124
100
AcDbLine
 10
8.312059
 20
3.550914
 30
0.0
 11
8.307118
 21
3.551181
 31
0.0
210
0.0
220
0.0
230
1.0
  0
LINE
  5
202
100
AcDbEntity
  8
0
370
    35
390
0
 62
     7
 48
0.000035
100
AcDbLine
 10
8.307118
 20
3.551181
 30
0.0
 11
8.30572
 21
3.551238
 31
0.0
210
0.0
220
0.0
230
1.0
  0
LINE
  5
203
100
AcDbEntity
  8
0
370
    35
390
0
 62
     7
 48
0.000033
100
AcDbLine
 10
8.30572
 20
3.551238
 30
0.0
 11
8.304395
 21
3.551271
 31
0.0
210
0.0
220
0.0
230
1.0
  0
LINE
  5
204
100
AcDbEntity
  8
0
370
    35
390
0
 62
     7
 48
0.000031
100
AcDbLine
 10
8.304395
 20
3.551271
 30
0.0
 11
8.303146
 21
3.551279
 31
0.0
210
0.0
220
0.0
230
1.0
  0
LINE
  5
205
100
AcDbEntity
  8
0
370
    35
390
0
 62
     7
 48
0.000029
100
AcDbLine
 10
8.303146
 20
3.551279
 30
0.0
 11
8.301972
 21
3.551262
 31
0.0
210
0.0
220
0.0
230
1.0
  0
LINE
  5
206
100
AcDbEntity
  8
0
370
    35
390
0
 62
     7
 48
0.000027
100
AcDbLine
 10
8.301972
 20
3.551262
 30
0.0
 11
8.300873
 21
3.551221
 31
0.0
210
0.0
220
0.0
230
1.0
  0
LINE
  5
207
100
AcDbEntity
  8
0
370
    35
390
0
 62
     7
 48
0.000026
100
AcDbLine
 10
8.300873
 20
3.551221
 30
0.0
 11
8.299848
 21
3.551155
 31
0.0
210
0.0
220
0.0
230
1.0
  0
LINE
  5
208
100
AcDbEntity
  8
0
370
    35
390
0
 62
     7
 48
0.000024
100
AcDbLine
 10
8.299848
 20
3.551155
 30
0.0
 11
8.298899
 21
3.551065
 31
0.0
210
0.0
220
0.0
230
1.0
  0
LINE
  5
209
100
AcDbEntity
  8
0
370
    35
390
0
 62
     7
 48
0.000042
100
AcDbLine
 10
8.298899
 20
3.551065
 30
0.0
 11
8.297225
 21
3.55081
 31
0.0
210
0.0
220
0.0
230
1.0
  0
LINE
  5
20A
100
AcDbEntity
  8
0
370
    35
390
0
 62
     7
 48
0.000036
100
AcDbLine
 10
8.297225
 20
3.55081
 30
0.0
 11
8.295832
 21
3.550452
 31
0.0
210
0.0
220
0.0
230
1.0
  0
LINE
  5
20B
100
AcDbEntity
  8
0
370
    35
390
0
 62
     7
 48
0.000033
100
AcDbLine
 10
8.295832
 20
3.550452
 30
0.0
 11
8.294606
 21
3.549964
 31
0.0
210
0.0
220
0.0
230
1.0
  0
LINE
  5
20C
100
AcDbEntity
  8
0
370
    35
390
0
 62
     7
 48
0.000031
100
AcDbLine
 10
8.294606
 20
3.549964
 30
0.0
 11
8.29353
 21
3.54934
 31
0.0
210
0.0
220
0.0
230
1.0
  0
LINE
  5
20D
100
AcDbEntity
  8
0
370
    35
390
0
 62
     7
 48
0.000015
100
AcDbLine
 10
8.29353
 20
3.54934
 30
0.0
 11
8.293048
 21
3.548978
 31
0.0
210
0.0
220
0.0
230
1.0
  0
LINE
  5
20E
100
AcDbEntity
  8
0
370
    35
390
0
 62
     7
 48
0.000015
100
AcDbLine
 10
8.293048
 20
3.548978
 30
0.0
 11
8.292603
 21
3.548582
 31
0.0
210
0.0
220
0.0
230
1.0
  0
LINE
  5
20F
100
AcDbEntity
  8
0
370
    35
390
0
 62
     7
 48
0.000015
100
AcDbLine
 10
8.292603
 20
3.548582
 30
0.0
 11
8.292196
 21
3.548153
 31
0.0
210
0.0
220
0.0
230
1.0
  0
LINE
  5
210
100
AcDbEntity
  8
0
370
    35
390
0
 62
     7
 48
0.000015
100
AcDbLine
 10
8.292196
 20
3.548153
 30
0.0
 11
8.291826
 21
3.54769
 31
0.0
210
0.0
220
0.0
230
1.0
  0
LINE
  5
211
100
AcDbEntity
  8
0
370
    35
390
0
 62
     7
 48
0.000015
100
AcDbLine
 10
8.291826
 20
3.54769
 30
0.0
 11
8.291493
 21
3.547192
 31
0.0
210
0.0
220
0.0
230
1.0
  0
LINE
  5
212
100
AcDbEntity
  8
0
370
    35
390
0
 62
     7
 48
0.000045
100
AcDbLine
 10
8.291493
 20
3.547192
 30
0.0
 11
8.289679
 21
3.54728
 31
0.0
210
0.0
220
0.0
230
1.0
  0
LINE
  5
213
100
AcDbEntity
  8
0
370
    35
390
0
 62
     7
 48
0.000017
100
AcDbLine
 10
8.289679
 20
3.54728
 30
0.0
 11
8.290086
 21
3.547849
 31
0.0
210
0.0
220
0.0
230
1.0
  0
LINE
  5
214
100
AcDbEntity
  8
0
370
    35
390
0
 62
     7
 48
0.000017
100
AcDbLine
 10
8.290086
 20
3.547849
 30
0.0
 11
8.29053
 21
3.548379
 31
0.0
210
0.0
220
0.0
230
1.0
  0
LINE
  5
215
100
AcDbEntity
  8
0
370
    35
390
0
 62
     7
 48
0.000017
100
AcDbLine
 10
8.29053
 20
3.548379
 30
0.0
 11
8.291016
 21
3.548871
 31
0.0
210
0.0
220
0.0
230
1.0
  0
LINE
  5
216
100
AcDbEntity
  8
0
370
    35
390
0
 62
     7
 48
0.000017
100
AcDbLine
 10
8.291016
 20
3.548871
 30
0.0
 11
8.29154
 21
3.549323
 31
0.0
210
0.0
220
0.0
230
1.0
  0
LINE
  5
217
100
AcDbEntity
  8
0
370
    35
390
0
 62
     7
 48
0.000017
100
AcDbLine
 10
8.29154
 20
3.549323
 30
0.0
 11
8.292104
 21
3.549737
 31
0.0
210
0.0
220
0.0
230
1.0
  0
LINE
  5
218
100
AcDbEntity
  8
0
370
    35
390
0
 62
     7
 48
0.000018
100
AcDbLine
 10
8.292104
 20
3.549737
 30
0.0
 11
8.292708
 21
3.550112
 31
0.0
210
0.0
220
0.0
230
1.0
  0
LINE
  5
219
100
AcDbEntity
  8
0
370
    35
390
0
 62
     7
 48
0.000018
100
AcDbLine
 10
8.292708
 20
3.550112
 30
0.0
 11
8.293351
 21
3.550448
 31
0.0
210
0.0
220
0.0
230
1.0
  0
LINE
  5
21A
100
AcDbEntity
  8
0
370
    35
390
0
 62
     7
 48
0.000019
100
AcDbLine
 10
8.293351
 20
3.550448
 30
0.0
 11
8.294034
 21
3.550746
 31
0.0
210
0.0
220
0.0
230
1.0
  0
LINE
  5
21B
100
AcDbEntity
  8
0
370
    35
390
0
 62
     7
 48
0.000019
100
AcDbLine
 10
8.294034
 20
3.550746
 30
0.0
 11
8.294756
 21
3.551005
 31
0.0
210
0.0
220
0.0
230
1.0
  0
LINE
  5
21C
100
AcDbEntity
  8
0
370
    35
390
0
 62
     7
 48
0.000041
100
AcDbLine
 10
8.294756
 20
3.551005
 30
0.0
 11
8.296341
 21
3.551412
 31
0.0
210
0.0
220
0.0
230
1.0
  0
LINE
  5
21D
100
AcDbEntity
  8
0
370
    35
390
0
 62
     7
 48
0.000023
100
AcDbLine
 10
8.296341
 20
3.551412
 30
0.0
 11
8.297243
 21
3.551571
 31
0.0
210
0.0
220
0.0
230
1.0
  0
LINE
  5
21E
100
AcDbEntity
  8
0
370
    35
390
0
 62
     7
 48
0.000025
100
AcDbLine
 10
8.297243
 20
3.551571
 30
0.0
 11
8.298227
 21
3.551702
 31
0.0
210
0.0
220
0.0
230
1.0
  0
LINE
  5
21F
100
AcDbEntity
  8
0
370
    35
390
0
 62
     7
 48
0.000027
100
AcDbLine
 10
8.298227
 20
3.551702
 30
0.0
 11
8.299292
 21
3.551805
 31
0.0
210
0.0
220
0.0
230
1.0
  0
LINE
  5
220
100
AcDbEntity
  8
0
370
    35
390
0
 62
     7
 48
0.000029
100
AcDbLine
 10
8.299292
 20
3.551805
 30
0.0
 11
8.300437
 21
3.551881
 31
0.0
210
0.0
220
0.0
230
1.0
  0
LINE
  5
221
100
AcDbEntity
  8
0
370
    35
390
0
 62
     7
 48
0.000031
100
AcDbLine
 10
8.300437
 20
3.551881
 30
0.0
 11
8.301664
 21
3.551929
 31
0.0
210
0.0
220
0.0
230
1.0
  0
LINE
  5
222
100
AcDbEntity
  8
0
370
    35
390
0
 62
     7
 48
0.000033
100
AcDbLine
 10
8.301664
 20
3.551929
 30
0.0
 11
8.302971
 21
3.551949
 31
0.0
210
0.0
220
0.0
230
1.0
  0
LINE
  5
223
100
AcDbEntity
  8
0
370
    35
390
0
 62
     7
 48
0.000035
100
AcDbLine
 10
8.302971
 20
3.551949
 30
0.0
 11
8.304358
 21
3.551941
 31
0.0
210
0.0
220
0.0
230
1.0
  0
LINE
  5
224
100
AcDbEntity
  8
0
370
    35
390
0
 62
     7
 48
0.000037
100
AcDbLine
 10
8.304358
 20
3.551941
 30
0.0
 11
8.305828
 21
3.551906
 31
0.0
210
0.0
220
0.0
230
1.0
  0
LINE
  5
225
100
AcDbEntity
  8
0
370
    35
390
0
 62
     7
 48
0.000039
100
AcDbLine
 10
8.305828
 20
3.551906
 30
0.0
 11
8.307377
 21
3.551842
 31
0.0
210
0.0
220
0.0
230
1.0
  0
LINE
  5
226
100
AcDbEntity
  8
0
370
    35
390
0
 62
     7
 48
0.000104
100
AcDbLine
 10
8.307377
 20
3.551842
 30
0.0
 11
8.31155
 21
3.551614
 31
0.0
210
0.0
220
0.0
230
1.0
  0
LINE
  5
227
100
AcDbEntity
  8
0
370
    35
390
0
 62
     7
 48
0.000044
100
AcDbLine
 10
8.31155
 20
3.551614
 30
0.0
 11
8.312804
 21
3.552824
 31
0.0
210
0.0
220
0.0
230
1.0
  0
LINE
  5
228
100
AcDbEntity
  8
0
370
    35
390
0
 62
     7
 48
0.000035
100
AcDbLine
 10
8.312804
 20
3.552824
 30
0.0
 11
8.311417
 21
3.552947
 31
0.0
210
0.0
220
0.0
230
1.0
  0
LINE
  5
229
100
AcDbEntity
  8
0
370
    35
390
0
 62
     7
 48
0.000034
100
AcDbLine
 10
8.311417
 20
3.552947
 30
0.0
 11
8.310053
 21
3.553057
 31
0.0
210
0.0
220
0.0
230
1.0
  0
LINE
  5
22A
100
AcDbEntity
  8
0
370
    35
390
0
 62
     7
 48
0.000034
100
AcDbLine
 10
8.310053
 20
3.553057
 30
0.0
 11
8.308712
 21
3.553153
 31
0.0
210
0.0
220
0.0
230
1.0
  0
LINE
  5
22B
100
AcDbEntity
  8
0
370
    35
390
0
 62
     7
 48
0.000033
100
AcDbLine
 10
8.308712
 20
3.553153
 30
0.0
 11
8.307394
 21
3.553236
 31
0.0
210
0.0
220
0.0
230
1.0
  0
LINE
  5
22C
100
AcDbEntity
  8
0
370
    35
390
0
 62
     7
 48
0.000032
100
AcDbLine
 10
8.307394
 20
3.553236
 30
0.0
 11
8.3061
 21
3.553305
 31
0.0
210
0.0
220
0.0
230
1.0
  0
LINE
  5
22D
100
AcDbEntity
  8
0
370
    35
390
0
 62
     7
 48
0.000044
100
AcDbLine
 10
8.3061
 20
3.553305
 30
0.0
 11
8.304346
 21
3.553377
 31
0.0
210
0.0
220
0.0
230
1.0
  0
LINE
  5
22E
100
AcDbEntity
  8
0
370
    35
390
0
 62
     7
 48
0.000042
100
AcDbLine
 10
8.304346
 20
3.553377
 30
0.0
 11
8.302682
 21
3.553417
 31
0.0
210
0.0
220
0.0
230
1.0
  0
LINE
  5
22F
100
AcDbEntity
  8
0
370
    35
390
0
 62
     7
 48
0.000039
100
AcDbLine
 10
8.302682
 20
3.553417
 30
0.0
 11
8.301108
 21
3.553425
 31
0.0
210
0.0
220
0.0
230
1.0
  0
LINE
  5
230
100
AcDbEntity
  8
0
370
    35
390
0
 62
     7
 48
0.000037
100
AcDbLine
 10
8.301108
 20
3.553425
 30
0.0
 11
8.299623
 21
3.553402
 31
0.0
210
0.0
220
0.0
230
1.0
  0
LINE
  5
231
100
AcDbEntity
  8
0
370
    35
390
0
 62
     7
 48
0.000035
100
AcDbLine
 10
8.299623
 20
3.553402
 30
0.0
 11
8.298229
 21
3.553347
 31
0.0
210
0.0
220
0.0
230
1.0
  0
LINE
  5
232
100
AcDbEntity
  8
0
370
    35
390
0
 62
     7
 48
0.000033
100
AcDbLine
 10
8.298229
 20
3.553347
 30
0.0
 11
8.296925
 21
3.55326
 31
0.0
210
0.0
220
0.0
230
1.0
  0
LINE
  5
233
100
AcDbEntity
  8
0
370
    35
390
0
 62
     7
 48
0.00003
100
AcDbLine
 10
8.296925
 20
3.55326
 30
0.0
 11
8.295711
 21
3.553142
 31
0.0
210
0.0
220
0.0
230
1.0
  0
LINE
  5
234
100
AcDbEntity
  8
0
370
    35
390
0
 62
     7
 48
0.000028
100
AcDbLine
 10
8.295711
 20
3.553142
 30
0.0
 11
8.294587
 21
3.552993
 31
0.0
210
0.0
220
0.0
230
1.0
  0
LINE
  5
235
100
AcDbEntity
  8
0
370
    35
390
0
 62
     7
 48
0.000026
100
AcDbLine
 10
8.294587
 20
3.552993
 30
0.0
 11
8.293552
 21
3.552812
 31
0.0
210
0.0
220
0.0
230
1.0
  0
LINE
  5
236
100
AcDbEntity
  8
0
370
    35
390
0
 62
     7
 48
0.000024
100
AcDbLine
 10
8.293552
 20
3.552812
 30
0.0
 11
8.292608
 21
3.552599
 31
0.0
210
0.0
220
0.0
230
1.0
  0
LINE
  5
237
100
AcDbEntity
  8
0
370
    35
390
0
 62
     7
 48
0.000023
100
AcDbLine
 10
8.292608
 20
3.552599
 30
0.0
 11
8.291737
 21
3.55235
 31
0.0
210
0.0
220
0.0
230
1.0
  0
LINE
  5
238
100
AcDbEntity
  8
0
370
    35
390
0
 62
     7
 48
0.000022
100
AcDbLine
 10
8.291737
 20
3.55235
 30
0.0
 11
8.290923
 21
3.55206
 31
0.0
210
0.0
220
0.0
230
1.0
  0
LINE
  5
239
100
AcDbEntity
  8
0
370
    35
390
0
 62
     7
 48
0.000021
100
AcDbLine
 10
8.290923
 20
3.55206
 30
0.0
 11
8.290165
 21
3.551731
 31
0.0
210
0.0
220
0.0
230
1.0
  0
LINE
  5
23A
100
AcDbEntity
  8
0
370
    35
390
0
 62
     7
 48
0.00002
100
AcDbLine
 10
8.290165
 20
3.551731
 30
0.0
 11
8.289465
 21
3.551361
 31
0.0
210
0.0
220
0.0
230
1.0
  0
LINE
  5
23B
100
AcDbEntity
  8
0
370
    35
390
0
 62
     7
 48
0.000019
100
AcDbLine
 10
8.289465
 20
3.551361
 30
0.0
 11
8.288821
 21
3.55095
 31
0.0
210
0.0
220
0.0
230
1.0
  0
LINE
  5
23C
100
AcDbEntity
  8
0
370
    35
390
0
 62
     7
 48
0.000019
100
AcDbLine
 10
8.288821
 20
3.55095
 30
0.0
 11
8.288233
 21
3.5505
 31
0.0
210
0.0
220
0.0
230
1.0
  0
LINE
  5
23D
100
AcDbEntity
  8
0
370
    35
390
0
 62
     7
 48
0.000018
100
AcDbLine
 10
8.288233
 20
3.5505
 30
0.0
 11
8.287703
 21
3.550009
 31
0.0
210
0.0
220
0.0
230
1.0
  0
LINE
  5
23E
100
AcDbEntity
  8
0
370
    35
390
0
 62
     7
 48
0.000018
100
AcDbLine
 10
8.287703
 20
3.550009
 30
0.0
 11
8.287229
 21
3.549477
 31
0.0
210
0.0
220
0.0
230
1.0
  0
LINE
  5
23F
100
AcDbEntity
  8
0
370
    35
390
0
 62
     7
 48
0.000018
100
AcDbLine
 10
8.287229
 20
3.549477
 30
0.0
 11
8.286812
 21
3.548905
 31
0.0
210
0.0
220
0.0
230
1.0
  0
LINE
  5
240
100
AcDbEntity
  8
0
370
    35
390
0
 62
     7
 48
0.000018
100
AcDbLine
 10
8.286812
 20
3.548905
 30
0.0
 11
8.286452
 21
3.548293
 31
0.0
210
0.0
220
0.0
230
1.0
  0
LINE
  5
241
100
AcDbEntity
  8
0
370
    35
390
0
 62
     7
 48
0.000036
100
AcDbLine
 10
8.286452
 20
3.548293
 30
0.0
 11
8.285261
 21
3.54908
 31
0.0
210
0.0
220
0.0
230
1.0
  0
LINE
  5
242
100
AcDbEntity
  8
0
370
    35
390
0
 62
     7
 48
0.000022
100
AcDbLine
 10
8.285261
 20
3.54908
 30
0.0
 11
8.28485
 21
3.549847
 31
0.0
210
0.0
220
0.0
230
1.0
  0
LINE
  5
243
100
AcDbEntity
  8
0
370
    35
390
0
 62
     7
 48
0.000023
100
AcDbLine
 10
8.28485
 20
3.549847
 30
0.0
 11
8.284378
 21
3.550632
 31
0.0
210
0.0
220
0.0
230
1.0
  0
LINE
  5
244
100
AcDbEntity
  8
0
370
    35
390
0
 62
     7
 48
0.000024
100
AcDbLine
 10
8.284378
 20
3.550632
 30
0.0
 11
8.283848
 21
3.551437
 31
0.0
210
0.0
220
0.0
230
1.0
  0
LINE
  5
245
100
AcDbEntity
  8
0
370
    35
390
0
 62
     7
 48
0.000025
100
AcDbLine
 10
8.283848
 20
3.551437
 30
0.0
 11
8.283258
 21
3.552261
 31
0.0
210
0.0
220
0.0
230
1.0
  0
LINE
  5
246
100
AcDbEntity
  8
0
370
    35
390
0
 62
     7
 48
0.000027
100
AcDbLine
 10
8.283258
 20
3.552261
 30
0.0
 11
8.282609
 21
3.553105
 31
0.0
210
0.0
220
0.0
230
1.0
  0
LINE
  5
247
100
AcDbEntity
  8
0
370
    35
390
0
 62
     7
 48
0.000028
100
AcDbLine
 10
8.282609
 20
3.553105
 30
0.0
 11
8.2819
 21
3.553969
 31
0.0
210
0.0
220
0.0
230
1.0
  0
LINE
  5
248
100
AcDbEntity
  8
0
370
    35
390
0
 62
     7
 48
0.000029
100
AcDbLine
 10
8.2819
 20
3.553969
 30
0.0
 11
8.281133
 21
3.554852
 31
0.0
210
0.0
220
0.0
230
1.0
  0
LINE
  5
249
100
AcDbEntity
  8
0
370
    35
390
0
 62
     7
 48
0.000031
100
AcDbLine
 10
8.281133
 20
3.554852
 30
0.0
 11
8.280306
 21
3.555754
 31
0.0
210
0.0
220
0.0
230
1.0
  0
LINE
  5
24A
100
AcDbEntity
  8
0
370
    35
390
0
 62
     7
 48
0.000032
100
AcDbLine
 10
8.280306
 20
3.555754
 30
0.0
 11
8.279421
 21
3.556676
 31
0.0
210
0.0
220
0.0
230
1.0
  0
LINE
  5
24B
100
AcDbEntity
  8
0
370
    35
390
0
 62
     7
 48
0.002093
100
AcDbLine
 10
8.279421
 20
3.556676
 30
0.0
 11
8.363059
 21
3.552873
 31
0.0
210
0.0
220
0.0
230
1.0
  0
LINE
  5
24C
100
AcDbEntity
  8
0
370
    35
390
0
 62
     7
 48
0.000019
100
AcDbLine
 10
8.363059
 20
3.552873
 30
0.0
 11
8.362394
 21
3.552536
 31
0.0
210
0.0
220
0.0
230
1.0
  0
LINE
  5
24D
100
AcDbEntity
  8
0
370
    35
390
0
 62
     7
 48
0.000032
100
AcDbLine
 10
8.365672
 20
3.550625
 30
0.0
 11
8.364486
 21
3.550136
 31
0.0
210
0.0
220
0.0
230
1.0
  0
LINE
  5
24E
100
AcDbEntity
  8
0
370
    35
390
0
 62
     7
 48
0.000033
100
AcDbLine
 10
8.364486
 20
3.550136
 30
0.0
 11
8.363267
 21
3.549588
 31
0.0
210
0.0
220
0.0
230
1.0
  0
LINE
  5
24F
100
AcDbEntity
  8
0
370
    35
390
0
 62
     7
 48
0.000035
100
AcDbLine
 10
8.363267
 20
3.549588
 30
0.0
 11
8.362014
 21
3.548982
 31
0.0
210
0.0
220
0.0
230
1.0
  0
LINE
  5
250
100
AcDbEntity
  8
0
370
    35
390
0
 62
     7
 48
0.000036
100
AcDbLine
 10
8.362014
 20
3.548982
 30
0.0
 11
8.36073
 21
3.548317
 31
0.0
210
0.0
220
0.0
230
1.0
  0
LINE
  5
251
100
AcDbEntity
  8
0
370
    35
390
0
 62
     7
 48
0.000038
100
AcDbLine
 10
8.36073
 20
3.548317
 30
0.0
 11
8.359412
 21
3.547593
 31
0.0
210
0.0
220
0.0
230
1.0
  0
LINE
  5
252
100
AcDbEntity
  8
0
370
    35
390
0
 62
     7
 48
0.000039
100
AcDbLine
 10
8.359412
 20
3.547593
 30
0.0
 11
8.358061
 21
3.546811
 31
0.0
210
0.0
220
0.0
230
1.0
  0
LINE
  5
253
100
AcDbEntity
  8
0
370
    35
390
0
 62
     7
 48
0.00004
100
AcDbLine
 10
8.358061
 20
3.546811
 30
0.0
 11
8.356678
 21
3.545971
 31
0.0
210
0.0
220
0.0
230
1.0
  0
LINE
  5
254
100
AcDbEntity
  8
0
370
    35
390
0
 62
     7
 48
0.000042
100
AcDbLine
 10
8.356678
 20
3.545971
 30
0.0
 11
8.355262
 21
3.545071
 31
0.0
210
0.0
220
0.0
230
1.0
  0
LINE
  5
255
100
AcDbEntity
  8
0
370
    35
390
0
 62
     7
 48
0.000043
100
AcDbLine
 10
8.355262
 20
3.545071
 30
0.0
 11
8.353813
 21
3.544114
 31
0.0
210
0.0
220
0.0
230
1.0
  0
LINE
  5
256
100
AcDbEntity
  8
0
370
    35
390
0
 62
     7
 48
0.000044
100
AcDbLine
 10
8.353813
 20
3.544114
 30
0.0
 11
8.352089
 21
3.544431
 31
0.0
210
0.0
220
0.0
230
1.0
  0
LINE
  5
257
100
AcDbEntity
  8
0
370
    35
390
0
 62
     7
 48
0.000052
100
AcDbLine
 10
8.352089
 20
3.544431
 30
0.0
 11
8.353815
 21
3.545622
 31
0.0
210
0.0
220
0.0
230
1.0
  0
LINE
  5
258
100
AcDbEntity
  8
0
370
    35
390
0
 62
     7
 48
0.000042
100
AcDbLine
 10
8.353815
 20
3.545622
 30
0.0
 11
8.35521
 21
3.54653
 31
0.0
210
0.0
220
0.0
230
1.0
  0
LINE
  5
259
100
AcDbEntity
  8
0
370
    35
390
0
 62
     7
 48
0.00004
100
AcDbLine
 10
8.35521
 20
3.54653
 30
0.0
 11
8.356575
 21
3.547374
 31
0.0
210
0.0
220
0.0
230
1.0
  0
LINE
  5
25A
100
AcDbEntity
  8
0
370
    35
390
0
 62
     7
 48
0.000039
100
AcDbLine
 10
8.356575
 20
3.547374
 30
0.0
 11
8.357906
 21
3.548154
 31
0.0
210
0.0
220
0.0
230
1.0
  0
LINE
  5
25B
100
AcDbEntity
  8
0
370
    35
390
0
 62
     7
 48
0.000037
100
AcDbLine
 10
8.357906
 20
3.548154
 30
0.0
 11
8.359205
 21
3.548871
 31
0.0
210
0.0
220
0.0
230
1.0
  0
LINE
  5
25C
100
AcDbEntity
  8
0
370
    35
390
0
 62
     7
 48
0.000036
100
AcDbLine
 10
8.359205
 20
3.548871
 30
0.0
 11
8.360473
 21
3.549524
 31
0.0
210
0.0
220
0.0
230
1.0
  0
LINE
  5
25D
100
AcDbEntity
  8
0
370
    35
390
0
 62
     7
 48
0.000034
100
AcDbLine
 10
8.360473
 20
3.549524
 30
0.0
 11
8.361708
 21
3.550113
 31
0.0
210
0.0
220
0.0
230
1.0
  0
LINE
  5
25E
100
AcDbEntity
  8
0
370
    35
390
0
 62
     7
 48
0.000033
100
AcDbLine
 10
8.361708
 20
3.550113
 30
0.0
 11
8.362911
 21
3.550638
 31
0.0
210
0.0
220
0.0
230
1.0
  0
LINE
  5
25F
100
AcDbEntity
  8
0
370
    35
390
0
 62
     7
 48
0.000031
100
AcDbLine
 10
8.362911
 20
3.550638
 30
0.0
 11
8.364082
 21
3.5511
 31
0.0
210
0.0
220
0.0
230
1.0
  0
LINE
  5
260
100
AcDbEntity
  8
0
370
    35
390
0
 62
     7
 48
0.00003
100
AcDbLine
 10
8.364082
 20
3.5511
 30
0.0
 11
8.365222
 21
3.551497
 31
0.0
210
0.0
220
0.0
230
1.0
  0
LINE
  5
261
100
AcDbEntity
  8
0
370
    35
390
0
 62
     7
 48
0.000042
100
AcDbLine
 10
8.365222
 20
3.551497
 30
0.0
 11
8.366825
 21
3.551056
 31
0.0
210
0.0
220
0.0
230
1.0
  0
LINE
  5
262
100
AcDbEntity
  8
0
370
    35
390
0
 62
     7
 48
0.000031
100
AcDbLine
 10
8.366825
 20
3.551056
 30
0.0
 11
8.365672
 21
3.550625
 31
0.0
210
0.0
220
0.0
230
1.0
  0
LINE
  5
263
100
AcDbEntity
  8
0
370
    35
390
0
 62
     7
 48
0.000027
100
AcDbLine
 10
8.34566
 20
3.548284
 30
0.0
 11
8.344616
 21
3.548555
 31
0.0
210
0.0
220
0.0
230
1.0
  0
LINE
  5
264
100
AcDbEntity
  8
0
370
    35
390
0
 62
     7
 48
0.000028
100
AcDbLine
 10
8.344616
 20
3.548555
 30
0.0
 11
8.343526
 21
3.548802
 31
0.0
210
0.0
220
0.0
230
1.0
  0
LINE
  5
265
100
AcDbEntity
  8
0
370
    35
390
0
 62
     7
 48
0.000029
100
AcDbLine
 10
8.343526
 20
3.548802
 30
0.0
 11
8.342389
 21
3.549026
 31
0.0
210
0.0
220
0.0
230
1.0
  0
LINE
  5
266
100
AcDbEntity
  8
0
370
    35
390
0
 62
     7
 48
0.00003
100
AcDbLine
 10
8.342389
 20
3.549026
 30
0.0
 11
8.341207
 21
3.549226
 31
0.0
210
0.0
220
0.0
230
1.0
  0
LINE
  5
267
100
AcDbEntity
  8
0
370
    35
390
0
 62
     7
 48
0.000031
100
AcDbLine
 10
8.341207
 20
3.549226
 30
0.0
 11
8.339978
 21
3.549403
 31
0.0
210
0.0
220
0.0
230
1.0
  0
LINE
  5
268
100
AcDbEntity
  8
0
370
    35
390
0
 62
     7
 48
0.000032
100
AcDbLine
 10
8.339978
 20
3.549403
 30
0.0
 11
8.338704
 21
3.549555
 31
0.0
210
0.0
220
0.0
230
1.0
  0
LINE
  5
269
100
AcDbEntity
  8
0
370
    35
390
0
 62
     7
 48
0.000033
100
AcDbLine
 10
8.338704
 20
3.549555
 30
0.0
 11
8.337383
 21
3.549684
 31
0.0
210
0.0
220
0.0
230
1.0
  0
LINE
  5
26A
100
AcDbEntity
  8
0
370
    35
390
0
 62
     7
 48
0.000034
100
AcDbLine
 10
8.337383
 20
3.549684
 30
0.0
 11
8.336015
 21
3.54979
 31
0.0
210
0.0
220
0.0
230
1.0
  0
LINE
  5
26B
100
AcDbEntity
  8
0
370
    35
390
0
 62
     7
 48
0.000035
100
AcDbLine
 10
8.336015
 20
3.54979
 30
0.0
 11
8.334603
 21
3.549872
 31
0.0
210
0.0
220
0.0
230
1.0
  0
LINE
  5
26C
100
AcDbEntity
  8
0
370
    35
390
0
 62
     7
 48
0.000024
100
AcDbLine
 10
8.334603
 20
3.549872
 30
0.0
 11
8.333625
 21
3.549912
 31
0.0
210
0.0
220
0.0
230
1.0
  0
LINE
  5
26D
100
AcDbEntity
  8
0
370
    35
390
0
 62
     7
 48
0.000025
100
AcDbLine
 10
8.333625
 20
3.549912
 30
0.0
 11
8.332617
 21
3.54994
 31
0.0
210
0.0
220
0.0
230
1.0
  0
LINE
  5
26E
100
AcDbEntity
  8
0
370
    35
390
0
 62
     7
 48
0.000026
100
AcDbLine
 10
8.332617
 20
3.54994
 30
0.0
 11
8.331579
 21
3.549955
 31
0.0
210
0.0
220
0.0
230
1.0
  0
LINE
  5
26F
100
AcDbEntity
  8
0
370
    35
390
0
 62
     7
 48
0.000688
100
AcDbLine
 10
8.331579
 20
3.549955
 30
0.0
 11
8.321517
 21
3.52436
 31
0.0
210
0.0
220
0.0
230
1.0
  0
LINE
  5
270
100
AcDbEntity
  8
0
370
    35
390
0
 62
     7
 48
0.000266
100
AcDbLine
 10
8.321517
 20
3.52436
 30
0.0
 11
8.330736
 21
3.519035
 31
0.0
210
0.0
220
0.0
230
1.0
  0
LINE
  5
271
100
AcDbEntity
  8
0
370
    35
390
0
 62
     7
 48
0.000892
100
AcDbLine
 10
8.330736
 20
3.519035
 30
0.0
 11
8.295103
 21
3.520766
 31
0.0
210
0.0
220
0.0
230
1.0
  0
LINE
  5
272
100
AcDbEntity
  8
0
370
    35
390
0
 62
     7
 48
0.000038
100
AcDbLine
 10
8.295103
 20
3.520766
 30
0.0
 11
8.293767
 21
3.521531
 31
0.0
210
0.0
220
0.0
230
1.0
  0
LINE
  5
273
100
AcDbEntity
  8
0
370
    35
390
0
 62
     7
 48
0.000836
100
AcDbLine
 10
8.293767
 20
3.521531
 30
0.0
 11
8.327169
 21
3.519909
 31
0.0
210
0.0
220
0.0
230
1.0
  0
LINE
  5
274
100
AcDbEntity
  8
0
370
    35
390
0
 62
     7
 48
0.000224
100
AcDbLine
 10
8.327169
 20
3.519909
 30
0.0
 11
8.319345
 21
3.524258
 31
0.0
210
0.0
220
0.0
230
1.0
  0
LINE
  5
275
100
AcDbEntity
  8
0
370
    35
390
0
 62
     7
 48
0.000712
100
AcDbLine
 10
8.319345
 20
3.524258
 30
0.0
 11
8.329701
 21
3.550784
 31
0.0
210
0.0
220
0.0
230
1.0
  0
LINE
  5
276
100
AcDbEntity
  8
0
370
    35
390
0
 62
     7
 48
0.000094
100
AcDbLine
 10
8.329701
 20
3.550784
 30
0.0
 11
8.333476
 21
3.550627
 31
0.0
210
0.0
220
0.0
230
1.0
  0
LINE
  5
277
100
AcDbEntity
  8
0
370
    35
390
0
 62
     7
 48
0.000033
100
AcDbLine
 10
8.333476
 20
3.550627
 30
0.0
 11
8.334788
 21
3.550559
 31
0.0
210
0.0
220
0.0
230
1.0
  0
LINE
  5
278
100
AcDbEntity
  8
0
370
    35
390
0
 62
     7
 48
0.000031
100
AcDbLine
 10
8.334788
 20
3.550559
 30
0.0
 11
8.336018
 21
3.550487
 31
0.0
210
0.0
220
0.0
230
1.0
  0
LINE
  5
279
100
AcDbEntity
  8
0
370
    35
390
0
 62
     7
 48
0.000029
100
AcDbLine
 10
8.336018
 20
3.550487
 30
0.0
 11
8.337166
 21
3.550411
 31
0.0
210
0.0
220
0.0
230
1.0
  0
LINE
  5
27A
100
AcDbEntity
  8
0
370
    35
390
0
 62
     7
 48
0.000027
100
AcDbLine
 10
8.337166
 20
3.550411
 30
0.0
 11
8.338232
 21
3.550331
 31
0.0
210
0.0
220
0.0
230
1.0
  0
LINE
  5
27B
100
AcDbEntity
  8
0
370
    35
390
0
 62
     7
 48
0.000025
100
AcDbLine
 10
8.338232
 20
3.550331
 30
0.0
 11
8.339217
 21
3.550247
 31
0.0
210
0.0
220
0.0
230
1.0
  0
LINE
  5
27C
100
AcDbEntity
  8
0
370
    35
390
0
 62
     7
 48
0.000043
100
AcDbLine
 10
8.339217
 20
3.550247
 30
0.0
 11
8.34094
 21
3.550067
 31
0.0
210
0.0
220
0.0
230
1.0
  0
LINE
  5
27D
100
AcDbEntity
  8
0
370
    35
390
0
 62
     7
 48
0.000035
100
AcDbLine
 10
8.34094
 20
3.550067
 30
0.0
 11
8.342336
 21
3.54987
 31
0.0
210
0.0
220
0.0
230
1.0
  0
LINE
  5
27E
100
AcDbEntity
  8
0
370
    35
390
0
 62
     7
 48
0.000028
100
AcDbLine
 10
8.342336
 20
3.54987
 30
0.0
 11
8.343428
 21
3.549653
 31
0.0
210
0.0
220
0.0
230
1.0
  0
LINE
  5
27F
100
AcDbEntity
  8
0
370
    35
390
0
 62
     7
 48
0.000024
100
AcDbLine
 10
8.343428
 20
3.549653
 30
0.0
 11
8.344369
 21
3.549383
 31
0.0
210
0.0
220
0.0
230
1.0
  0
LINE
  5
280
100
AcDbEntity
  8
0
370
    35
390
0
 62
     7
 48
0.000022
100
AcDbLine
 10
8.344369
 20
3.549383
 30
0.0
 11
8.345182
 21
3.549056
 31
0.0
210
0.0
220
0.0
230
1.0
  0
LINE
  5
281
100
AcDbEntity
  8
0
370
    35
390
0
 62
     7
 48
0.00002
100
AcDbLine
 10
8.345182
 20
3.549056
 30
0.0
 11
8.345868
 21
3.548672
 31
0.0
210
0.0
220
0.0
230
1.0
  0
LINE
  5
282
100
AcDbEntity
  8
0
370
    35
390
0
 62
     7
 48
0.000018
100
AcDbLine
 10
8.345868
 20
3.548672
 30
0.0
 11
8.346425
 21
3.548231
 31
0.0
210
0.0
220
0.0
230
1.0
  0
LINE
  5
283
100
AcDbEntity
  8
0
370
    35
390
0
 62
     7
 48
0.000008
100
AcDbLine
 10
8.346425
 20
3.548231
 30
0.0
 11
8.346657
 21
3.547989
 31
0.0
210
0.0
220
0.0
230
1.0
  0
LINE
  5
284
100
AcDbEntity
  8
0
370
    35
390
0
 62
     7
 48
0.000026
100
AcDbLine
 10
8.346657
 20
3.547989
 30
0.0
 11
8.34566
 21
3.548284
 31
0.0
210
0.0
220
0.0
230
1.0
  0
LINE
  5
285
100
AcDbEntity
  8
0
370
    35
390
0
 62
     7
 48
0.000027
100
AcDbLine
 10
8.441856
 20
3.549046
 30
0.0
 11
8.440856
 21
3.548678
 31
0.0
210
0.0
220
0.0
230
1.0
  0
LINE
  5
286
100
AcDbEntity
  8
0
370
    35
390
0
 62
     7
 48
0.000025
100
AcDbLine
 10
8.440856
 20
3.548678
 30
0.0
 11
8.439913
 21
3.548325
 31
0.0
210
0.0
220
0.0
230
1.0
  0
LINE
  5
287
100
AcDbEntity
  8
0
370
    35
390
0
 62
     7
 48
0.000024
100
AcDbLine
 10
8.439913
 20
3.548325
 30
0.0
 11
8.439027
 21
3.547989
 31
0.0
210
0.0
220
0.0
230
1.0
  0
LINE
  5
288
100
AcDbEntity
  8
0
370
    35
390
0
 62
     7
 48
0.000022
100
AcDbLine
 10
8.439027
 20
3.547989
 30
0.0
 11
8.438197
 21
3.547667
 31
0.0
210
0.0
220
0.0
230
1.0
  0
LINE
  5
289
100
AcDbEntity
  8
0
370
    35
390
0
 62
     7
 48
0.000021
100
AcDbLine
 10
8.438197
 20
3.547667
 30
0.0
 11
8.437423
 21
3.547361
 31
0.0
210
0.0
220
0.0
230
1.0
  0
LINE
  5
28A
100
AcDbEntity
  8
0
370
    35
390
0
 62
     7
 48
0.000019
100
AcDbLine
 10
8.437423
 20
3.547361
 30
0.0
 11
8.436706
 21
3.54707
 31
0.0
210
0.0
220
0.0
230
1.0
  0
LINE
  5
28B
100
AcDbEntity
  8
0
370
    35
390
0
 62
     7
 48
0.000018
100
AcDbLine
 10
8.436706
 20
3.54707
 30
0.0
 11
8.436045
 21
3.546795
 31
0.0
210
0.0
220
0.0
230
1.0
  0
LINE
  5
28C
100
AcDbEntity
  8
0
370
    35
390
0
 62
     7
 48
0.000031
100
AcDbLine
 10
8.436045
 20
3.546795
 30
0.0
 11
8.434893
 21
3.546291
 31
0.0
210
0.0
220
0.0
230
1.0
  0
LINE
  5
28D
100
AcDbEntity
  8
0
370
    35
390
0
 62
     7
 48
0.000027
100
AcDbLine
 10
8.434893
 20
3.546291
 30
0.0
 11
8.433924
 21
3.545826
 31
0.0
210
0.0
220
0.0
230
1.0
  0
LINE
  5
28E
100
AcDbEntity
  8
0
370
    35
390
0
 62
     7
 48
0.00003
100
AcDbLine
 10
8.433924
 20
3.545826
 30
0.0
 11
8.432871
 21
3.545272
 31
0.0
210
0.0
220
0.0
230
1.0
  0
LINE
  5
28F
100
AcDbEntity
  8
0
370
    35
390
0
 62
     7
 48
0.000016
100
AcDbLine
 10
8.432871
 20
3.545272
 30
0.0
 11
8.432298
 21
3.544952
 31
0.0
210
0.0
220
0.0
230
1.0
  0
LINE
  5
290
100
AcDbEntity
  8
0
370
    35
390
0
 62
     7
 48
0.000017
100
AcDbLine
 10
8.432298
 20
3.544952
 30
0.0
 11
8.431693
 21
3.544604
 31
0.0
210
0.0
220
0.0
230
1.0
  0
LINE
  5
291
100
AcDbEntity
  8
0
370
    35
390
0
 62
     7
 48
0.000018
100
AcDbLine
 10
8.431693
 20
3.544604
 30
0.0
 11
8.431056
 21
3.544229
 31
0.0
210
0.0
220
0.0
230
1.0
  0
LINE
  5
292
100
AcDbEntity
  8
0
370
    35
390
0
 62
     7
 48
0.00002
100
AcDbLine
 10
8.431056
 20
3.544229
 30
0.0
 11
8.430388
 21
3.543825
 31
0.0
210
0.0
220
0.0
230
1.0
  0
LINE
  5
293
100
AcDbEntity
  8
0
370
    35
390
0
 62
     7
 48
0.000021
100
AcDbLine
 10
8.430388
 20
3.543825
 30
0.0
 11
8.429689
 21
3.543394
 31
0.0
210
0.0
220
0.0
230
1.0
  0
LINE
  5
294
100
AcDbEntity
  8
0
370
    35
390
0
 62
     7
 48
0.000022
100
AcDbLine
 10
8.429689
 20
3.543394
 30
0.0
 11
8.428957
 21
3.542934
 31
0.0
210
0.0
220
0.0
230
1.0
  0
LINE
  5
295
100
AcDbEntity
  8
0
370
    35
390
0
 62
     7
 48
0.000023
100
AcDbLine
 10
8.428957
 20
3.542934
 30
0.0
 11
8.428195
 21
3.542446
 31
0.0
210
0.0
220
0.0
230
1.0
  0
LINE
  5
296
100
AcDbEntity
  8
0
370
    35
390
0
 62
     7
 48
0.000022
100
AcDbLine
 10
8.428195
 20
3.542446
 30
0.0
 11
8.427438
 21
3.541964
 31
0.0
210
0.0
220
0.0
230
1.0
  0
LINE
  5
297
100
AcDbEntity
  8
0
370
    35
390
0
 62
     7
 48
0.000024
100
AcDbLine
 10
8.427438
 20
3.541964
 30
0.0
 11
8.42678
 21
3.542677
 31
0.0
210
0.0
220
0.0
230
1.0
  0
LINE
  5
298
100
AcDbEntity
  8
0
370
    35
390
0
 62
     7
 48
0.000024
100
AcDbLine
 10
8.42678
 20
3.542677
 30
0.0
 11
8.426104
 21
3.543341
 31
0.0
210
0.0
220
0.0
230
1.0
  0
LINE
  5
299
100
AcDbEntity
  8
0
370
    35
390
0
 62
     7
 48
0.000023
100
AcDbLine
 10
8.426104
 20
3.543341
 30
0.0
 11
8.425412
 21
3.543955
 31
0.0
210
0.0
220
0.0
230
1.0
  0
LINE
  5
29A
100
AcDbEntity
  8
0
370
    35
390
0
 62
     7
 48
0.000023
100
AcDbLine
 10
8.425412
 20
3.543955
 30
0.0
 11
8.424702
 21
3.544521
 31
0.0
210
0.0
220
0.0
230
1.0
  0
LINE
  5
29B
100
AcDbEntity
  8
0
370
    35
390
0
 62
     7
 48
0.000022
100
AcDbLine
 10
8.424702
 20
3.544521
 30
0.0
 11
8.423976
 21
3.545038
 31
0.0
210
0.0
220
0.0
230
1.0
  0
LINE
  5
29C
100
AcDbEntity
  8
0
370
    35
390
0
 62
     7
 48
0.000022
100
AcDbLine
 10
8.423976
 20
3.545038
 30
0.0
 11
8.423231
 21
3.545506
 31
0.0
210
0.0
220
0.0
230
1.0
  0
LINE
  5
29D
100
AcDbEntity
  8
0
370
    35
390
0
 62
     7
 48
0.000022
100
AcDbLine
 10
8.423231
 20
3.545506
 30
0.0
 11
8.422471
 21
3.545924
 31
0.0
210
0.0
220
0.0
230
1.0
  0
LINE
  5
29E
100
AcDbEntity
  8
0
370
    35
390
0
 62
     7
 48
0.000022
100
AcDbLine
 10
8.422471
 20
3.545924
 30
0.0
 11
8.421693
 21
3.546294
 31
0.0
210
0.0
220
0.0
230
1.0
  0
LINE
  5
29F
100
AcDbEntity
  8
0
370
    35
390
0
 62
     7
 48
0.000021
100
AcDbLine
 10
8.421693
 20
3.546294
 30
0.0
 11
8.420899
 21
3.546615
 31
0.0
210
0.0
220
0.0
230
1.0
  0
LINE
  5
2A0
100
AcDbEntity
  8
0
370
    35
390
0
 62
     7
 48
0.000021
100
AcDbLine
 10
8.420899
 20
3.546615
 30
0.0
 11
8.420088
 21
3.546887
 31
0.0
210
0.0
220
0.0
230
1.0
  0
LINE
  5
2A1
100
AcDbEntity
  8
0
370
    35
390
0
 62
     7
 48
0.000023
100
AcDbLine
 10
8.420088
 20
3.546887
 30
0.0
 11
8.419202
 21
3.547127
 31
0.0
210
0.0
220
0.0
230
1.0
  0
LINE
  5
2A2
100
AcDbEntity
  8
0
370
    35
390
0
 62
     7
 48
0.000026
100
AcDbLine
 10
8.419202
 20
3.547127
 30
0.0
 11
8.418185
 21
3.547353
 31
0.0
210
0.0
220
0.0
230
1.0
  0
LINE
  5
2A3
100
AcDbEntity
  8
0
370
    35
390
0
 62
     7
 48
0.000029
100
AcDbLine
 10
8.418185
 20
3.547353
 30
0.0
 11
8.417036
 21
3.547564
 31
0.0
210
0.0
220
0.0
230
1.0
  0
LINE
  5
2A4
100
AcDbEntity
  8
0
370
    35
390
0
 62
     7
 48
0.000032
100
AcDbLine
 10
8.417036
 20
3.547564
 30
0.0
 11
8.415756
 21
3.547761
 31
0.0
210
0.0
220
0.0
230
1.0
  0
LINE
  5
2A5
100
AcDbEntity
  8
0
370
    35
390
0
 62
     7
 48
0.000036
100
AcDbLine
 10
8.415756
 20
3.547761
 30
0.0
 11
8.414345
 21
3.547944
 31
0.0
210
0.0
220
0.0
230
1.0
  0
LINE
  5
2A6
100
AcDbEntity
  8
0
370
    35
390
0
 62
     7
 48
0.000039
100
AcDbLine
 10
8.414345
 20
3.547944
 30
0.0
 11
8.412802
 21
3.548112
 31
0.0
210
0.0
220
0.0
230
1.0
  0
LINE
  5
2A7
100
AcDbEntity
  8
0
370
    35
390
0
 62
     7
 48
0.000042
100
AcDbLine
 10
8.412802
 20
3.548112
 30
0.0
 11
8.411128
 21
3.548266
 31
0.0
210
0.0
220
0.0
230
1.0
  0
LINE
  5
2A8
100
AcDbEntity
  8
0
370
    35
390
0
 62
     7
 48
0.000045
100
AcDbLine
 10
8.411128
 20
3.548266
 30
0.0
 11
8.409323
 21
3.548405
 31
0.0
210
0.0
220
0.0
230
1.0
  0
LINE
  5
2A9
100
AcDbEntity
  8
0
370
    35
390
0
 62
     7
 48
0.000049
100
AcDbLine
 10
8.409323
 20
3.548405
 30
0.0
 11
8.407386
 21
3.548531
 31
0.0
210
0.0
220
0.0
230
1.0
  0
LINE
  5
2AA
100
AcDbEntity
  8
0
370
    35
390
0
 62
     7
 48
0.000052
100
AcDbLine
 10
8.407386
 20
3.548531
 30
0.0
 11
8.405318
 21
3.548642
 31
0.0
210
0.0
220
0.0
230
1.0
  0
LINE
  5
2AB
100
AcDbEntity
  8
0
370
    35
390
0
 62
     7
 48
0.0001
100
AcDbLine
 10
8.405318
 20
3.548642
 30
0.0
 11
8.401333
 21
3.548809
 31
0.0
210
0.0
220
0.0
230
1.0
  0
LINE
  5
2AC
100
AcDbEntity
  8
0
370
    35
390
0
 62
     7
 48
0.000169
100
AcDbLine
 10
8.401333
 20
3.548809
 30
0.0
 11
8.394579
 21
3.549163
 31
0.0
210
0.0
220
0.0
230
1.0
  0
LINE
  5
2AD
100
AcDbEntity
  8
0
370
    35
390
0
 62
     7
 48
0.000064
100
AcDbLine
 10
8.394579
 20
3.549163
 30
0.0
 11
8.392009
 21
3.549314
 31
0.0
210
0.0
220
0.0
230
1.0
  0
LINE
  5
2AE
100
AcDbEntity
  8
0
370
    35
390
0
 62
     7
 48
0.00032
100
AcDbLine
 10
8.392009
 20
3.549314
 30
0.0
 11
8.387358
 21
3.5374
 31
0.0
210
0.0
220
0.0
230
1.0
  0
LINE
  5
2AF
100
AcDbEntity
  8
0
370
    35
390
0
 62
     7
 48
0.000106
100
AcDbLine
 10
8.387358
 20
3.5374
 30
0.0
 11
8.391612
 21
3.537193
 31
0.0
210
0.0
220
0.0
230
1.0
  0
LINE
  5
2B0
100
AcDbEntity
  8
0
370
    35
390
0
 62
     7
 48
0.000282
100
AcDbLine
 10
8.391612
 20
3.537193
 30
0.0
 11
8.395717
 21
3.547707
 31
0.0
210
0.0
220
0.0
230
1.0
  0
LINE
  5
2B1
100
AcDbEntity
  8
0
370
    35
390
0
 62
     7
 48
0.000051
100
AcDbLine
 10
8.395717
 20
3.547707
 30
0.0
 11
8.397749
 21
3.547634
 31
0.0
210
0.0
220
0.0
230
1.0
  0
LINE
  5
2B2
100
AcDbEntity
  8
0
370
    35
390
0
 62
     7
 48
0.000044
100
AcDbLine
 10
8.397749
 20
3.547634
 30
0.0
 11
8.399511
 21
3.547577
 31
0.0
210
0.0
220
0.0
230
1.0
  0
LINE
  5
2B3
100
AcDbEntity
  8
0
370
    35
390
0
 62
     7
 48
0.000045
100
AcDbLine
 10
8.399511
 20
3.547577
 30
0.0
 11
8.401315
 21
3.547511
 31
0.0
210
0.0
220
0.0
230
1.0
  0
LINE
  5
2B4
100
AcDbEntity
  8
0
370
    35
390
0
 62
     7
 48
0.000046
100
AcDbLine
 10
8.401315
 20
3.547511
 30
0.0
 11
8.403162
 21
3.547437
 31
0.0
210
0.0
220
0.0
230
1.0
  0
LINE
  5
2B5
100
AcDbEntity
  8
0
370
    35
390
0
 62
     7
 48
0.000047
100
AcDbLine
 10
8.403162
 20
3.547437
 30
0.0
 11
8.405052
 21
3.547354
 31
0.0
210
0.0
220
0.0
230
1.0
  0
LINE
  5
2B6
100
AcDbEntity
  8
0
370
    35
390
0
 62
     7
 48
0.000048
100
AcDbLine
 10
8.405052
 20
3.547354
 30
0.0
 11
8.406983
 21
3.547264
 31
0.0
210
0.0
220
0.0
230
1.0
  0
LINE
  5
2B7
100
AcDbEntity
  8
0
370
    35
390
0
 62
     7
 48
0.000068
100
AcDbLine
 10
8.406983
 20
3.547264
 30
0.0
 11
8.40971
 21
3.547104
 31
0.0
210
0.0
220
0.0
230
1.0
  0
LINE
  5
2B8
100
AcDbEntity
  8
0
370
    35
390
0
 62
     7
 48
0.000063
100
AcDbLine
 10
8.40971
 20
3.547104
 30
0.0
 11
8.412204
 21
3.5469
 31
0.0
210
0.0
220
0.0
230
1.0
  0
LINE
  5
2B9
100
AcDbEntity
  8
0
370
    35
390
0
 62
     7
 48
0.000057
100
AcDbLine
 10
8.412204
 20
3.5469
 30
0.0
 11
8.414463
 21
3.546653
 31
0.0
210
0.0
220
0.0
230
1.0
  0
LINE
  5
2BA
100
AcDbEntity
  8
0
370
    35
390
0
 62
     7
 48
0.000051
100
AcDbLine
 10
8.414463
 20
3.546653
 30
0.0
 11
8.416487
 21
3.546362
 31
0.0
210
0.0
220
0.0
230
1.0
  0
LINE
  5
2BB
100
AcDbEntity
  8
0
370
    35
390
0
 62
     7
 48
0.000046
100
AcDbLine
 10
8.416487
 20
3.546362
 30
0.0
 11
8.418278
 21
3.546028
 31
0.0
210
0.0
220
0.0
230
1.0
  0
LINE
  5
2BC
100
AcDbEntity
  8
0
370
    35
390
0
 62
     7
 48
0.00004
100
AcDbLine
 10
8.418278
 20
3.546028
 30
0.0
 11
8.419833
 21
3.54565
 31
0.0
210
0.0
220
0.0
230
1.0
  0
LINE
  5
2BD
100
AcDbEntity
  8
0
370
    35
390
0
 62
     7
 48
0.000035
100
AcDbLine
 10
8.419833
 20
3.54565
 30
0.0
 11
8.421154
 21
3.545228
 31
0.0
210
0.0
220
0.0
230
1.0
  0
LINE
  5
2BE
100
AcDbEntity
  8
0
370
    35
390
0
 62
     7
 48
0.00003
100
AcDbLine
 10
8.421154
 20
3.545228
 30
0.0
 11
8.422241
 21
3.544763
 31
0.0
210
0.0
220
0.0
230
1.0
  0
LINE
  5
2BF
100
AcDbEntity
  8
0
370
    35
390
0
 62
     7
 48
0.000025
100
AcDbLine
 10
8.422241
 20
3.544763
 30
0.0
 11
8.423093
 21
3.544254
 31
0.0
210
0.0
220
0.0
230
1.0
  0
LINE
  5
2C0
100
AcDbEntity
  8
0
370
    35
390
0
 62
     7
 48
0.000021
100
AcDbLine
 10
8.423093
 20
3.544254
 30
0.0
 11
8.423711
 21
3.543702
 31
0.0
210
0.0
220
0.0
230
1.0
  0
LINE
  5
2C1
100
AcDbEntity
  8
0
370
    35
390
0
 62
     7
 48
0.000033
100
AcDbLine
 10
8.423711
 20
3.543702
 30
0.0
 11
8.422495
 21
3.544217
 31
0.0
210
0.0
220
0.0
230
1.0
  0
LINE
  5
2C2
100
AcDbEntity
  8
0
370
    35
390
0
 62
     7
 48
0.000034
100
AcDbLine
 10
8.422495
 20
3.544217
 30
0.0
 11
8.421208
 21
3.544672
 31
0.0
210
0.0
220
0.0
230
1.0
  0
LINE
  5
2C3
100
AcDbEntity
  8
0
370
    35
390
0
 62
     7
 48
0.000035
100
AcDbLine
 10
8.421208
 20
3.544672
 30
0.0
 11
8.419849
 21
3.545067
 31
0.0
210
0.0
220
0.0
230
1.0
  0
LINE
  5
2C4
100
AcDbEntity
  8
0
370
    35
390
0
 62
     7
 48
0.000037
100
AcDbLine
 10
8.419849
 20
3.545067
 30
0.0
 11
8.418418
 21
3.545403
 31
0.0
210
0.0
220
0.0
230
1.0
  0
LINE
  5
2C5
100
AcDbEntity
  8
0
370
    35
390
0
 62
     7
 48
0.000038
100
AcDbLine
 10
8.418418
 20
3.545403
 30
0.0
 11
8.416915
 21
3.545679
 31
0.0
210
0.0
220
0.0
230
1.0
  0
LINE
  5
2C6
100
AcDbEntity
  8
0
370
    35
390
0
 62
     7
 48
0.000043
100
AcDbLine
 10
8.416915
 20
3.545679
 30
0.0
 11
8.415197
 21
3.545916
 31
0.0
210
0.0
220
0.0
230
1.0
  0
LINE
  5
2C7
100
AcDbEntity
  8
0
370
    35
390
0
 62
     7
 48
0.000025
100
AcDbLine
 10
8.415197
 20
3.545916
 30
0.0
 11
8.414201
 21
3.546029
 31
0.0
210
0.0
220
0.0
230
1.0
  0
LINE
  5
2C8
100
AcDbEntity
  8
0
370
    35
390
0
 62
     7
 48
0.000027
100
AcDbLine
 10
8.414201
 20
3.546029
 30
0.0
 11
8.413116
 21
3.546137
 31
0.0
210
0.0
220
0.0
230
1.0
  0
LINE
  5
2C9
100
AcDbEntity
  8
0
370
    35
390
0
 62
     7
 48
0.00003
100
AcDbLine
 10
8.413116
 20
3.546137
 30
0.0
 11
8.41194
 21
3.546241
 31
0.0
210
0.0
220
0.0
230
1.0
  0
LINE
  5
2CA
100
AcDbEntity
  8
0
370
    35
390
0
 62
     7
 48
0.000032
100
AcDbLine
 10
8.41194
 20
3.546241
 30
0.0
 11
8.410673
 21
3.546341
 31
0.0
210
0.0
220
0.0
230
1.0
  0
LINE
  5
2CB
100
AcDbEntity
  8
0
370
    35
390
0
 62
     7
 48
0.000034
100
AcDbLine
 10
8.410673
 20
3.546341
 30
0.0
 11
8.409316
 21
3.546438
 31
0.0
210
0.0
220
0.0
230
1.0
  0
LINE
  5
2CC
100
AcDbEntity
  8
0
370
    35
390
0
 62
     7
 48
0.000036
100
AcDbLine
 10
8.409316
 20
3.546438
 30
0.0
 11
8.407869
 21
3.546529
 31
0.0
210
0.0
220
0.0
230
1.0
  0
LINE
  5
2CD
100
AcDbEntity
  8
0
370
    35
390
0
 62
     7
 48
0.000039
100
AcDbLine
 10
8.407869
 20
3.546529
 30
0.0
 11
8.406331
 21
3.546617
 31
0.0
210
0.0
220
0.0
230
1.0
  0
LINE
  5
2CE
100
AcDbEntity
  8
0
370
    35
390
0
 62
     7
 48
0.000041
100
AcDbLine
 10
8.406331
 20
3.546617
 30
0.0
 11
8.404703
 21
3.5467
 31
0.0
210
0.0
220
0.0
230
1.0
  0
LINE
  5
2CF
100
AcDbEntity
  8
0
370
    35
390
0
 62
     7
 48
0.000032
100
AcDbLine
 10
8.404703
 20
3.5467
 30
0.0
 11
8.403443
 21
3.546756
 31
0.0
210
0.0
220
0.0
230
1.0
  0
LINE
  5
2D0
100
AcDbEntity
  8
0
370
    35
390
0
 62
     7
 48
0.000035
100
AcDbLine
 10
8.403443
 20
3.546756
 30
0.0
 11
8.402061
 21
3.546808
 31
0.0
210
0.0
220
0.0
230
1.0
  0
LINE
  5
2D1
100
AcDbEntity
  8
0
370
    35
390
0
 62
     7
 48
0.000038
100
AcDbLine
 10
8.402061
 20
3.546808
 30
0.0
 11
8.400559
 21
3.546855
 31
0.0
210
0.0
220
0.0
230
1.0
  0
LINE
  5
2D2
100
AcDbEntity
  8
0
370
    35
390
0
 62
     7
 48
0.000041
100
AcDbLine
 10
8.400559
 20
3.546855
 30
0.0
 11
8.398936
 21
3.546897
 31
0.0
210
0.0
220
0.0
230
1.0
  0
LINE
  5
2D3
100
AcDbEntity
  8
0
370
    35
390
0
 62
     7
 48
0.000044
100
AcDbLine
 10
8.398936
 20
3.546897
 30
0.0
 11
8.397191
 21
3.546935
 31
0.0
210
0.0
220
0.0
230
1.0
  0
LINE
  5
2D4
100
AcDbEntity
  8
0
370
    35
390
0
 62
     7
 48
0.000264
100
AcDbLine
 10
8.397191
 20
3.546935
 30
0.0
 11
8.393355
 21
3.537109
 31
0.0
210
0.0
220
0.0
230
1.0
  0
LINE
  5
2D5
100
AcDbEntity
  8
0
370
    35
390
0
 62
     7
 48
0.000264
100
AcDbLine
 10
8.393355
 20
3.537109
 30
0.0
 11
8.403884
 21
3.536597
 31
0.0
210
0.0
220
0.0
230
1.0
  0
LINE
  5
2D6
100
AcDbEntity
  8
0
370
    35
390
0
 62
     7
 48
0.000334
100
AcDbLine
 10
8.403884
 20
3.536597
 30
0.0
 11
8.416721
 21
3.540358
 31
0.0
210
0.0
220
0.0
230
1.0
  0
LINE
  5
2D7
100
AcDbEntity
  8
0
370
    35
390
0
 62
     7
 48
0.000286
100
AcDbLine
 10
8.416721
 20
3.540358
 30
0.0
 11
8.412557
 21
3.529691
 31
0.0
210
0.0
220
0.0
230
1.0
  0
LINE
  5
2D8
100
AcDbEntity
  8
0
370
    35
390
0
 62
     7
 48
0.000279
100
AcDbLine
 10
8.412557
 20
3.529691
 30
0.0
 11
8.402492
 21
3.534486
 31
0.0
210
0.0
220
0.0
230
1.0
  0
LINE
  5
2D9
100
AcDbEntity
  8
0
370
    35
390
0
 62
     7
 48
0.0004
100
AcDbLine
 10
8.402492
 20
3.534486
 30
0.0
 11
8.386524
 21
3.535262
 31
0.0
210
0.0
220
0.0
230
1.0
  0
LINE
  5
2DA
100
AcDbEntity
  8
0
370
    35
390
0
 62
     7
 48
0.000344
100
AcDbLine
 10
8.386524
 20
3.535262
 30
0.0
 11
8.381515
 21
3.522431
 31
0.0
210
0.0
220
0.0
230
1.0
  0
LINE
  5
2DB
100
AcDbEntity
  8
0
370
    35
390
0
 62
     7
 48
0.000213
100
AcDbLine
 10
8.381515
 20
3.522431
 30
0.0
 11
8.389149
 21
3.518688
 31
0.0
210
0.0
220
0.0
230
1.0
  0
LINE
  5
2DC
100
AcDbEntity
  8
0
370
    35
390
0
 62
     7
 48
0.000857
100
AcDbLine
 10
8.389149
 20
3.518688
 30
0.0
 11
8.354911
 21
3.520351
 31
0.0
210
0.0
220
0.0
230
1.0
  0
LINE
  5
2DD
100
AcDbEntity
  8
0
370
    35
390
0
 62
     7
 48
0.000324
100
AcDbLine
 10
8.354911
 20
3.520351
 30
0.0
 11
8.367569
 21
3.523109
 31
0.0
210
0.0
220
0.0
230
1.0
  0
LINE
  5
2DE
100
AcDbEntity
  8
0
370
    35
390
0
 62
     7
 48
0.000294
100
AcDbLine
 10
8.367569
 20
3.523109
 30
0.0
 11
8.371842
 21
3.534055
 31
0.0
210
0.0
220
0.0
230
1.0
  0
LINE
  5
2DF
100
AcDbEntity
  8
0
370
    35
390
0
 62
     7
 48
0.000027
100
AcDbLine
 10
8.371842
 20
3.534055
 30
0.0
 11
8.370775
 21
3.534092
 31
0.0
210
0.0
220
0.0
230
1.0
  0
LINE
  5
2E0
100
AcDbEntity
  8
0
370
    35
390
0
 62
     7
 48
0.000026
100
AcDbLine
 10
8.370775
 20
3.534092
 30
0.0
 11
8.369724
 21
3.534098
 31
0.0
210
0.0
220
0.0
230
1.0
  0
LINE
  5
2E1
100
AcDbEntity
  8
0
370
    35
390
0
 62
     7
 48
0.000026
100
AcDbLine
 10
8.369724
 20
3.534098
 30
0.0
 11
8.368688
 21
3.534073
 31
0.0
210
0.0
220
0.0
230
1.0
  0
LINE
  5
2E2
100
AcDbEntity
  8
0
370
    35
390
0
 62
     7
 48
0.000026
100
AcDbLine
 10
8.368688
 20
3.534073
 30
0.0
 11
8.367666
 21
3.534017
 31
0.0
210
0.0
220
0.0
230
1.0
  0
LINE
  5
2E3
100
AcDbEntity
  8
0
370
    35
390
0
 62
     7
 48
0.000025
100
AcDbLine
 10
8.367666
 20
3.534017
 30
0.0
 11
8.36666
 21
3.533931
 31
0.0
210
0.0
220
0.0
230
1.0
  0
LINE
  5
2E4
100
AcDbEntity
  8
0
370
    35
390
0
 62
     7
 48
0.000025
100
AcDbLine
 10
8.36666
 20
3.533931
 30
0.0
 11
8.365669
 21
3.533814
 31
0.0
210
0.0
220
0.0
230
1.0
  0
LINE
  5
2E5
100
AcDbEntity
  8
0
370
    35
390
0
 62
     7
 48
0.000025
100
AcDbLine
 10
8.365669
 20
3.533814
 30
0.0
 11
8.364692
 21
3.533665
 31
0.0
210
0.0
220
0.0
230
1.0
  0
LINE
  5
2E6
100
AcDbEntity
  8
0
370
    35
390
0
 62
     7
 48
0.000024
100
AcDbLine
 10
8.364692
 20
3.533665
 30
0.0
 11
8.36373
 21
3.533486
 31
0.0
210
0.0
220
0.0
230
1.0
  0
LINE
  5
2E7
100
AcDbEntity
  8
0
370
    35
390
0
 62
     7
 48
0.000024
100
AcDbLine
 10
8.36373
 20
3.533486
 30
0.0
 11
8.362784
 21
3.533277
 31
0.0
210
0.0
220
0.0
230
1.0
  0
LINE
  5
2E8
100
AcDbEntity
  8
0
370
    35
390
0
 62
     7
 48
0.000024
100
AcDbLine
 10
8.362784
 20
3.533277
 30
0.0
 11
8.361851
 21
3.533036
 31
0.0
210
0.0
220
0.0
230
1.0
  0
LINE
  5
2E9
100
AcDbEntity
  8
0
370
    35
390
0
 62
     7
 48
0.000032
100
AcDbLine
 10
8.361851
 20
3.533036
 30
0.0
 11
8.360735
 21
3.533635
 31
0.0
210
0.0
220
0.0
230
1.0
  0
LINE
  5
2EA
100
AcDbEntity
  8
0
370
    35
390
0
 62
     7
 48
0.000025
100
AcDbLine
 10
8.360735
 20
3.533635
 30
0.0
 11
8.361691
 21
3.533904
 31
0.0
210
0.0
220
0.0
230
1.0
  0
LINE
  5
2EB
100
AcDbEntity
  8
0
370
    35
390
0
 62
     7
 48
0.000026
100
AcDbLine
 10
8.361691
 20
3.533904
 30
0.0
 11
8.362688
 21
3.534138
 31
0.0
210
0.0
220
0.0
230
1.0
  0
LINE
  5
2EC
100
AcDbEntity
  8
0
370
    35
390
0
 62
     7
 48
0.000026
100
AcDbLine
 10
8.362688
 20
3.534138
 30
0.0
 11
8.363725
 21
3.534336
 31
0.0
210
0.0
220
0.0
230
1.0
  0
LINE
  5
2ED
100
AcDbEntity
  8
0
370
    35
390
0
 62
     7
 48
0.000027
100
AcDbLine
 10
8.363725
 20
3.534336
 30
0.0
 11
8.364803
 21
3.5345
 31
0.0
210
0.0
220
0.0
230
1.0
  0
LINE
  5
2EE
100
AcDbEntity
  8
0
370
    35
390
0
 62
     7
 48
0.000028
100
AcDbLine
 10
8.364803
 20
3.5345
 30
0.0
 11
8.36592
 21
3.534628
 31
0.0
210
0.0
220
0.0
230
1.0
  0
LINE
  5
2EF
100
AcDbEntity
  8
0
370
    35
390
0
 62
     7
 48
0.000029
100
AcDbLine
 10
8.36592
 20
3.534628
 30
0.0
 11
8.367077
 21
3.534722
 31
0.0
210
0.0
220
0.0
230
1.0
  0
LINE
  5
2F0
100
AcDbEntity
  8
0
370
    35
390
0
 62
     7
 48
0.00003
100
AcDbLine
 10
8.367077
 20
3.534722
 30
0.0
 11
8.368275
 21
3.53478
 31
0.0
210
0.0
220
0.0
230
1.0
  0
LINE
  5
2F1
100
AcDbEntity
  8
0
370
    35
390
0
 62
     7
 48
0.000031
100
AcDbLine
 10
8.368275
 20
3.53478
 30
0.0
 11
8.369513
 21
3.534802
 31
0.0
210
0.0
220
0.0
230
1.0
  0
LINE
  5
2F2
100
AcDbEntity
  8
0
370
    35
390
0
 62
     7
 48
0.000032
100
AcDbLine
 10
8.369513
 20
3.534802
 30
0.0
 11
8.370792
 21
3.53479
 31
0.0
210
0.0
220
0.0
230
1.0
  0
LINE
  5
2F3
100
AcDbEntity
  8
0
370
    35
390
0
 62
     7
 48
0.000033
100
AcDbLine
 10
8.370792
 20
3.53479
 30
0.0
 11
8.37211
 21
3.534742
 31
0.0
210
0.0
220
0.0
230
1.0
  0
LINE
  5
2F4
100
AcDbEntity
  8
0
370
    35
390
0
 62
     7
 48
0.000032
100
AcDbLine
 10
8.37211
 20
3.534742
 30
0.0
 11
8.372577
 21
3.535939
 31
0.0
210
0.0
220
0.0
230
1.0
  0
LINE
  5
2F5
100
AcDbEntity
  8
0
370
    35
390
0
 62
     7
 48
0.000026
100
AcDbLine
 10
8.372577
 20
3.535939
 30
0.0
 11
8.371552
 21
3.536022
 31
0.0
210
0.0
220
0.0
230
1.0
  0
LINE
  5
2F6
100
AcDbEntity
  8
0
370
    35
390
0
 62
     7
 48
0.000026
100
AcDbLine
 10
8.371552
 20
3.536022
 30
0.0
 11
8.370506
 21
3.536091
 31
0.0
210
0.0
220
0.0
230
1.0
  0
LINE
  5
2F7
100
AcDbEntity
  8
0
370
    35
390
0
 62
     7
 48
0.000032
100
AcDbLine
 10
8.370506
 20
3.536091
 30
0.0
 11
8.369218
 21
3.536134
 31
0.0
210
0.0
220
0.0
230
1.0
  0
LINE
  5
2F8
100
AcDbEntity
  8
0
370
    35
390
0
 62
     7
 48
0.000032
100
AcDbLine
 10
8.369218
 20
3.536134
 30
0.0
 11
8.36795
 21
3.536137
 31
0.0
210
0.0
220
0.0
230
1.0
  0
LINE
  5
2F9
100
AcDbEntity
  8
0
370
    35
390
0
 62
     7
 48
0.000031
100
AcDbLine
 10
8.36795
 20
3.536137
 30
0.0
 11
8.366703
 21
3.536099
 31
0.0
210
0.0
220
0.0
230
1.0
  0
LINE
  5
2FA
100
AcDbEntity
  8
0
370
    35
390
0
 62
     7
 48
0.000031
100
AcDbLine
 10
8.366703
 20
3.536099
 30
0.0
 11
8.365475
 21
3.536021
 31
0.0
210
0.0
220
0.0
230
1.0
  0
LINE
  5
2FB
100
AcDbEntity
  8
0
370
    35
390
0
 62
     7
 48
0.00003
100
AcDbLine
 10
8.365475
 20
3.536021
 30
0.0
 11
8.364267
 21
3.535902
 31
0.0
210
0.0
220
0.0
230
1.0
  0
LINE
  5
2FC
100
AcDbEntity
  8
0
370
    35
390
0
 62
     7
 48
0.00003
100
AcDbLine
 10
8.364267
 20
3.535902
 30
0.0
 11
8.363078
 21
3.535743
 31
0.0
210
0.0
220
0.0
230
1.0
  0
LINE
  5
2FD
100
AcDbEntity
  8
0
370
    35
390
0
 62
     7
 48
0.00003
100
AcDbLine
 10
8.363078
 20
3.535743
 30
0.0
 11
8.361911
 21
3.535543
 31
0.0
210
0.0
220
0.0
230
1.0
  0
LINE
  5
2FE
100
AcDbEntity
  8
0
370
    35
390
0
 62
     7
 48
0.000029
100
AcDbLine
 10
8.361911
 20
3.535543
 30
0.0
 11
8.360762
 21
3.535303
 31
0.0
210
0.0
220
0.0
230
1.0
  0
LINE
  5
2FF
100
AcDbEntity
  8
0
370
    35
390
0
 62
     7
 48
0.000029
100
AcDbLine
 10
8.360762
 20
3.535303
 30
0.0
 11
8.359632
 21
3.535023
 31
0.0
210
0.0
220
0.0
230
1.0
  0
LINE
  5
300
100
AcDbEntity
  8
0
370
    35
390
0
 62
     7
 48
0.000029
100
AcDbLine
 10
8.359632
 20
3.535023
 30
0.0
 11
8.358524
 21
3.534702
 31
0.0
210
0.0
220
0.0
230
1.0
  0
LINE
  5
301
100
AcDbEntity
  8
0
370
    35
390
0
 62
     7
 48
0.000014
100
AcDbLine
 10
8.358524
 20
3.534702
 30
0.0
 11
8.358194
 21
3.535133
 31
0.0
210
0.0
220
0.0
230
1.0
  0
LINE
  5
302
100
AcDbEntity
  8
0
370
    35
390
0
 62
     7
 48
0.000028
100
AcDbLine
 10
8.358194
 20
3.535133
 30
0.0
 11
8.359144
 21
3.535731
 31
0.0
210
0.0
220
0.0
230
1.0
  0
LINE
  5
303
100
AcDbEntity
  8
0
370
    35
390
0
 62
     7
 48
0.00003
100
AcDbLine
 10
8.359144
 20
3.535731
 30
0.0
 11
8.36022
 21
3.536261
 31
0.0
210
0.0
220
0.0
230
1.0
  0
LINE
  5
304
100
AcDbEntity
  8
0
370
    35
390
0
 62
     7
 48
0.000032
100
AcDbLine
 10
8.36022
 20
3.536261
 30
0.0
 11
8.361424
 21
3.536724
 31
0.0
210
0.0
220
0.0
230
1.0
  0
LINE
  5
305
100
AcDbEntity
  8
0
370
    35
390
0
 62
     7
 48
0.000035
100
AcDbLine
 10
8.361424
 20
3.536724
 30
0.0
 11
8.362756
 21
3.53712
 31
0.0
210
0.0
220
0.0
230
1.0
  0
LINE
  5
306
100
AcDbEntity
  8
0
370
    35
390
0
 62
     7
 48
0.000037
100
AcDbLine
 10
8.362756
 20
3.53712
 30
0.0
 11
8.364214
 21
3.537448
 31
0.0
210
0.0
220
0.0
230
1.0
  0
LINE
  5
307
100
AcDbEntity
  8
0
370
    35
390
0
 62
     7
 48
0.00004
100
AcDbLine
 10
8.364214
 20
3.537448
 30
0.0
 11
8.365799
 21
3.537708
 31
0.0
210
0.0
220
0.0
230
1.0
  0
LINE
  5
308
100
AcDbEntity
  8
0
370
    35
390
0
 62
     7
 48
0.000043
100
AcDbLine
 10
8.365799
 20
3.537708
 30
0.0
 11
8.367511
 21
3.537902
 31
0.0
210
0.0
220
0.0
230
1.0
  0
LINE
  5
309
100
AcDbEntity
  8
0
370
    35
390
0
 62
     7
 48
0.000046
100
AcDbLine
 10
8.367511
 20
3.537902
 30
0.0
 11
8.369352
 21
3.538027
 31
0.0
210
0.0
220
0.0
230
1.0
  0
LINE
  5
30A
100
AcDbEntity
  8
0
370
    35
390
0
 62
     7
 48
0.000049
100
AcDbLine
 10
8.369352
 20
3.538027
 30
0.0
 11
8.371318
 21
3.538086
 31
0.0
210
0.0
220
0.0
230
1.0
  0
LINE
  5
30B
100
AcDbEntity
  8
0
370
    35
390
0
 62
     7
 48
0.000052
100
AcDbLine
 10
8.371318
 20
3.538086
 30
0.0
 11
8.373412
 21
3.538077
 31
0.0
210
0.0
220
0.0
230
1.0
  0
LINE
  5
30C
100
AcDbEntity
  8
0
370
    35
390
0
 62
     7
 48
0.000288
100
AcDbLine
 10
8.373412
 20
3.538077
 30
0.0
 11
8.377606
 21
3.54882
 31
0.0
210
0.0
220
0.0
230
1.0
  0
LINE
  5
30D
100
AcDbEntity
  8
0
370
    35
390
0
 62
     7
 48
0.000224
100
AcDbLine
 10
8.377606
 20
3.54882
 30
0.0
 11
8.369474
 21
3.552562
 31
0.0
210
0.0
220
0.0
230
1.0
  0
LINE
  5
30E
100
AcDbEntity
  8
0
370
    35
390
0
 62
     7
 48
0.001812
100
AcDbLine
 10
8.369474
 20
3.552562
 30
0.0
 11
8.441856
 21
3.549046
 31
0.0
210
0.0
220
0.0
230
1.0
  0
LINE
  5
30F
100
AcDbEntity
  8
0
370
    35
390
0
 62
     7
 48
0.000056
100
AcDbLine
 10
8.444299
 20
3.546486
 30
0.0
 11
8.442203
 21
3.545743
 31
0.0
210
0.0
220
0.0
230
1.0
  0
LINE
  5
310
100
AcDbEntity
  8
0
370
    35
390
0
 62
     7
 48
0.000052
100
AcDbLine
 10
8.442203
 20
3.545743
 30
0.0
 11
8.44026
 21
3.545007
 31
0.0
210
0.0
220
0.0
230
1.0
  0
LINE
  5
311
100
AcDbEntity
  8
0
370
    35
390
0
 62
     7
 48
0.000048
100
AcDbLine
 10
8.44026
 20
3.545007
 30
0.0
 11
8.438471
 21
3.544279
 31
0.0
210
0.0
220
0.0
230
1.0
  0
LINE
  5
312
100
AcDbEntity
  8
0
370
    35
390
0
 62
     7
 48
0.000045
100
AcDbLine
 10
8.438471
 20
3.544279
 30
0.0
 11
8.436836
 21
3.543557
 31
0.0
210
0.0
220
0.0
230
1.0
  0
LINE
  5
313
100
AcDbEntity
  8
0
370
    35
390
0
 62
     7
 48
0.000041
100
AcDbLine
 10
8.436836
 20
3.543557
 30
0.0
 11
8.435352
 21
3.542843
 31
0.0
210
0.0
220
0.0
230
1.0
  0
LINE
  5
314
100
AcDbEntity
  8
0
370
    35
390
0
 62
     7
 48
0.000038
100
AcDbLine
 10
8.435352
 20
3.542843
 30
0.0
 11
8.434023
 21
3.542135
 31
0.0
210
0.0
220
0.0
230
1.0
  0
LINE
  5
315
100
AcDbEntity
  8
0
370
    35
390
0
 62
     7
 48
0.000034
100
AcDbLine
 10
8.434023
 20
3.542135
 30
0.0
 11
8.432848
 21
3.541435
 31
0.0
210
0.0
220
0.0
230
1.0
  0
LINE
  5
316
100
AcDbEntity
  8
0
370
    35
390
0
 62
     7
 48
0.000031
100
AcDbLine
 10
8.432848
 20
3.541435
 30
0.0
 11
8.431825
 21
3.540741
 31
0.0
210
0.0
220
0.0
230
1.0
  0
LINE
  5
317
100
AcDbEntity
  8
0
370
    35
390
0
 62
     7
 48
0.000028
100
AcDbLine
 10
8.431825
 20
3.540741
 30
0.0
 11
8.430956
 21
3.540055
 31
0.0
210
0.0
220
0.0
230
1.0
  0
LINE
  5
318
100
AcDbEntity
  8
0
370
    35
390
0
 62
     7
 48
0.000035
100
AcDbLine
 10
8.430956
 20
3.540055
 30
0.0
 11
8.429631
 21
3.540483
 31
0.0
210
0.0
220
0.0
230
1.0
  0
LINE
  5
319
100
AcDbEntity
  8
0
370
    35
390
0
 62
     7
 48
0.00003
100
AcDbLine
 10
8.429631
 20
3.540483
 30
0.0
 11
8.430547
 21
3.541252
 31
0.0
210
0.0
220
0.0
230
1.0
  0
LINE
  5
31A
100
AcDbEntity
  8
0
370
    35
390
0
 62
     7
 48
0.000033
100
AcDbLine
 10
8.430547
 20
3.541252
 30
0.0
 11
8.431611
 21
3.542011
 31
0.0
210
0.0
220
0.0
230
1.0
  0
LINE
  5
31B
100
AcDbEntity
  8
0
370
    35
390
0
 62
     7
 48
0.000036
100
AcDbLine
 10
8.431611
 20
3.542011
 30
0.0
 11
8.432824
 21
3.54276
 31
0.0
210
0.0
220
0.0
230
1.0
  0
LINE
  5
31C
100
AcDbEntity
  8
0
370
    35
390
0
 62
     7
 48
0.000039
100
AcDbLine
 10
8.432824
 20
3.54276
 30
0.0
 11
8.434185
 21
3.543499
 31
0.0
210
0.0
220
0.0
230
1.0
  0
LINE
  5
31D
100
AcDbEntity
  8
0
370
    35
390
0
 62
     7
 48
0.000042
100
AcDbLine
 10
8.434185
 20
3.543499
 30
0.0
 11
8.435694
 21
3.544229
 31
0.0
210
0.0
220
0.0
230
1.0
  0
LINE
  5
31E
100
AcDbEntity
  8
0
370
    35
390
0
 62
     7
 48
0.000045
100
AcDbLine
 10
8.435694
 20
3.544229
 30
0.0
 11
8.437351
 21
3.544948
 31
0.0
210
0.0
220
0.0
230
1.0
  0
LINE
  5
31F
100
AcDbEntity
  8
0
370
    35
390
0
 62
     7
 48
0.000049
100
AcDbLine
 10
8.437351
 20
3.544948
 30
0.0
 11
8.439157
 21
3.545658
 31
0.0
210
0.0
220
0.0
230
1.0
  0
LINE
  5
320
100
AcDbEntity
  8
0
370
    35
390
0
 62
     7
 48
0.000052
100
AcDbLine
 10
8.439157
 20
3.545658
 30
0.0
 11
8.44111
 21
3.546359
 31
0.0
210
0.0
220
0.0
230
1.0
  0
LINE
  5
321
100
AcDbEntity
  8
0
370
    35
390
0
 62
     7
 48
0.000055
100
AcDbLine
 10
8.44111
 20
3.546359
 30
0.0
 11
8.443212
 21
3.547049
 31
0.0
210
0.0
220
0.0
230
1.0
  0
LINE
  5
322
100
AcDbEntity
  8
0
370
    35
390
0
 62
     7
 48
0.000059
100
AcDbLine
 10
8.443212
 20
3.547049
 30
0.0
 11
8.445463
 21
3.547729
 31
0.0
210
0.0
220
0.0
230
1.0
  0
LINE
  5
323
100
AcDbEntity
  8
0
370
    35
390
0
 62
     7
 48
0.00003
100
AcDbLine
 10
8.445463
 20
3.547729
 30
0.0
 11
8.446549
 21
3.547235
 31
0.0
210
0.0
220
0.0
230
1.0
  0
LINE
  5
324
100
AcDbEntity
  8
0
370
    35
390
0
 62
     7
 48
0.000059
100
AcDbLine
 10
8.446549
 20
3.547235
 30
0.0
 11
8.444299
 21
3.546486
 31
0.0
210
0.0
220
0.0
230
1.0
  0
LINE
  5
325
100
AcDbEntity
  8
0
370
    35
390
0
 62
     7
 48
0.000043
100
AcDbLine
 10
8.417171
 20
3.528222
 30
0.0
 11
8.415507
 21
3.528692
 31
0.0
210
0.0
220
0.0
230
1.0
  0
LINE
  5
326
100
AcDbEntity
  8
0
370
    35
390
0
 62
     7
 48
0.000295
100
AcDbLine
 10
8.415507
 20
3.528692
 30
0.0
 11
8.4198
 21
3.539689
 31
0.0
210
0.0
220
0.0
230
1.0
  0
LINE
  5
327
100
AcDbEntity
  8
0
370
    35
390
0
 62
     7
 48
0.000043
100
AcDbLine
 10
8.4198
 20
3.539689
 30
0.0
 11
8.421464
 21
3.539219
 31
0.0
210
0.0
220
0.0
230
1.0
  0
LINE
  5
328
100
AcDbEntity
  8
0
370
    35
390
0
 62
     7
 48
0.000295
100
AcDbLine
 10
8.421464
 20
3.539219
 30
0.0
 11
8.417171
 21
3.528222
 31
0.0
210
0.0
220
0.0
230
1.0
  0
LINE
  5
329
100
AcDbEntity
  8
0
370
    35
390
0
 62
     7
 48
0.000292
100
AcDbLine
 10
8.391685
 20
3.532832
 30
0.0
 11
8.387432
 21
3.521937
 31
0.0
210
0.0
220
0.0
230
1.0
  0
LINE
  5
32A
100
AcDbEntity
  8
0
370
    35
390
0
 62
     7
 48
0.000296
100
AcDbLine
 10
8.387432
 20
3.521937
 30
0.0
 11
8.397539
 21
3.51579
 31
0.0
210
0.0
220
0.0
230
1.0
  0
LINE
  5
32B
100
AcDbEntity
  8
0
370
    35
390
0
 62
     7
 48
0.001011
100
AcDbLine
 10
8.397539
 20
3.51579
 30
0.0
 11
8.357164
 21
3.517752
 31
0.0
210
0.0
220
0.0
230
1.0
  0
LINE
  5
32C
100
AcDbEntity
  8
0
370
    35
390
0
 62
     7
 48
0.000042
100
AcDbLine
 10
8.357164
 20
3.517752
 30
0.0
 11
8.355689
 21
3.518524
 31
0.0
210
0.0
220
0.0
230
1.0
  0
LINE
  5
32D
100
AcDbEntity
  8
0
370
    35
390
0
 62
     7
 48
0.000956
100
AcDbLine
 10
8.355689
 20
3.518524
 30
0.0
 11
8.393902
 21
3.516668
 31
0.0
210
0.0
220
0.0
230
1.0
  0
LINE
  5
32E
100
AcDbEntity
  8
0
370
    35
390
0
 62
     7
 48
0.000244
100
AcDbLine
 10
8.393902
 20
3.516668
 30
0.0
 11
8.38557
 21
3.521715
 31
0.0
210
0.0
220
0.0
230
1.0
  0
LINE
  5
32F
100
AcDbEntity
  8
0
370
    35
390
0
 62
     7
 48
0.000319
100
AcDbLine
 10
8.38557
 20
3.521715
 30
0.0
 11
8.390211
 21
3.533604
 31
0.0
210
0.0
220
0.0
230
1.0
  0
LINE
  5
330
100
AcDbEntity
  8
0
370
    35
390
0
 62
     7
 48
0.000351
100
AcDbLine
 10
8.390211
 20
3.533604
 30
0.0
 11
8.404227
 21
3.532923
 31
0.0
210
0.0
220
0.0
230
1.0
  0
LINE
  5
331
100
AcDbEntity
  8
0
370
    35
390
0
 62
     7
 48
0.000048
100
AcDbLine
 10
8.404227
 20
3.532923
 30
0.0
 11
8.405981
 21
3.532138
 31
0.0
210
0.0
220
0.0
230
1.0
  0
LINE
  5
332
100
AcDbEntity
  8
0
370
    35
390
0
 62
     7
 48
0.000358
100
AcDbLine
 10
8.405981
 20
3.532138
 30
0.0
 11
8.391685
 21
3.532832
 31
0.0
210
0.0
220
0.0
230
1.0
  0
ELLIPSE
  5
333
100
AcDbEntity
  8
0
370
    35
390
0
 62
     7
 48
0.03937
100
AcDbEllipse
 10
8.376536
 20
3.587523
 30
0.0
 11
0.0097683700050343
 21
0.0000381750548728
 31
0.0
210
0.0
220
0.0
230
1.0
 40
0.364583
 41
0.0000000540707193
 42
3.1415927076605112
  0
ELLIPSE
  5
334
100
AcDbEntity
  8
0
370
    35
390
0
 62
     7
 48
0.03937
100
AcDbEllipse
 10
8.376536
 20
3.587523
 30
0.0
 11
0.0097683700050343
 21
0.0000381750548728
 31
0.0
210
0.0
220
0.0
230
1.0
 40
0.364583
 41
3.1415927076605121
 42
6.1401974423709635
  0
ELLIPSE
  5
335
100
AcDbEntity
  8
0
370
    35
390
0
 62
     7
 48
0.03937
100
AcDbEllipse
 10
8.376536
 20
3.587523
 30
0.0
 11
0.0097683700050343
 21
0.0000381750548728
 31
0.0
210
0.0
220
0.0
230
1.0
 40
0.364583
 41
6.1401974423709751
 42
6.2831853612503057
  0
ELLIPSE
  5
336
100
AcDbEntity
  8
0
370
    35
390
0
 62
     7
 48
0.03937
100
AcDbEllipse
 10
8.49885
 20
3.52852
 30
0.0
 11
0.0097683700050343
 21
0.0000381750548729
 31
0.0
210
0.0
220
0.0
230
1.0
 40
0.364583
 41
0.0000000540707193
 42
3.1415927076605112
  0
ELLIPSE
  5
337
100
AcDbEntity
  8
0
370
    35
390
0
 62
     7
 48
0.03937
100
AcDbEllipse
 10
8.49885
 20
3.52852
 30
0.0
 11
0.0097683700050343
 21
0.0000381750548729
 31
0.0
210
0.0
220
0.0
230
1.0
 40
0.364583
 41
3.1415927076605117
 42
6.1401974423709751
  0
ELLIPSE
  5
338
100
AcDbEntity
  8
0
370
    35
390
0
 62
     7
 48
0.03937
100
AcDbEllipse
 10
8.49885
 20
3.52852
 30
0.0
 11
0.0097683700050343
 21
0.0000381750548729
 31
0.0
210
0.0
220
0.0
230
1.0
 40
0.364583
 41
6.1401974423709751
 42
6.2831853612503057
  0
ELLIPSE
  5
339
100
AcDbEntity
  8
0
370
    35
390
0
 62
     7
 48
0.03937
100
AcDbEllipse
 10
8.471445
 20
3.567372
 30
0.0
 11
0.0097683700050343
 21
0.0000381750548728
 31
0.0
210
0.0
220
0.0
230
1.0
 40
0.364583
 41
0.0000000540707193
 42
3.1415927076605112
  0
ELLIPSE
  5
33A
100
AcDbEntity
  8
0
370
    35
390
0
 62
     7
 48
0.03937
100
AcDbEllipse
 10
8.471445
 20
3.567372
 30
0.0
 11
0.0097683700050343
 21
0.0000381750548728
 31
0.0
210
0.0
220
0.0
230
1.0
 40
0.364583
 41
3.1415927076605117
 42
6.1401974423709751
  0
ELLIPSE
  5
33B
100
AcDbEntity
  8
0
370
    35
390
0
 62
     7
 48
0.03937
100
AcDbEllipse
 10
8.471445
 20
3.567372
 30
0.0
 11
0.0097683700050343
 21
0.0000381750548728
 31
0.0
210
0.0
220
0.0
230
1.0
 40
0.364583
 41
6.1401974423709751
 42
6.2831853612503057
  0
ELLIPSE
  5
33C
100
AcDbEntity
  8
0
370
    35
390
0
 62
     7
 48
0.03937
100
AcDbEllipse
 10
8.335878
 20
3.483374
 30
0.0
 11
0.0097683700050343
 21
0.0000381750548729
 31
0.0
210
0.0
220
0.0
230
1.0
 40
0.364583
 41
0.0000000540707226
 42
3.1415927076605152
  0
ELLIPSE
  5
33D
100
AcDbEntity
  8
0
370
    35
390
0
 62
     7
 48
0.03937
100
AcDbEllipse
 10
8.335878
 20
3.483374
 30
0.0
 11
0.0097683700050343
 21
0.0000381750548729
 31
0.0
210
0.0
220
0.0
230
1.0
 40
0.364583
 41
3.1415927076605157
 42
6.1401974423709751
  0
ELLIPSE
  5
33E
100
AcDbEntity
  8
0
370
    35
390
0
 62
     7
 48
0.03937
100
AcDbEllipse
 10
8.335878
 20
3.483374
 30
0.0
 11
0.0097683700050343
 21
0.0000381750548729
 31
0.0
210
0.0
220
0.0
230
1.0
 40
0.364583
 41
6.1401974423709751
 42
6.2831853612503084
  0
ELLIPSE
  5
33F
100
AcDbEntity
  8
0
370
    35
390
0
 62
     7
 48
0.03937
100
AcDbEllipse
 10
8.442696
 20
3.493727
 30
0.0
 11
0.0097683700050343
 21
0.0000381750548729
 31
0.0
210
0.0
220
0.0
230
1.0
 40
0.364583
 41
0.0000000540707193
 42
3.1415927076605112
  0
ELLIPSE
  5
340
100
AcDbEntity
  8
0
370
    35
390
0
 62
     7
 48
0.03937
100
AcDbEllipse
 10
8.442696
 20
3.493727
 30
0.0
 11
0.0097683700050343
 21
0.0000381750548729
 31
0.0
210
0.0
220
0.0
230
1.0
 40
0.364583
 41
3.1415927076605117
 42
6.1401974423709751
  0
ELLIPSE
  5
341
100
AcDbEntity
  8
0
370
    35
390
0
 62
     7
 48
0.03937
100
AcDbEllipse
 10
8.442696
 20
3.493727
 30
0.0
 11
0.0097683700050343
 21
0.0000381750548729
 31
0.0
210
0.0
220
0.0
230
1.0
 40
0.364583
 41
6.1401974423709751
 42
6.2831853612503057
  0
ELLIPSE
  5
342
100
AcDbEntity
  8
0
370
    35
390
0
 62
     7
 48
0.03937
100
AcDbEllipse
 10
8.213565
 20
3.542377
 30
0.0
 11
0.0097683700050343
 21
0.0000381750548728
 31
0.0
210
0.0
220
0.0
230
1.0
 40
0.364583
 41
3.1415927076605157
 42
6.2831853612503084
  0
ELLIPSE
  5
343
100
AcDbEntity
  8
0
370
    35
390
0
 62
     7
 48
0.03937
100
AcDbEllipse
 10
8.213565
 20
3.542377
 30
0.0
 11
0.0097683700050343
 21
0.0000381750548728
 31
0.0
210
0.0
220
0.0
230
1.0
 40
0.364583
 41
0.0000000540707226
 42
2.9986047887811824
  0
ELLIPSE
  5
344
100
AcDbEntity
  8
0
370
    35
390
0
 62
     7
 48
0.03937
100
AcDbEllipse
 10
8.213565
 20
3.542377
 30
0.0
 11
0.0097683700050343
 21
0.0000381750548728
 31
0.0
210
0.0
220
0.0
230
1.0
 40
0.364583
 41
2.9986047887811824
 42
3.1415927076605157
  0
ELLIPSE
  5
345
100
AcDbEntity
  8
0
370
    35
390
0
 62
     7
 48
0.03937
100
AcDbEllipse
 10
8.269719
 20
3.57717
 30
0.0
 11
0.0097683700050343
 21
0.0000381750548728
 31
0.0
210
0.0
220
0.0
230
1.0
 40
0.364583
 41
3.1415927076605117
 42
6.2831853612503039
  0
ELLIPSE
  5
346
100
AcDbEntity
  8
0
370
    35
390
0
 62
     7
 48
0.03937
100
AcDbEllipse
 10
8.269719
 20
3.57717
 30
0.0
 11
0.0097683700050343
 21
0.0000381750548728
 31
0.0
210
0.0
220
0.0
230
1.0
 40
0.364583
 41
0.0000000540707193
 42
2.9986047887811824
  0
ELLIPSE
  5
347
100
AcDbEntity
  8
0
370
    35
390
0
 62
     7
 48
0.03937
100
AcDbEllipse
 10
8.269719
 20
3.57717
 30
0.0
 11
0.0097683700050343
 21
0.0000381750548728
 31
0.0
210
0.0
220
0.0
230
1.0
 40
0.364583
 41
2.9986047887811824
 42
3.1415927076605117
  0
ELLIPSE
  5
348
100
AcDbEntity
  8
0
370
    35
390
0
 62
     7
 48
0.03937
100
AcDbEllipse
 10
8.240969
 20
3.503525
 30
0.0
 11
0.0097683700050343
 21
0.0000381750548728
 31
0.0
210
0.0
220
0.0
230
1.0
 40
0.364583
 41
3.1415927076605157
 42
6.2831853612503084
  0
ELLIPSE
  5
349
100
AcDbEntity
  8
0
370
    35
390
0
 62
     7
 48
0.03937
100
AcDbEllipse
 10
8.240969
 20
3.503525
 30
0.0
 11
0.0097683700050343
 21
0.0000381750548728
 31
0.0
210
0.0
220
0.0
230
1.0
 40
0.364583
 41
0.0000000540707226
 42
2.9986047887811824
  0
ELLIPSE
  5
34A
100
AcDbEntity
  8
0
370
    35
390
0
 62
     7
 48
0.03937
100
AcDbEllipse
 10
8.240969
 20
3.503525
 30
0.0
 11
0.0097683700050343
 21
0.0000381750548728
 31
0.0
210
0.0
220
0.0
230
1.0
 40
0.364583
 41
2.9986047887811824
 42
3.1415927076605157
  0
LINE
  5
34B
100
AcDbEntity
  8
0
370
    35
390
0
 62
     7
 48
0.000044
100
AcDbLine
 10
8.377606
 20
3.54882
 30
0.0
 11
8.377613
 21
3.547055
 31
0.0
210
0.0
220
0.0
230
1.0
  0
LINE
  5
34C
100
AcDbEntity
  8
0
370
    35
390
0
 62
     7
 48
0.000288
100
AcDbLine
 10
8.373419
 20
3.536312
 30
0.0
 11
8.377613
 21
3.547055
 31
0.0
210
0.0
220
0.0
230
1.0
  0
LINE
  5
34D
100
AcDbEntity
  8
0
370
    35
390
0
 62
     7
 48
0.000052
100
AcDbLine
 10
8.371325
 20
3.536321
 30
0.0
 11
8.373419
 21
3.536312
 31
0.0
210
0.0
220
0.0
230
1.0
  0
LINE
  5
34E
100
AcDbEntity
  8
0
370
    35
390
0
 62
     7
 48
0.000049
100
AcDbLine
 10
8.369359
 20
3.536262
 30
0.0
 11
8.371325
 21
3.536321
 31
0.0
210
0.0
220
0.0
230
1.0
  0
LINE
  5
34F
100
AcDbEntity
  8
0
370
    35
390
0
 62
     7
 48
0.000046
100
AcDbLine
 10
8.367518
 20
3.536136
 30
0.0
 11
8.369359
 21
3.536262
 31
0.0
210
0.0
220
0.0
230
1.0
  0
LINE
  5
350
100
AcDbEntity
  8
0
370
    35
390
0
 62
     7
 48
0.000004
100
AcDbLine
 10
8.367367
 20
3.536119
 30
0.0
 11
8.367518
 21
3.536136
 31
0.0
210
0.0
220
0.0
230
1.0
  0
LINE
  5
351
100
AcDbEntity
  8
0
370
    35
390
0
 62
     7
 48
0.000032
100
AcDbLine
 10
8.372117
 20
3.532977
 30
0.0
 11
8.372584
 21
3.534173
 31
0.0
210
0.0
220
0.0
230
1.0
  0
LINE
  5
352
100
AcDbEntity
  8
0
370
    35
390
0
 62
     7
 48
0.000007
100
AcDbLine
 10
8.371846
 20
3.532987
 30
0.0
 11
8.372117
 21
3.532977
 31
0.0
210
0.0
220
0.0
230
1.0
  0
LINE
  5
353
100
AcDbEntity
  8
0
370
    35
390
0
 62
     7
 48
0.000294
100
AcDbLine
 10
8.367576
 20
3.521343
 30
0.0
 11
8.371849
 21
3.532289
 31
0.0
210
0.0
220
0.0
230
1.0
  0
LINE
  5
354
100
AcDbEntity
  8
0
370
    35
390
0
 62
     7
 48
0.000154
100
AcDbLine
 10
8.361545
 20
3.520029
 30
0.0
 11
8.367576
 21
3.521343
 31
0.0
210
0.0
220
0.0
230
1.0
  0
LINE
  5
355
100
AcDbEntity
  8
0
370
    35
390
0
 62
     7
 48
0.000101
100
AcDbLine
 10
8.381522
 20
3.520665
 30
0.0
 11
8.385159
 21
3.518882
 31
0.0
210
0.0
220
0.0
230
1.0
  0
LINE
  5
356
100
AcDbEntity
  8
0
370
    35
390
0
 62
     7
 48
0.000314
100
AcDbLine
 10
8.403891
 20
3.534832
 30
0.0
 11
8.415942
 21
3.538362
 31
0.0
210
0.0
220
0.0
230
1.0
  0
LINE
  5
357
100
AcDbEntity
  8
0
370
    35
390
0
 62
     7
 48
0.000264
100
AcDbLine
 10
8.393362
 20
3.535343
 30
0.0
 11
8.403891
 21
3.534832
 31
0.0
210
0.0
220
0.0
230
1.0
  0
LINE
  5
358
100
AcDbEntity
  8
0
370
    35
390
0
 62
     7
 48
0.000027
100
AcDbLine
 10
8.395724
 20
3.545941
 30
0.0
 11
8.396788
 21
3.545903
 31
0.0
210
0.0
220
0.0
230
1.0
  0
LINE
  5
359
100
AcDbEntity
  8
0
370
    35
390
0
 62
     7
 48
0.000282
100
AcDbLine
 10
8.391619
 20
3.535428
 30
0.0
 11
8.395724
 21
3.545941
 31
0.0
210
0.0
220
0.0
230
1.0
  0
LINE
  5
35A
100
AcDbEntity
  8
0
370
    35
390
0
 62
     7
 48
0.000106
100
AcDbLine
 10
8.387365
 20
3.535634
 30
0.0
 11
8.391619
 21
3.535428
 31
0.0
210
0.0
220
0.0
230
1.0
  0
LINE
  5
35B
100
AcDbEntity
  8
0
370
    35
390
0
 62
     7
 48
0.001601
100
AcDbLine
 10
8.373764
 20
3.550588
 30
0.0
 11
8.437726
 21
3.547481
 31
0.0
210
0.0
220
0.0
230
1.0
  0
LINE
  5
35C
100
AcDbEntity
  8
0
370
    35
390
0
 62
     7
 48
0.000044
100
AcDbLine
 10
8.373412
 20
3.538077
 30
0.0
 11
8.373419
 21
3.536312
 31
0.0
210
0.0
220
0.0
230
1.0
  0
LINE
  5
35D
100
AcDbEntity
  8
0
370
    35
390
0
 62
     7
 48
0.000044
100
AcDbLine
 10
8.371318
 20
3.538086
 30
0.0
 11
8.371325
 21
3.536321
 31
0.0
210
0.0
220
0.0
230
1.0
  0
LINE
  5
35E
100
AcDbEntity
  8
0
370
    35
390
0
 62
     7
 48
0.000044
100
AcDbLine
 10
8.369352
 20
3.538027
 30
0.0
 11
8.369359
 21
3.536262
 31
0.0
210
0.0
220
0.0
230
1.0
  0
LINE
  5
35F
100
AcDbEntity
  8
0
370
    35
390
0
 62
     7
 48
0.000044
100
AcDbLine
 10
8.367511
 20
3.537902
 30
0.0
 11
8.367518
 21
3.536136
 31
0.0
210
0.0
220
0.0
230
1.0
  0
LINE
  5
360
100
AcDbEntity
  8
0
370
    35
390
0
 62
     7
 48
0.000044
100
AcDbLine
 10
8.365799
 20
3.537708
 30
0.0
 11
8.365806
 21
3.535943
 31
0.0
210
0.0
220
0.0
230
1.0
  0
LINE
  5
361
100
AcDbEntity
  8
0
370
    35
390
0
 62
     7
 48
0.000039
100
AcDbLine
 10
8.364214
 20
3.537448
 30
0.0
 11
8.36422
 21
3.535895
 31
0.0
210
0.0
220
0.0
230
1.0
  0
LINE
  5
362
100
AcDbEntity
  8
0
370
    35
390
0
 62
     7
 48
0.000036
100
AcDbLine
 10
8.362756
 20
3.53712
 30
0.0
 11
8.362761
 21
3.535688
 31
0.0
210
0.0
220
0.0
230
1.0
  0
LINE
  5
363
100
AcDbEntity
  8
0
370
    35
390
0
 62
     7
 48
0.000032
100
AcDbLine
 10
8.361424
 20
3.536724
 30
0.0
 11
8.361429
 21
3.535442
 31
0.0
210
0.0
220
0.0
230
1.0
  0
LINE
  5
364
100
AcDbEntity
  8
0
370
    35
390
0
 62
     7
 48
0.000027
100
AcDbLine
 10
8.36022
 20
3.536261
 30
0.0
 11
8.360224
 21
3.53517
 31
0.0
210
0.0
220
0.0
230
1.0
  0
LINE
  5
365
100
AcDbEntity
  8
0
370
    35
390
0
 62
     7
 48
0.000021
100
AcDbLine
 10
8.359144
 20
3.535731
 30
0.0
 11
8.359147
 21
3.534882
 31
0.0
210
0.0
220
0.0
230
1.0
  0
LINE
  5
366
100
AcDbEntity
  8
0
370
    35
390
0
 62
     7
 48
0.000044
100
AcDbLine
 10
8.372577
 20
3.535939
 30
0.0
 11
8.372584
 21
3.534173
 31
0.0
210
0.0
220
0.0
230
1.0
  0
LINE
  5
367
100
AcDbEntity
  8
0
370
    35
390
0
 62
     7
 48
0.000044
100
AcDbLine
 10
8.37211
 20
3.534742
 30
0.0
 11
8.372117
 21
3.532977
 31
0.0
210
0.0
220
0.0
230
1.0
  0
LINE
  5
368
100
AcDbEntity
  8
0
370
    35
390
0
 62
     7
 48
0.000017
100
AcDbLine
 10
8.370792
 20
3.53479
 30
0.0
 11
8.370794
 21
3.534091
 31
0.0
210
0.0
220
0.0
230
1.0
  0
LINE
  5
369
100
AcDbEntity
  8
0
370
    35
390
0
 62
     7
 48
0.000018
100
AcDbLine
 10
8.369513
 20
3.534802
 30
0.0
 11
8.369516
 21
3.534093
 31
0.0
210
0.0
220
0.0
230
1.0
  0
LINE
  5
36A
100
AcDbEntity
  8
0
370
    35
390
0
 62
     7
 48
0.000018
100
AcDbLine
 10
8.368275
 20
3.53478
 30
0.0
 11
8.368278
 21
3.534051
 31
0.0
210
0.0
220
0.0
230
1.0
  0
LINE
  5
36B
100
AcDbEntity
  8
0
370
    35
390
0
 62
     7
 48
0.000019
100
AcDbLine
 10
8.367077
 20
3.534722
 30
0.0
 11
8.36708
 21
3.533967
 31
0.0
210
0.0
220
0.0
230
1.0
  0
LINE
  5
36C
100
AcDbEntity
  8
0
370
    35
390
0
 62
     7
 48
0.00002
100
AcDbLine
 10
8.36592
 20
3.534628
 30
0.0
 11
8.365923
 21
3.533844
 31
0.0
210
0.0
220
0.0
230
1.0
  0
LINE
  5
36D
100
AcDbEntity
  8
0
370
    35
390
0
 62
     7
 48
0.00002
100
AcDbLine
 10
8.364803
 20
3.5345
 30
0.0
 11
8.364806
 21
3.533683
 31
0.0
210
0.0
220
0.0
230
1.0
  0
LINE
  5
36E
100
AcDbEntity
  8
0
370
    35
390
0
 62
     7
 48
0.000021
100
AcDbLine
 10
8.363725
 20
3.534336
 30
0.0
 11
8.363728
 21
3.533486
 31
0.0
210
0.0
220
0.0
230
1.0
  0
LINE
  5
36F
100
AcDbEntity
  8
0
370
    35
390
0
 62
     7
 48
0.000022
100
AcDbLine
 10
8.362688
 20
3.534138
 30
0.0
 11
8.362692
 21
3.533253
 31
0.0
210
0.0
220
0.0
230
1.0
  0
LINE
  5
370
100
AcDbEntity
  8
0
370
    35
390
0
 62
     7
 48
0.00002
100
AcDbLine
 10
8.361691
 20
3.533904
 30
0.0
 11
8.361695
 21
3.53312
 31
0.0
210
0.0
220
0.0
230
1.0
  0
LINE
  5
371
100
AcDbEntity
  8
0
370
    35
390
0
 62
     7
 48
0.000044
100
AcDbLine
 10
8.371842
 20
3.534055
 30
0.0
 11
8.371849
 21
3.532289
 31
0.0
210
0.0
220
0.0
230
1.0
  0
LINE
  5
372
100
AcDbEntity
  8
0
370
    35
390
0
 62
     7
 48
0.000044
100
AcDbLine
 10
8.367569
 20
3.523109
 30
0.0
 11
8.367576
 21
3.521343
 31
0.0
210
0.0
220
0.0
230
1.0
  0
LINE
  5
373
100
AcDbEntity
  8
0
370
    35
390
0
 62
     7
 48
0.000044
100
AcDbLine
 10
8.381515
 20
3.522431
 30
0.0
 11
8.381522
 21
3.520665
 31
0.0
210
0.0
220
0.0
230
1.0
  0
LINE
  5
374
100
AcDbEntity
  8
0
370
    35
390
0
 62
     7
 48
0.000044
100
AcDbLine
 10
8.403884
 20
3.536597
 30
0.0
 11
8.403891
 21
3.534832
 31
0.0
210
0.0
220
0.0
230
1.0
  0
LINE
  5
375
100
AcDbEntity
  8
0
370
    35
390
0
 62
     7
 48
0.000044
100
AcDbLine
 10
8.393355
 20
3.537109
 30
0.0
 11
8.393362
 21
3.535343
 31
0.0
210
0.0
220
0.0
230
1.0
  0
LINE
  5
376
100
AcDbEntity
  8
0
370
    35
390
0
 62
     7
 48
0.000007
100
AcDbLine
 10
8.423093
 20
3.544254
 30
0.0
 11
8.423094
 21
3.543963
 31
0.0
210
0.0
220
0.0
230
1.0
  0
LINE
  5
377
100
AcDbEntity
  8
0
370
    35
390
0
 62
     7
 48
0.000011
100
AcDbLine
 10
8.422241
 20
3.544763
 30
0.0
 11
8.422242
 21
3.544306
 31
0.0
210
0.0
220
0.0
230
1.0
  0
LINE
  5
378
100
AcDbEntity
  8
0
370
    35
390
0
 62
     7
 48
0.000014
100
AcDbLine
 10
8.421154
 20
3.545228
 30
0.0
 11
8.421156
 21
3.544687
 31
0.0
210
0.0
220
0.0
230
1.0
  0
LINE
  5
379
100
AcDbEntity
  8
0
370
    35
390
0
 62
     7
 48
0.000014
100
AcDbLine
 10
8.419833
 20
3.54565
 30
0.0
 11
8.419836
 21
3.54507
 31
0.0
210
0.0
220
0.0
230
1.0
  0
LINE
  5
37A
100
AcDbEntity
  8
0
370
    35
390
0
 62
     7
 48
0.000015
100
AcDbLine
 10
8.418278
 20
3.546028
 30
0.0
 11
8.418281
 21
3.545428
 31
0.0
210
0.0
220
0.0
230
1.0
  0
LINE
  5
37B
100
AcDbEntity
  8
0
370
    35
390
0
 62
     7
 48
0.000016
100
AcDbLine
 10
8.416487
 20
3.546362
 30
0.0
 11
8.41649
 21
3.545738
 31
0.0
210
0.0
220
0.0
230
1.0
  0
LINE
  5
37C
100
AcDbEntity
  8
0
370
    35
390
0
 62
     7
 48
0.000016
100
AcDbLine
 10
8.414463
 20
3.546653
 30
0.0
 11
8.414466
 21
3.545999
 31
0.0
210
0.0
220
0.0
230
1.0
  0
LINE
  5
37D
100
AcDbEntity
  8
0
370
    35
390
0
 62
     7
 48
0.000017
100
AcDbLine
 10
8.412204
 20
3.5469
 30
0.0
 11
8.412207
 21
3.546218
 31
0.0
210
0.0
220
0.0
230
1.0
  0
LINE
  5
37E
100
AcDbEntity
  8
0
370
    35
390
0
 62
     7
 48
0.000017
100
AcDbLine
 10
8.40971
 20
3.547104
 30
0.0
 11
8.409713
 21
3.546409
 31
0.0
210
0.0
220
0.0
230
1.0
  0
LINE
  5
37F
100
AcDbEntity
  8
0
370
    35
390
0
 62
     7
 48
0.000017
100
AcDbLine
 10
8.406983
 20
3.547264
 30
0.0
 11
8.406986
 21
3.546579
 31
0.0
210
0.0
220
0.0
230
1.0
  0
LINE
  5
380
100
AcDbEntity
  8
0
370
    35
390
0
 62
     7
 48
0.000017
100
AcDbLine
 10
8.405052
 20
3.547354
 30
0.0
 11
8.405054
 21
3.546682
 31
0.0
210
0.0
220
0.0
230
1.0
  0
LINE
  5
381
100
AcDbEntity
  8
0
370
    35
390
0
 62
     7
 48
0.000017
100
AcDbLine
 10
8.403162
 20
3.547437
 30
0.0
 11
8.403165
 21
3.546766
 31
0.0
210
0.0
220
0.0
230
1.0
  0
LINE
  5
382
100
AcDbEntity
  8
0
370
    35
390
0
 62
     7
 48
0.000017
100
AcDbLine
 10
8.401315
 20
3.547511
 30
0.0
 11
8.401318
 21
3.546831
 31
0.0
210
0.0
220
0.0
230
1.0
  0
LINE
  5
383
100
AcDbEntity
  8
0
370
    35
390
0
 62
     7
 48
0.000017
100
AcDbLine
 10
8.399511
 20
3.547577
 30
0.0
 11
8.399514
 21
3.546882
 31
0.0
210
0.0
220
0.0
230
1.0
  0
LINE
  5
384
100
AcDbEntity
  8
0
370
    35
390
0
 62
     7
 48
0.000044
100
AcDbLine
 10
8.395717
 20
3.547707
 30
0.0
 11
8.395724
 21
3.545941
 31
0.0
210
0.0
220
0.0
230
1.0
  0
LINE
  5
385
100
AcDbEntity
  8
0
370
    35
390
0
 62
     7
 48
0.000044
100
AcDbLine
 10
8.391612
 20
3.537193
 30
0.0
 11
8.391619
 21
3.535428
 31
0.0
210
0.0
220
0.0
230
1.0
  0
LINE
  5
386
100
AcDbEntity
  8
0
370
    35
390
0
 62
     7
 48
0.000044
100
AcDbLine
 10
8.387358
 20
3.5374
 30
0.0
 11
8.387365
 21
3.535634
 31
0.0
210
0.0
220
0.0
230
1.0
  0
LINE
  5
387
100
AcDbEntity
  8
0
370
    35
390
0
 62
     7
 48
0.001966
100
AcDbLine
 10
8.28115
 20
3.554832
 30
0.0
 11
8.359727
 21
3.551259
 31
0.0
210
0.0
220
0.0
230
1.0
  0
LINE
  5
388
100
AcDbEntity
  8
0
370
    35
390
0
 62
     7
 48
0.000026
100
AcDbLine
 10
8.312061
 20
3.550334
 30
0.0
 11
8.312811
 21
3.551058
 31
0.0
210
0.0
220
0.0
230
1.0
  0
LINE
  5
389
100
AcDbEntity
  8
0
370
    35
390
0
 62
     7
 48
0.000013
100
AcDbLine
 10
8.291547
 20
3.547558
 30
0.0
 11
8.291966
 21
3.547866
 31
0.0
210
0.0
220
0.0
230
1.0
  0
LINE
  5
38A
100
AcDbEntity
  8
0
370
    35
390
0
 62
     7
 48
0.000013
100
AcDbLine
 10
8.291143
 20
3.547209
 30
0.0
 11
8.291547
 21
3.547558
 31
0.0
210
0.0
220
0.0
230
1.0
  0
LINE
  5
38B
100
AcDbEntity
  8
0
370
    35
390
0
 62
     7
 48
0.00068
100
AcDbLine
 10
8.302177
 20
3.523819
 30
0.0
 11
8.312065
 21
3.549149
 31
0.0
210
0.0
220
0.0
230
1.0
  0
LINE
  5
38C
100
AcDbEntity
  8
0
370
    35
390
0
 62
     7
 48
0.000117
100
AcDbLine
 10
8.297607
 20
3.522771
 30
0.0
 11
8.302177
 21
3.523819
 31
0.0
210
0.0
220
0.0
230
1.0
  0
LINE
  5
38D
100
AcDbEntity
  8
0
370
    35
390
0
 62
     7
 48
0.000073
100
AcDbLine
 10
8.315975
 20
3.522941
 30
0.0
 11
8.318659
 21
3.521749
 31
0.0
210
0.0
220
0.0
230
1.0
  0
LINE
  5
38E
100
AcDbEntity
  8
0
370
    35
390
0
 62
     7
 48
0.000044
100
AcDbLine
 10
8.312804
 20
3.552824
 30
0.0
 11
8.312811
 21
3.551058
 31
0.0
210
0.0
220
0.0
230
1.0
  0
LINE
  5
38F
100
AcDbEntity
  8
0
370
    35
390
0
 62
     7
 48
0.000017
100
AcDbLine
 10
8.31155
 20
3.551614
 30
0.0
 11
8.311553
 21
3.550942
 31
0.0
210
0.0
220
0.0
230
1.0
  0
LINE
  5
390
100
AcDbEntity
  8
0
370
    35
390
0
 62
     7
 48
0.000017
100
AcDbLine
 10
8.307377
 20
3.551842
 30
0.0
 11
8.307379
 21
3.551167
 31
0.0
210
0.0
220
0.0
230
1.0
  0
LINE
  5
391
100
AcDbEntity
  8
0
370
    35
390
0
 62
     7
 48
0.000017
100
AcDbLine
 10
8.305828
 20
3.551906
 30
0.0
 11
8.30583
 21
3.551233
 31
0.0
210
0.0
220
0.0
230
1.0
  0
LINE
  5
392
100
AcDbEntity
  8
0
370
    35
390
0
 62
     7
 48
0.000017
100
AcDbLine
 10
8.304358
 20
3.551941
 30
0.0
 11
8.304361
 21
3.551271
 31
0.0
210
0.0
220
0.0
230
1.0
  0
LINE
  5
393
100
AcDbEntity
  8
0
370
    35
390
0
 62
     7
 48
0.000017
100
AcDbLine
 10
8.302971
 20
3.551949
 30
0.0
 11
8.302974
 21
3.551276
 31
0.0
210
0.0
220
0.0
230
1.0
  0
LINE
  5
394
100
AcDbEntity
  8
0
370
    35
390
0
 62
     7
 48
0.000017
100
AcDbLine
 10
8.301664
 20
3.551929
 30
0.0
 11
8.301666
 21
3.551251
 31
0.0
210
0.0
220
0.0
230
1.0
  0
LINE
  5
395
100
AcDbEntity
  8
0
370
    35
390
0
 62
     7
 48
0.000017
100
AcDbLine
 10
8.300437
 20
3.551881
 30
0.0
 11
8.300439
 21
3.551193
 31
0.0
210
0.0
220
0.0
230
1.0
  0
LINE
  5
396
100
AcDbEntity
  8
0
370
    35
390
0
 62
     7
 48
0.000018
100
AcDbLine
 10
8.299292
 20
3.551805
 30
0.0
 11
8.299294
 21
3.551103
 31
0.0
210
0.0
220
0.0
230
1.0
  0
LINE
  5
397
100
AcDbEntity
  8
0
370
    35
390
0
 62
     7
 48
0.000018
100
AcDbLine
 10
8.298227
 20
3.551702
 30
0.0
 11
8.29823
 21
3.550963
 31
0.0
210
0.0
220
0.0
230
1.0
  0
LINE
  5
398
100
AcDbEntity
  8
0
370
    35
390
0
 62
     7
 48
0.000019
100
AcDbLine
 10
8.297243
 20
3.551571
 30
0.0
 11
8.297246
 21
3.550813
 31
0.0
210
0.0
220
0.0
230
1.0
  0
LINE
  5
399
100
AcDbEntity
  8
0
370
    35
390
0
 62
     7
 48
0.000021
100
AcDbLine
 10
8.296341
 20
3.551412
 30
0.0
 11
8.296344
 21
3.550584
 31
0.0
210
0.0
220
0.0
230
1.0
  0
LINE
  5
39A
100
AcDbEntity
  8
0
370
    35
390
0
 62
     7
 48
0.000025
100
AcDbLine
 10
8.294756
 20
3.551005
 30
0.0
 11
8.29476
 21
3.550025
 31
0.0
210
0.0
220
0.0
230
1.0
  0
LINE
  5
39B
100
AcDbEntity
  8
0
370
    35
390
0
 62
     7
 48
0.000028
100
AcDbLine
 10
8.294034
 20
3.550746
 30
0.0
 11
8.294038
 21
3.549635
 31
0.0
210
0.0
220
0.0
230
1.0
  0
LINE
  5
39C
100
AcDbEntity
  8
0
370
    35
390
0
 62
     7
 48
0.000031
100
AcDbLine
 10
8.293351
 20
3.550448
 30
0.0
 11
8.293356
 21
3.549209
 31
0.0
210
0.0
220
0.0
230
1.0
  0
LINE
  5
39D
100
AcDbEntity
  8
0
370
    35
390
0
 62
     7
 48
0.000036
100
AcDbLine
 10
8.292708
 20
3.550112
 30
0.0
 11
8.292713
 21
3.54868
 31
0.0
210
0.0
220
0.0
230
1.0
  0
LINE
  5
39E
100
AcDbEntity
  8
0
370
    35
390
0
 62
     7
 48
0.000044
100
AcDbLine
 10
8.292104
 20
3.549737
 30
0.0
 11
8.292111
 21
3.547972
 31
0.0
210
0.0
220
0.0
230
1.0
  0
LINE
  5
39F
100
AcDbEntity
  8
0
370
    35
390
0
 62
     7
 48
0.000044
100
AcDbLine
 10
8.29154
 20
3.549323
 30
0.0
 11
8.291547
 21
3.547558
 31
0.0
210
0.0
220
0.0
230
1.0
  0
LINE
  5
3A0
100
AcDbEntity
  8
0
370
    35
390
0
 62
     7
 48
0.000044
100
AcDbLine
 10
8.291016
 20
3.548871
 30
0.0
 11
8.291023
 21
3.547105
 31
0.0
210
0.0
220
0.0
230
1.0
  0
LINE
  5
3A1
100
AcDbEntity
  8
0
370
    35
390
0
 62
     7
 48
0.000029
100
AcDbLine
 10
8.29053
 20
3.548379
 30
0.0
 11
8.290535
 21
3.547239
 31
0.0
210
0.0
220
0.0
230
1.0
  0
LINE
  5
3A2
100
AcDbEntity
  8
0
370
    35
390
0
 62
     7
 48
0.000015
100
AcDbLine
 10
8.290086
 20
3.547849
 30
0.0
 11
8.290088
 21
3.547261
 31
0.0
210
0.0
220
0.0
230
1.0
  0
LINE
  5
3A3
100
AcDbEntity
  8
0
370
    35
390
0
 62
     7
 48
0.000044
100
AcDbLine
 10
8.312059
 20
3.550914
 30
0.0
 11
8.312065
 21
3.549149
 31
0.0
210
0.0
220
0.0
230
1.0
  0
LINE
  5
3A4
100
AcDbEntity
  8
0
370
    35
390
0
 62
     7
 48
0.000044
100
AcDbLine
 10
8.30217
 20
3.525585
 30
0.0
 11
8.302177
 21
3.523819
 31
0.0
210
0.0
220
0.0
230
1.0
  0
LINE
  5
3A5
100
AcDbEntity
  8
0
370
    35
390
0
 62
     7
 48
0.000044
100
AcDbLine
 10
8.315968
 20
3.524707
 30
0.0
 11
8.315975
 21
3.522941
 31
0.0
210
0.0
220
0.0
230
1.0
  0
LINE
  5
3A6
100
AcDbEntity
  8
0
370
    35
390
0
 62
     7
 48
0.000044
100
AcDbLine
 10
8.4198
 20
3.539689
 30
0.0
 11
8.419807
 21
3.537924
 31
0.0
210
0.0
220
0.0
230
1.0
  0
LINE
  5
3A7
100
AcDbEntity
  8
0
370
    35
390
0
 62
     7
 48
0.000027
100
AcDbLine
 10
8.419807
 20
3.537924
 30
0.0
 11
8.420844
 21
3.537631
 31
0.0
210
0.0
220
0.0
230
1.0
  0
LINE
  5
3A8
100
AcDbEntity
  8
0
370
    35
390
0
 62
     7
 48
0.000253
100
AcDbLine
 10
8.416134
 20
3.528515
 30
0.0
 11
8.419807
 21
3.537924
 31
0.0
210
0.0
220
0.0
230
1.0
  0
LINE
  5
3A9
100
AcDbEntity
  8
0
370
    35
390
0
 62
     7
 48
0.000026
100
AcDbLine
 10
8.365222
 20
3.551497
 30
0.0
 11
8.365226
 21
3.550441
 31
0.0
210
0.0
220
0.0
230
1.0
  0
LINE
  5
3AA
100
AcDbEntity
  8
0
370
    35
390
0
 62
     7
 48
0.000029
100
AcDbLine
 10
8.364082
 20
3.5511
 30
0.0
 11
8.364087
 21
3.549957
 31
0.0
210
0.0
220
0.0
230
1.0
  0
LINE
  5
3AB
100
AcDbEntity
  8
0
370
    35
390
0
 62
     7
 48
0.00003
100
AcDbLine
 10
8.362911
 20
3.550638
 30
0.0
 11
8.362916
 21
3.549418
 31
0.0
210
0.0
220
0.0
230
1.0
  0
LINE
  5
3AC
100
AcDbEntity
  8
0
370
    35
390
0
 62
     7
 48
0.000032
100
AcDbLine
 10
8.361708
 20
3.550113
 30
0.0
 11
8.361713
 21
3.548826
 31
0.0
210
0.0
220
0.0
230
1.0
  0
LINE
  5
3AD
100
AcDbEntity
  8
0
370
    35
390
0
 62
     7
 48
0.000034
100
AcDbLine
 10
8.360473
 20
3.549524
 30
0.0
 11
8.360478
 21
3.548179
 31
0.0
210
0.0
220
0.0
230
1.0
  0
LINE
  5
3AE
100
AcDbEntity
  8
0
370
    35
390
0
 62
     7
 48
0.000035
100
AcDbLine
 10
8.359205
 20
3.548871
 30
0.0
 11
8.35921
 21
3.547477
 31
0.0
210
0.0
220
0.0
230
1.0
  0
LINE
  5
3AF
100
AcDbEntity
  8
0
370
    35
390
0
 62
     7
 48
0.000036
100
AcDbLine
 10
8.357906
 20
3.548154
 30
0.0
 11
8.357912
 21
3.546721
 31
0.0
210
0.0
220
0.0
230
1.0
  0
LINE
  5
3B0
100
AcDbEntity
  8
0
370
    35
390
0
 62
     7
 48
0.000037
100
AcDbLine
 10
8.356575
 20
3.547374
 30
0.0
 11
8.35658
 21
3.545909
 31
0.0
210
0.0
220
0.0
230
1.0
  0
LINE
  5
3B1
100
AcDbEntity
  8
0
370
    35
390
0
 62
     7
 48
0.000037
100
AcDbLine
 10
8.35521
 20
3.54653
 30
0.0
 11
8.355216
 21
3.545041
 31
0.0
210
0.0
220
0.0
230
1.0
  0
LINE
  5
3B2
100
AcDbEntity
  8
0
370
    35
390
0
 62
     7
 48
0.000038
100
AcDbLine
 10
8.353815
 20
3.545622
 30
0.0
 11
8.353821
 21
3.544119
 31
0.0
210
0.0
220
0.0
230
1.0
  0
LINE
  5
3B3
100
AcDbEntity
  8
0
370
    35
390
0
 62
     7
 48
0.000021
100
AcDbLine
 10
8.445463
 20
3.547729
 30
0.0
 11
8.445466
 21
3.546875
 31
0.0
210
0.0
220
0.0
230
1.0
  0
LINE
  5
3B4
100
AcDbEntity
  8
0
370
    35
390
0
 62
     7
 48
0.000024
100
AcDbLine
 10
8.443212
 20
3.547049
 30
0.0
 11
8.443216
 21
3.546102
 31
0.0
210
0.0
220
0.0
230
1.0
  0
LINE
  5
3B5
100
AcDbEntity
  8
0
370
    35
390
0
 62
     7
 48
0.000026
100
AcDbLine
 10
8.44111
 20
3.546359
 30
0.0
 11
8.441114
 21
3.545331
 31
0.0
210
0.0
220
0.0
230
1.0
  0
LINE
  5
3B6
100
AcDbEntity
  8
0
370
    35
390
0
 62
     7
 48
0.000027
100
AcDbLine
 10
8.439157
 20
3.545658
 30
0.0
 11
8.439161
 21
3.544559
 31
0.0
210
0.0
220
0.0
230
1.0
  0
LINE
  5
3B7
100
AcDbEntity
  8
0
370
    35
390
0
 62
     7
 48
0.000029
100
AcDbLine
 10
8.437351
 20
3.544948
 30
0.0
 11
8.437356
 21
3.543786
 31
0.0
210
0.0
220
0.0
230
1.0
  0
LINE
  5
3B8
100
AcDbEntity
  8
0
370
    35
390
0
 62
     7
 48
0.00003
100
AcDbLine
 10
8.435694
 20
3.544229
 30
0.0
 11
8.435698
 21
3.543009
 31
0.0
210
0.0
220
0.0
230
1.0
  0
LINE
  5
3B9
100
AcDbEntity
  8
0
370
    35
390
0
 62
     7
 48
0.000032
100
AcDbLine
 10
8.434185
 20
3.543499
 30
0.0
 11
8.43419
 21
3.542224
 31
0.0
210
0.0
220
0.0
230
1.0
  0
LINE
  5
3BA
100
AcDbEntity
  8
0
370
    35
390
0
 62
     7
 48
0.000033
100
AcDbLine
 10
8.432824
 20
3.54276
 30
0.0
 11
8.432829
 21
3.541422
 31
0.0
210
0.0
220
0.0
230
1.0
  0
LINE
  5
3BB
100
AcDbEntity
  8
0
370
    35
390
0
 62
     7
 48
0.000036
100
AcDbLine
 10
8.431611
 20
3.542011
 30
0.0
 11
8.431617
 21
3.540577
 31
0.0
210
0.0
220
0.0
230
1.0
  0
LINE
  5
3BC
100
AcDbEntity
  8
0
370
    35
390
0
 62
     7
 48
0.000027
100
AcDbLine
 10
8.430547
 20
3.541252
 30
0.0
 11
8.430552
 21
3.540186
 31
0.0
210
0.0
220
0.0
230
1.0
  0
LINE
  5
3BD
100
AcDbEntity
  8
0
370
    35
390
0
 62
     7
 48
0.000004
100
AcDbLine
 10
8.346425
 20
3.548231
 30
0.0
 11
8.346426
 21
3.548057
 31
0.0
210
0.0
220
0.0
230
1.0
  0
LINE
  5
3BE
100
AcDbEntity
  8
0
370
    35
390
0
 62
     7
 48
0.000037
100
AcDbLine
 10
8.329708
 20
3.549018
 30
0.0
 11
8.331186
 21
3.548957
 31
0.0
210
0.0
220
0.0
230
1.0
  0
LINE
  5
3BF
100
AcDbEntity
  8
0
370
    35
390
0
 62
     7
 48
0.000673
100
AcDbLine
 10
8.319917
 20
3.52394
 30
0.0
 11
8.329708
 21
3.549018
 31
0.0
210
0.0
220
0.0
230
1.0
  0
LINE
  5
3C0
100
AcDbEntity
  8
0
370
    35
390
0
 62
     7
 48
0.000007
100
AcDbLine
 10
8.327171
 20
3.519332
 30
0.0
 11
8.327405
 21
3.519197
 31
0.0
210
0.0
220
0.0
230
1.0
  0
LINE
  5
3C1
100
AcDbEntity
  8
0
370
    35
390
0
 62
     7
 48
0.000011
100
AcDbLine
 10
8.345868
 20
3.548672
 30
0.0
 11
8.345869
 21
3.548222
 31
0.0
210
0.0
220
0.0
230
1.0
  0
LINE
  5
3C2
100
AcDbEntity
  8
0
370
    35
390
0
 62
     7
 48
0.000016
100
AcDbLine
 10
8.345182
 20
3.549056
 30
0.0
 11
8.345184
 21
3.548407
 31
0.0
210
0.0
220
0.0
230
1.0
  0
LINE
  5
3C3
100
AcDbEntity
  8
0
370
    35
390
0
 62
     7
 48
0.000019
100
AcDbLine
 10
8.344369
 20
3.549383
 30
0.0
 11
8.344372
 21
3.54861
 31
0.0
210
0.0
220
0.0
230
1.0
  0
LINE
  5
3C4
100
AcDbEntity
  8
0
370
    35
390
0
 62
     7
 48
0.000021
100
AcDbLine
 10
8.343428
 20
3.549653
 30
0.0
 11
8.343431
 21
3.548821
 31
0.0
210
0.0
220
0.0
230
1.0
  0
LINE
  5
3C5
100
AcDbEntity
  8
0
370
    35
390
0
 62
     7
 48
0.000021
100
AcDbLine
 10
8.342336
 20
3.54987
 30
0.0
 11
8.342339
 21
3.549035
 31
0.0
210
0.0
220
0.0
230
1.0
  0
LINE
  5
3C6
100
AcDbEntity
  8
0
370
    35
390
0
 62
     7
 48
0.00002
100
AcDbLine
 10
8.34094
 20
3.550067
 30
0.0
 11
8.340943
 21
3.549264
 31
0.0
210
0.0
220
0.0
230
1.0
  0
LINE
  5
3C7
100
AcDbEntity
  8
0
370
    35
390
0
 62
     7
 48
0.000019
100
AcDbLine
 10
8.339217
 20
3.550247
 30
0.0
 11
8.33922
 21
3.549494
 31
0.0
210
0.0
220
0.0
230
1.0
  0
LINE
  5
3C8
100
AcDbEntity
  8
0
370
    35
390
0
 62
     7
 48
0.000018
100
AcDbLine
 10
8.338232
 20
3.550331
 30
0.0
 11
8.338235
 21
3.549601
 31
0.0
210
0.0
220
0.0
230
1.0
  0
LINE
  5
3C9
100
AcDbEntity
  8
0
370
    35
390
0
 62
     7
 48
0.000018
100
AcDbLine
 10
8.337166
 20
3.550411
 30
0.0
 11
8.337169
 21
3.549701
 31
0.0
210
0.0
220
0.0
230
1.0
  0
LINE
  5
3CA
100
AcDbEntity
  8
0
370
    35
390
0
 62
     7
 48
0.000017
100
AcDbLine
 10
8.336018
 20
3.550487
 30
0.0
 11
8.336021
 21
3.54979
 31
0.0
210
0.0
220
0.0
230
1.0
  0
LINE
  5
3CB
100
AcDbEntity
  8
0
370
    35
390
0
 62
     7
 48
0.000017
100
AcDbLine
 10
8.334788
 20
3.550559
 30
0.0
 11
8.334791
 21
3.549861
 31
0.0
210
0.0
220
0.0
230
1.0
  0
LINE
  5
3CC
100
AcDbEntity
  8
0
370
    35
390
0
 62
     7
 48
0.000018
100
AcDbLine
 10
8.333476
 20
3.550627
 30
0.0
 11
8.333479
 21
3.549916
 31
0.0
210
0.0
220
0.0
230
1.0
  0
LINE
  5
3CD
100
AcDbEntity
  8
0
370
    35
390
0
 62
     7
 48
0.000044
100
AcDbLine
 10
8.329701
 20
3.550784
 30
0.0
 11
8.329708
 21
3.549018
 31
0.0
210
0.0
220
0.0
230
1.0
  0
LINE
  5
3CE
100
AcDbEntity
  8
0
370
    35
390
0
 62
     7
 48
0.000018
100
AcDbLine
 10
8.327169
 20
3.519909
 30
0.0
 11
8.327171
 21
3.519208
 31
0.0
210
0.0
220
0.0
230
1.0
  0
LINE
  5
3CF
100
AcDbEntity
  8
0
370
    35
390
0
 62
     7
 48
0.000033
100
AcDbLine
 10
8.321517
 20
3.52436
 30
0.0
 11
8.321522
 21
3.523048
 31
0.0
210
0.0
220
0.0
230
1.0
  0
LINE
  5
3D0
100
AcDbEntity
  8
0
370
    35
390
0
 62
     7
 48
0.000018
100
AcDbLine
 10
8.404227
 20
3.532923
 30
0.0
 11
8.40423
 21
3.532223
 31
0.0
210
0.0
220
0.0
230
1.0
  0
LINE
  5
3D1
100
AcDbEntity
  8
0
370
    35
390
0
 62
     7
 48
0.000027
100
AcDbLine
 10
8.390218
 20
3.531838
 30
0.0
 11
8.391277
 21
3.531787
 31
0.0
210
0.0
220
0.0
230
1.0
  0
LINE
  5
3D2
100
AcDbEntity
  8
0
370
    35
390
0
 62
     7
 48
0.000281
100
AcDbLine
 10
8.386133
 20
3.521374
 30
0.0
 11
8.390218
 21
3.531838
 31
0.0
210
0.0
220
0.0
230
1.0
  0
LINE
  5
3D3
100
AcDbEntity
  8
0
370
    35
390
0
 62
     7
 48
0.000014
100
AcDbLine
 10
8.393904
 20
3.51624
 30
0.0
 11
8.394391
 21
3.515943
 31
0.0
210
0.0
220
0.0
230
1.0
  0
LINE
  5
3D4
100
AcDbEntity
  8
0
370
    35
390
0
 62
     7
 48
0.000044
100
AcDbLine
 10
8.390211
 20
3.533604
 30
0.0
 11
8.390218
 21
3.531838
 31
0.0
210
0.0
220
0.0
230
1.0
  0
LINE
  5
3D5
100
AcDbEntity
  8
0
370
    35
390
0
 62
     7
 48
0.000018
100
AcDbLine
 10
8.393902
 20
3.516668
 30
0.0
 11
8.393905
 21
3.515967
 31
0.0
210
0.0
220
0.0
230
1.0
  0
LINE
  5
3D6
100
AcDbEntity
  8
0
370
    35
390
0
 62
     7
 48
0.000034
100
AcDbLine
 10
8.387432
 20
3.521937
 30
0.0
 11
8.387437
 21
3.520584
 31
0.0
210
0.0
220
0.0
230
1.0
  0
ELLIPSE
  5
3D7
100
AcDbEntity
  8
0
370
    35
390
0
 62
     7
 48
0.03937
100
AcDbEllipse
 10
8.356214
 20
3.533683
 30
0.0
 11
0.1611781050830661
 21
0.0006298884054022
 31
0.0
210
0.0
220
0.0
230
1.0
 40
0.364583
 41
0.0150159492562241
 42
2.9986047887811824
  0
ELLIPSE
  5
3D8
100
AcDbEntity
  8
0
370
    35
390
0
 62
     7
 48
0.03937
100
AcDbEllipse
 10
8.356214
 20
3.533683
 30
0.0
 11
0.1611781050830661
 21
0.0006298884054022
 31
0.0
210
0.0
220
0.0
230
1.0
 40
0.364583
 41
2.9986047887811824
 42
3.1265596290168323
  0
ELLIPSE
  5
3D9
100
AcDbEntity
  8
0
370
    35
390
0
 62
     7
 48
0.03937
100
AcDbEllipse
 10
8.356214
 20
3.533683
 30
0.0
 11
0.126988810065446
 21
0.0004962757133472
 31
0.0
210
0.0
220
0.0
230
1.0
 40
0.364583
 41
3.1415927076605121
 42
6.1401974423709733
  0
ELLIPSE
  5
3DA
100
AcDbEntity
  8
0
370
    35
390
0
 62
     7
 48
0.03937
100
AcDbEllipse
 10
8.356214
 20
3.533683
 30
0.0
 11
0.126988810065446
 21
0.0004962757133472
 31
0.0
210
0.0
220
0.0
230
1.0
 40
0.364583
 41
6.1401974423709751
 42
6.2831853612503048
  0
ELLIPSE
  5
3DB
100
AcDbEntity
  8
0
370
    35
390
0
 62
     7
 48
0.03937
100
AcDbEllipse
 10
8.376543
 20
3.585757
 30
0.0
 11
0.0097683700050343
 21
0.0000381750548728
 31
0.0
210
0.0
220
0.0
230
1.0
 40
0.364583
 41
3.1415927076605121
 42
6.1401974423709635
  0
ELLIPSE
  5
3DC
100
AcDbEntity
  8
0
370
    35
390
0
 62
     7
 48
0.03937
100
AcDbEllipse
 10
8.376543
 20
3.585757
 30
0.0
 11
0.0097683700050343
 21
0.0000381750548728
 31
0.0
210
0.0
220
0.0
230
1.0
 40
0.364583
 41
6.1401974423709751
 42
6.2831853612503057
  0
ELLIPSE
  5
3DD
100
AcDbEntity
  8
0
370
    35
390
0
 62
     7
 48
0.03937
100
AcDbEllipse
 10
8.498856
 20
3.526755
 30
0.0
 11
0.0097683700050343
 21
0.0000381750548729
 31
0.0
210
0.0
220
0.0
230
1.0
 40
0.364583
 41
3.1415927076605117
 42
6.1401974423709751
  0
ELLIPSE
  5
3DE
100
AcDbEntity
  8
0
370
    35
390
0
 62
     7
 48
0.03937
100
AcDbEllipse
 10
8.498856
 20
3.526755
 30
0.0
 11
0.0097683700050343
 21
0.0000381750548729
 31
0.0
210
0.0
220
0.0
230
1.0
 40
0.364583
 41
6.1401974423709751
 42
6.2831853612503057
  0
ELLIPSE
  5
3DF
100
AcDbEntity
  8
0
370
    35
390
0
 62
     7
 48
0.03937
100
AcDbEllipse
 10
8.471452
 20
3.565606
 30
0.0
 11
0.0097683700050343
 21
0.0000381750548728
 31
0.0
210
0.0
220
0.0
230
1.0
 40
0.364583
 41
3.1415927076605117
 42
6.1401974423709751
  0
ELLIPSE
  5
3E0
100
AcDbEntity
  8
0
370
    35
390
0
 62
     7
 48
0.03937
100
AcDbEllipse
 10
8.471452
 20
3.565606
 30
0.0
 11
0.0097683700050343
 21
0.0000381750548728
 31
0.0
210
0.0
220
0.0
230
1.0
 40
0.364583
 41
6.1401974423709751
 42
6.2831853612503057
  0
ELLIPSE
  5
3E1
100
AcDbEntity
  8
0
370
    35
390
0
 62
     7
 48
0.03937
100
AcDbEllipse
 10
8.335885
 20
3.481608
 30
0.0
 11
0.0097683700050343
 21
0.0000381750548729
 31
0.0
210
0.0
220
0.0
230
1.0
 40
0.364583
 41
3.1415927076605157
 42
6.1401974423709751
  0
ELLIPSE
  5
3E2
100
AcDbEntity
  8
0
370
    35
390
0
 62
     7
 48
0.03937
100
AcDbEllipse
 10
8.335885
 20
3.481608
 30
0.0
 11
0.0097683700050343
 21
0.0000381750548729
 31
0.0
210
0.0
220
0.0
230
1.0
 40
0.364583
 41
6.1401974423709751
 42
6.2831853612503084
  0
ELLIPSE
  5
3E3
100
AcDbEntity
  8
0
370
    35
390
0
 62
     7
 48
0.03937
100
AcDbEllipse
 10
8.442703
 20
3.491961
 30
0.0
 11
0.0097683700050343
 21
0.0000381750548729
 31
0.0
210
0.0
220
0.0
230
1.0
 40
0.364583
 41
3.1415927076605117
 42
6.1401974423709751
  0
ELLIPSE
  5
3E4
100
AcDbEntity
  8
0
370
    35
390
0
 62
     7
 48
0.03937
100
AcDbEllipse
 10
8.442703
 20
3.491961
 30
0.0
 11
0.0097683700050343
 21
0.0000381750548729
 31
0.0
210
0.0
220
0.0
230
1.0
 40
0.364583
 41
6.1401974423709751
 42
6.2831853612503057
  0
ELLIPSE
  5
3E5
100
AcDbEntity
  8
0
370
    35
390
0
 62
     7
 48
0.03937
100
AcDbEllipse
 10
8.213572
 20
3.540611
 30
0.0
 11
0.0097683700050343
 21
0.0000381750548728
 31
0.0
210
0.0
220
0.0
230
1.0
 40
0.364583
 41
3.1415927076605157
 42
6.2831853612503084
  0
ELLIPSE
  5
3E6
100
AcDbEntity
  8
0
370
    35
390
0
 62
     7
 48
0.03937
100
AcDbEllipse
 10
8.269725
 20
3.575404
 30
0.0
 11
0.0097683700050343
 21
0.0000381750548728
 31
0.0
210
0.0
220
0.0
230
1.0
 40
0.364583
 41
3.1415927076605117
 42
6.2831853612503039
  0
ELLIPSE
  5
3E7
100
AcDbEntity
  8
0
370
    35
390
0
 62
     7
 48
0.03937
100
AcDbEllipse
 10
8.240976
 20
3.50176
 30
0.0
 11
0.0097683700050343
 21
0.0000381750548728
 31
0.0
210
0.0
220
0.0
230
1.0
 40
0.364583
 41
3.1415927076605157
 42
6.2831853612503084
  0
LINE
  5
3E8
100
AcDbEntity
  8
0
370
    35
390
0
 62
     7
 48
0.004922
100
AcDbLine
 10
9.319208
 20
3.761603
 30
0.0
 11
9.319977
 21
3.564727
 31
0.0
210
0.0
220
0.0
230
1.0
  0
LINE
  5
3E9
100
AcDbEntity
  8
0
370
    35
390
0
 62
     7
 48
0.004922
100
AcDbLine
 10
7.567107
 20
3.754758
 30
0.0
 11
7.567876
 21
3.557883
 31
0.0
210
0.0
220
0.0
230
1.0
  0
LINE
  5
3EA
100
AcDbEntity
  8
0
370
    35
390
0
 62
     7
 48
0.000169
100
AcDbLine
 10
8.187737
 20
3.681035
 30
0.0
 11
8.181456
 21
3.683489
 31
0.0
210
0.0
220
0.0
230
1.0
  0
LINE
  5
3EB
100
AcDbEntity
  8
0
370
    35
390
0
 62
     7
 48
0.000169
100
AcDbLine
 10
8.699164
 20
3.683031
 30
0.0
 11
8.705425
 21
3.685533
 31
0.0
210
0.0
220
0.0
230
1.0
  0
LINE
  5
3EC
100
AcDbEntity
  8
0
370
    35
390
0
 62
     7
 48
0.006137
100
AcDbLine
 10
8.085653
 20
4.016746
 30
0.0
 11
8.086613
 21
3.77126
 31
0.0
210
0.0
220
0.0
230
1.0
  0
LINE
  5
3ED
100
AcDbEntity
  8
0
370
    35
390
0
 62
     7
 48
0.006137
100
AcDbLine
 10
8.798629
 20
4.019533
 30
0.0
 11
8.799589
 21
3.774045
 31
0.0
210
0.0
220
0.0
230
1.0
  0
LINE
  5
3EE
100
AcDbEntity
  8
0
370
    35
390
0
 62
     7
 48
0.010264
100
AcDbLine
 10
8.180307
 20
3.979776
 30
0.0
 11
7.797896
 21
4.129142
 31
0.0
210
0.0
220
0.0
230
1.0
  0
LINE
  5
3EF
100
AcDbEntity
  8
0
370
    35
390
0
 62
     7
 48
0.010264
100
AcDbLine
 10
8.704267
 20
3.981824
 30
0.0
 11
9.0855
 21
4.134174
 31
0.0
210
0.0
220
0.0
230
1.0
  0
LINE
  5
3F0
100
AcDbEntity
  8
0
370
    35
390
0
 62
     7
 48
0.03937
100
AcDbLine
 10
7.555542
 20
6.714068
 30
0.0
 11
7.564801
 21
4.344844
 31
0.0
210
0.0
220
0.0
230
1.0
  0
LINE
  5
3F1
100
AcDbEntity
  8
0
370
    35
390
0
 62
     7
 48
0.03937
100
AcDbLine
 10
9.307643
 20
6.720913
 30
0.0
 11
9.316902
 21
4.351688
 31
0.0
210
0.0
220
0.0
230
1.0
  0
LINE
  5
3F2
100
AcDbEntity
  8
0
370
    35
390
0
 62
     7
 48
0.000044
100
AcDbLine
 10
8.229225
 20
3.533187
 30
0.0
 11
8.229218
 21
3.534952
 31
0.0
210
0.0
220
0.0
230
1.0
  0
LINE
  5
3F3
100
AcDbEntity
  8
0
370
    35
390
0
 62
     7
 48
0.000044
100
AcDbLine
 10
8.483203
 20
3.534179
 30
0.0
 11
8.483196
 21
3.535945
 31
0.0
210
0.0
220
0.0
230
1.0
  0
LINE
  5
3F4
100
AcDbEntity
  8
0
370
    35
390
0
 62
     7
 48
0.000044
100
AcDbLine
 10
8.366775
 20
3.585719
 30
0.0
 11
8.366768
 21
3.587485
 31
0.0
210
0.0
220
0.0
230
1.0
  0
LINE
  5
3F5
100
AcDbEntity
  8
0
370
    35
390
0
 62
     7
 48
0.000044
100
AcDbLine
 10
8.386311
 20
3.585796
 30
0.0
 11
8.386304
 21
3.587561
 31
0.0
210
0.0
220
0.0
230
1.0
  0
LINE
  5
3F6
100
AcDbEntity
  8
0
370
    35
390
0
 62
     7
 48
0.000044
100
AcDbLine
 10
8.489088
 20
3.526716
 30
0.0
 11
8.489081
 21
3.528482
 31
0.0
210
0.0
220
0.0
230
1.0
  0
LINE
  5
3F7
100
AcDbEntity
  8
0
370
    35
390
0
 62
     7
 48
0.000044
100
AcDbLine
 10
8.508625
 20
3.526793
 30
0.0
 11
8.508618
 21
3.528558
 31
0.0
210
0.0
220
0.0
230
1.0
  0
LINE
  5
3F8
100
AcDbEntity
  8
0
370
    35
390
0
 62
     7
 48
0.000044
100
AcDbLine
 10
8.461684
 20
3.565568
 30
0.0
 11
8.461677
 21
3.567334
 31
0.0
210
0.0
220
0.0
230
1.0
  0
LINE
  5
3F9
100
AcDbEntity
  8
0
370
    35
390
0
 62
     7
 48
0.000044
100
AcDbLine
 10
8.481221
 20
3.565644
 30
0.0
 11
8.481214
 21
3.56741
 31
0.0
210
0.0
220
0.0
230
1.0
  0
LINE
  5
3FA
100
AcDbEntity
  8
0
370
    35
390
0
 62
     7
 48
0.000044
100
AcDbLine
 10
8.326117
 20
3.48157
 30
0.0
 11
8.32611
 21
3.483336
 31
0.0
210
0.0
220
0.0
230
1.0
  0
LINE
  5
3FB
100
AcDbEntity
  8
0
370
    35
390
0
 62
     7
 48
0.000044
100
AcDbLine
 10
8.345654
 20
3.481646
 30
0.0
 11
8.345647
 21
3.483412
 31
0.0
210
0.0
220
0.0
230
1.0
  0
LINE
  5
3FC
100
AcDbEntity
  8
0
370
    35
390
0
 62
     7
 48
0.000044
100
AcDbLine
 10
8.432934
 20
3.491923
 30
0.0
 11
8.432928
 21
3.493689
 31
0.0
210
0.0
220
0.0
230
1.0
  0
LINE
  5
3FD
100
AcDbEntity
  8
0
370
    35
390
0
 62
     7
 48
0.000044
100
AcDbLine
 10
8.452471
 20
3.492
 30
0.0
 11
8.452464
 21
3.493765
 31
0.0
210
0.0
220
0.0
230
1.0
  0
LINE
  5
3FE
100
AcDbEntity
  8
0
370
    35
390
0
 62
     7
 48
0.000044
100
AcDbLine
 10
8.22334
 20
3.540649
 30
0.0
 11
8.223333
 21
3.542415
 31
0.0
210
0.0
220
0.0
230
1.0
  0
LINE
  5
3FF
100
AcDbEntity
  8
0
370
    35
390
0
 62
     7
 48
0.000044
100
AcDbLine
 10
8.203803
 20
3.540573
 30
0.0
 11
8.203797
 21
3.542339
 31
0.0
210
0.0
220
0.0
230
1.0
  0
LINE
  5
400
100
AcDbEntity
  8
0
370
    35
390
0
 62
     7
 48
0.000044
100
AcDbLine
 10
8.279494
 20
3.575442
 30
0.0
 11
8.279487
 21
3.577208
 31
0.0
210
0.0
220
0.0
230
1.0
  0
LINE
  5
401
100
AcDbEntity
  8
0
370
    35
390
0
 62
     7
 48
0.000044
100
AcDbLine
 10
8.259957
 20
3.575366
 30
0.0
 11
8.25995
 21
3.577132
 31
0.0
210
0.0
220
0.0
230
1.0
  0
LINE
  5
402
100
AcDbEntity
  8
0
370
    35
390
0
 62
     7
 48
0.000044
100
AcDbLine
 10
8.250745
 20
3.501798
 30
0.0
 11
8.250738
 21
3.503563
 31
0.0
210
0.0
220
0.0
230
1.0
  0
LINE
  5
403
100
AcDbEntity
  8
0
370
    35
390
0
 62
     7
 48
0.000044
100
AcDbLine
 10
8.231208
 20
3.501721
 30
0.0
 11
8.231201
 21
3.503487
 31
0.0
210
0.0
220
0.0
230
1.0
  0
LINE
  5
404
100
AcDbEntity
  8
0
370
    13
390
0
  6
DASHDOT
 62
     7
 48
0.03937
100
AcDbLine
 10
3.133298
 20
1.006824
 30
0.0
 11
3.133298
 21
4.90239
 31
0.0
210
0.0
220
0.0
230
1.0
  0
LINE
  5
405
100
AcDbEntity
  8
0
370
    13
390
0
  6
DASHDOT
 62
     7
 48
0.007656
100
AcDbLine
 10
2.813214
 20
4.696766
 30
0.0
 11
2.813214
 21
4.390526
 31
0.0
210
0.0
220
0.0
230
1.0
  0
LINE
  5
406
100
AcDbEntity
  8
0
370
    13
390
0
  6
DASHDOT
 62
     7
 48
0.007656
100
AcDbLine
 10
3.453381
 20
4.696766
 30
0.0
 11
3.453381
 21
4.390526
 31
0.0
210
0.0
220
0.0
230
1.0
  0
LINE
  5
407
100
AcDbEntity
  8
0
370
    35
390
0
 62
     7
 48
0.002939
100
AcDbLine
 10
3.891789
 20
4.390526
 30
0.0
 11
4.009355
 21
4.390526
 31
0.0
210
0.0
220
0.0
230
1.0
  0
LINE
  5
408
100
AcDbEntity
  8
0
370
    35
390
0
 62
     7
 48
0.005286
100
AcDbLine
 10
3.891789
 20
4.601955
 30
0.0
 11
3.891789
 21
4.390526
 31
0.0
210
0.0
220
0.0
230
1.0
  0
LINE
  5
409
100
AcDbEntity
  8
0
370
    35
390
0
 62
     7
 48
0.002939
100
AcDbLine
 10
3.891789
 20
4.601955
 30
0.0
 11
4.009355
 21
4.601955
 31
0.0
210
0.0
220
0.0
230
1.0
  0
LINE
  5
40A
100
AcDbEntity
  8
0
370
    35
390
0
 62
     7
 48
0.005286
100
AcDbLine
 10
4.009355
 20
4.390526
 30
0.0
 11
4.009355
 21
4.601955
 31
0.0
210
0.0
220
0.0
230
1.0
  0
LINE
  5
40B
100
AcDbEntity
  8
0
370
    35
390
0
 62
     7
 48
0.003081
100
AcDbLine
 10
3.4841
 20
4.390526
 30
0.0
 11
3.607354
 21
4.390526
 31
0.0
210
0.0
220
0.0
230
1.0
  0
LINE
  5
40C
100
AcDbEntity
  8
0
370
    35
390
0
 62
     7
 48
0.003081
100
AcDbLine
 10
2.659241
 20
4.390526
 30
0.0
 11
2.782495
 21
4.390526
 31
0.0
210
0.0
220
0.0
230
1.0
  0
LINE
  5
40D
100
AcDbEntity
  8
0
370
    35
390
0
 62
     7
 48
0.006676
100
AcDbLine
 10
2.659241
 20
4.390526
 30
0.0
 11
2.392216
 21
4.390526
 31
0.0
210
0.0
220
0.0
230
1.0
  0
LINE
  5
40E
100
AcDbEntity
  8
0
370
    35
390
0
 62
     7
 48
0.000435
100
AcDbLine
 10
2.392216
 20
4.390526
 30
0.0
 11
2.374807
 21
4.390526
 31
0.0
210
0.0
220
0.0
230
1.0
  0
LINE
  5
40F
100
AcDbEntity
  8
0
370
    35
390
0
 62
     7
 48
0.002939
100
AcDbLine
 10
2.25724
 20
4.390526
 30
0.0
 11
2.374807
 21
4.390526
 31
0.0
210
0.0
220
0.0
230
1.0
  0
LINE
  5
410
100
AcDbEntity
  8
0
370
    35
390
0
 62
     7
 48
0.006676
100
AcDbLine
 10
3.891789
 20
4.390526
 30
0.0
 11
3.624764
 21
4.390526
 31
0.0
210
0.0
220
0.0
230
1.0
  0
LINE
  5
411
100
AcDbEntity
  8
0
370
    35
390
0
 62
     7
 48
0.000435
100
AcDbLine
 10
3.624764
 20
4.390526
 30
0.0
 11
3.607354
 21
4.390526
 31
0.0
210
0.0
220
0.0
230
1.0
  0
LINE
  5
412
100
AcDbEntity
  8
0
370
    35
390
0
 62
     7
 48
0.000435
100
AcDbLine
 10
3.624764
 20
4.601955
 30
0.0
 11
3.607354
 21
4.601955
 31
0.0
210
0.0
220
0.0
230
1.0
  0
LINE
  5
413
100
AcDbEntity
  8
0
370
    35
390
0
 62
     7
 48
0.006676
100
AcDbLine
 10
3.891789
 20
4.601955
 30
0.0
 11
3.624764
 21
4.601955
 31
0.0
210
0.0
220
0.0
230
1.0
  0
LINE
  5
414
100
AcDbEntity
  8
0
370
    35
390
0
 62
     7
 48
0.002939
100
AcDbLine
 10
2.25724
 20
4.601955
 30
0.0
 11
2.374807
 21
4.601955
 31
0.0
210
0.0
220
0.0
230
1.0
  0
LINE
  5
415
100
AcDbEntity
  8
0
370
    35
390
0
 62
     7
 48
0.000435
100
AcDbLine
 10
2.392216
 20
4.601955
 30
0.0
 11
2.374807
 21
4.601955
 31
0.0
210
0.0
220
0.0
230
1.0
  0
LINE
  5
416
100
AcDbEntity
  8
0
370
    35
390
0
 62
     7
 48
0.006676
100
AcDbLine
 10
2.659241
 20
4.601955
 30
0.0
 11
2.392216
 21
4.601955
 31
0.0
210
0.0
220
0.0
230
1.0
  0
LINE
  5
417
100
AcDbEntity
  8
0
370
    35
390
0
 62
     7
 48
0.005286
100
AcDbLine
 10
3.607354
 20
4.601955
 30
0.0
 11
3.607354
 21
4.390526
 31
0.0
210
0.0
220
0.0
230
1.0
  0
LINE
  5
418
100
AcDbEntity
  8
0
370
    35
390
0
 62
     7
 48
0.005286
100
AcDbLine
 10
2.25724
 20
4.390526
 30
0.0
 11
2.25724
 21
4.601955
 31
0.0
210
0.0
220
0.0
230
1.0
  0
LINE
  5
419
100
AcDbEntity
  8
0
370
    35
390
0
 62
     7
 48
0.005286
100
AcDbLine
 10
2.374807
 20
4.601955
 30
0.0
 11
2.374807
 21
4.390526
 31
0.0
210
0.0
220
0.0
230
1.0
  0
LINE
  5
41A
100
AcDbEntity
  8
0
370
    35
390
0
 62
     7
 48
0.005286
100
AcDbLine
 10
2.659241
 20
4.601955
 30
0.0
 11
2.659241
 21
4.390526
 31
0.0
210
0.0
220
0.0
230
1.0
  0
POLYLINE
  5
41B
100
AcDbEntity
  8
0
370
    35
390
0
 62
     7
 48
0.03937
100
AcDb2dPolyline
 66
     1
 10
0.0
 20
0.0
 30
0.0
 71
     2
  0
VERTEX
  5
41C
100
AcDbEntity
  8
0
370
     0
390
0
100
AcDbVertex
100
AcDb2dVertex
 10
2.78534
 20
4.37991
 30
0.0
 42
0.767327
  0
VERTEX
  5
41D
100
AcDbEntity
  8
0
370
     0
390
0
100
AcDbVertex
100
AcDb2dVertex
 10
2.782495
 20
4.390526
 30
0.0
  0
SEQEND
  5
41E
100
AcDbEntity
  8
0
370
     0
390
0
  0
POLYLINE
  5
41F
100
AcDbEntity
  8
0
370
    35
390
0
 62
     7
 48
0.03937
100
AcDb2dPolyline
 66
     1
 10
0.0
 20
0.0
 30
0.0
 71
     2
  0
VERTEX
  5
420
100
AcDbEntity
  8
0
370
     0
390
0
100
AcDbVertex
100
AcDb2dVertex
 10
3.4841
 20
4.390526
 30
0.0
 42
0.767327
  0
VERTEX
  5
421
100
AcDbEntity
  8
0
370
     0
390
0
100
AcDbVertex
100
AcDb2dVertex
 10
3.481255
 20
4.37991
 30
0.0
  0
SEQEND
  5
422
100
AcDbEntity
  8
0
370
     0
390
0
  0
LINE
  5
423
100
AcDbEntity
  8
0
370
    35
390
0
 62
     7
 48
0.00237
100
AcDbLine
 10
3.607354
 20
4.601955
 30
0.0
 11
3.607354
 21
4.696766
 31
0.0
210
0.0
220
0.0
230
1.0
  0
LINE
  5
424
100
AcDbEntity
  8
0
370
    35
390
0
 62
     7
 48
0.00237
100
AcDbLine
 10
2.659241
 20
4.601955
 30
0.0
 11
2.659241
 21
4.696766
 31
0.0
210
0.0
220
0.0
230
1.0
  0
LINE
  5
425
100
AcDbEntity
  8
0
370
    35
390
0
 62
     7
 48
0.000246
100
AcDbLine
 10
2.78534
 20
4.37991
 30
0.0
 11
2.776807
 21
4.374984
 31
0.0
210
0.0
220
0.0
230
1.0
  0
LINE
  5
426
100
AcDbEntity
  8
0
370
    35
390
0
 62
     7
 48
0.000246
100
AcDbLine
 10
3.481255
 20
4.37991
 30
0.0
 11
3.489788
 21
4.374984
 31
0.0
210
0.0
220
0.0
230
1.0
  0
LINE
  5
427
100
AcDbEntity
  8
0
370
    35
390
0
 62
     7
 48
0.002219
100
AcDbLine
 10
2.659241
 20
4.696766
 30
0.0
 11
2.747984
 21
4.696766
 31
0.0
210
0.0
220
0.0
230
1.0
  0
LINE
  5
428
100
AcDbEntity
  8
0
370
    35
390
0
 62
     7
 48
0.003262
100
AcDbLine
 10
2.878445
 20
4.696766
 30
0.0
 11
2.747984
 21
4.696766
 31
0.0
210
0.0
220
0.0
230
1.0
  0
LINE
  5
429
100
AcDbEntity
  8
0
370
    35
390
0
 62
     7
 48
0.003262
100
AcDbLine
 10
3.518611
 20
4.696766
 30
0.0
 11
3.38815
 21
4.696766
 31
0.0
210
0.0
220
0.0
230
1.0
  0
LINE
  5
42A
100
AcDbEntity
  8
0
370
    35
390
0
 62
     7
 48
0.002219
100
AcDbLine
 10
3.518611
 20
4.696766
 30
0.0
 11
3.607354
 21
4.696766
 31
0.0
210
0.0
220
0.0
230
1.0
  0
LINE
  5
42B
100
AcDbEntity
  8
0
370
    35
390
0
 62
     7
 48
0.007955
100
AcDbLine
 10
2.776807
 20
4.05679
 30
0.0
 11
2.776807
 21
4.374984
 31
0.0
210
0.0
220
0.0
230
1.0
  0
LINE
  5
42C
100
AcDbEntity
  8
0
370
    35
390
0
 62
     7
 48
0.007955
100
AcDbLine
 10
3.489788
 20
4.05679
 30
0.0
 11
3.489788
 21
4.374984
 31
0.0
210
0.0
220
0.0
230
1.0
  0
LINE
  5
42D
100
AcDbEntity
  8
0
370
    35
390
0
 62
     7
 48
0.00238
100
AcDbLine
 10
2.785189
 20
4.609118
 30
0.0
 11
2.747984
 21
4.696766
 31
0.0
210
0.0
220
0.0
230
1.0
  0
LINE
  5
42E
100
AcDbEntity
  8
0
370
    35
390
0
 62
     7
 48
0.00238
100
AcDbLine
 10
3.481406
 20
4.609118
 30
0.0
 11
3.518611
 21
4.696766
 31
0.0
210
0.0
220
0.0
230
1.0
  0
LINE
  5
42F
100
AcDbEntity
  8
0
370
    35
390
0
 62
     7
 48
0.014999
100
AcDbLine
 10
2.776807
 20
4.05679
 30
0.0
 11
2.25724
 21
3.756818
 31
0.0
210
0.0
220
0.0
230
1.0
  0
LINE
  5
430
100
AcDbEntity
  8
0
370
    35
390
0
 62
     7
 48
0.014999
100
AcDbLine
 10
3.489788
 20
4.05679
 30
0.0
 11
4.009355
 21
3.756818
 31
0.0
210
0.0
220
0.0
230
1.0
  0
POLYLINE
  5
431
100
AcDbEntity
  8
0
370
    35
390
0
 62
     7
 48
0.03937
100
AcDb2dPolyline
 66
     1
 10
0.0
 20
0.0
 30
0.0
 71
     2
  0
VERTEX
  5
432
100
AcDbEntity
  8
0
370
     0
390
0
100
AcDbVertex
100
AcDb2dVertex
 10
2.785189
 20
4.609118
 30
0.0
 42
0.300965
  0
VERTEX
  5
433
100
AcDbEntity
  8
0
370
     0
390
0
100
AcDbVertex
100
AcDb2dVertex
 10
2.796011
 20
4.601955
 30
0.0
  0
SEQEND
  5
434
100
AcDbEntity
  8
0
370
     0
390
0
  0
POLYLINE
  5
435
100
AcDbEntity
  8
0
370
    35
390
0
 62
     7
 48
0.03937
100
AcDb2dPolyline
 66
     1
 10
0.0
 20
0.0
 30
0.0
 71
     2
  0
VERTEX
  5
436
100
AcDbEntity
  8
0
370
     0
390
0
100
AcDbVertex
100
AcDb2dVertex
 10
3.470584
 20
4.601955
 30
0.0
 42
0.300965
  0
VERTEX
  5
437
100
AcDbEntity
  8
0
370
     0
390
0
100
AcDbVertex
100
AcDb2dVertex
 10
3.481406
 20
4.609118
 30
0.0
  0
SEQEND
  5
438
100
AcDbEntity
  8
0
370
     0
390
0
  0
LINE
  5
439
100
AcDbEntity
  8
0
370
    35
390
0
 62
     7
 48
0.03937
100
AcDbLine
 10
2.25724
 20
1.212448
 30
0.0
 11
2.25724
 21
3.756818
 31
0.0
210
0.0
220
0.0
230
1.0
  0
LINE
  5
43A
100
AcDbEntity
  8
0
370
    35
390
0
 62
     7
 48
0.03937
100
AcDbLine
 10
4.009355
 20
1.212448
 30
0.0
 11
4.009355
 21
3.756818
 31
0.0
210
0.0
220
0.0
230
1.0
  0
LINE
  5
43B
100
AcDbEntity
  8
0
370
    35
390
0
 62
     7
 48
0.00086
100
AcDbLine
 10
2.796011
 20
4.601955
 30
0.0
 11
2.830418
 21
4.601955
 31
0.0
210
0.0
220
0.0
230
1.0
  0
LINE
  5
43C
100
AcDbEntity
  8
0
370
    35
390
0
 62
     7
 48
0.00086
100
AcDbLine
 10
3.436177
 20
4.601955
 30
0.0
 11
3.470584
 21
4.601955
 31
0.0
210
0.0
220
0.0
230
1.0
  0
LINE
  5
43D
100
AcDbEntity
  8
0
370
    35
390
0
 62
     7
 48
0.018346
100
AcDbLine
 10
3.275515
 20
1.212448
 30
0.0
 11
4.009355
 21
1.212448
 31
0.0
210
0.0
220
0.0
230
1.0
  0
LINE
  5
43E
100
AcDbEntity
  8
0
370
    35
390
0
 62
     7
 48
0.00526
100
AcDbLine
 10
3.275515
 20
1.212448
 30
0.0
 11
3.065115
 21
1.212448
 31
0.0
210
0.0
220
0.0
230
1.0
  0
LINE
  5
43F
100
AcDbEntity
  8
0
370
    35
390
0
 62
     7
 48
0.001851
100
AcDbLine
 10
3.065115
 20
1.212448
 30
0.0
 11
2.99108
 21
1.212448
 31
0.0
210
0.0
220
0.0
230
1.0
  0
LINE
  5
440
100
AcDbEntity
  8
0
370
    35
390
0
 62
     7
 48
0.018346
100
AcDbLine
 10
2.25724
 20
1.212448
 30
0.0
 11
2.99108
 21
1.212448
 31
0.0
210
0.0
220
0.0
230
1.0
  0
POLYLINE
  5
441
100
AcDbEntity
  8
0
370
    35
390
0
 62
     7
 48
0.03937
100
AcDb2dPolyline
 66
     1
 10
0.0
 20
0.0
 30
0.0
 71
     2
  0
VERTEX
  5
442
100
AcDbEntity
  8
0
370
     0
390
0
100
AcDbVertex
100
AcDb2dVertex
 10
2.830418
 20
4.601955
 30
0.0
 42
0.300965
  0
VERTEX
  5
443
100
AcDbEntity
  8
0
370
     0
390
0
100
AcDbVertex
100
AcDb2dVertex
 10
2.84124
 20
4.609118
 30
0.0
  0
SEQEND
  5
444
100
AcDbEntity
  8
0
370
     0
390
0
  0
POLYLINE
  5
445
100
AcDbEntity
  8
0
370
    35
390
0
 62
     7
 48
0.03937
100
AcDb2dPolyline
 66
     1
 10
0.0
 20
0.0
 30
0.0
 71
     2
  0
VERTEX
  5
446
100
AcDbEntity
  8
0
370
     0
390
0
100
AcDbVertex
100
AcDb2dVertex
 10
3.425355
 20
4.609118
 30
0.0
 42
0.300965
  0
VERTEX
  5
447
100
AcDbEntity
  8
0
370
     0
390
0
100
AcDbVertex
100
AcDb2dVertex
 10
3.436177
 20
4.601955
 30
0.0
  0
SEQEND
  5
448
100
AcDbEntity
  8
0
370
     0
390
0
  0
LINE
  5
449
100
AcDbEntity
  8
0
370
    35
390
0
 62
     7
 48
0.03937
100
AcDbLine
 10
2.99108
 20
1.212448
 30
0.0
 11
2.99108
 21
4.696766
 31
0.0
210
0.0
220
0.0
230
1.0
  0
LINE
  5
44A
100
AcDbEntity
  8
0
370
    35
390
0
 62
     7
 48
0.001851
100
AcDbLine
 10
3.065115
 20
4.696766
 30
0.0
 11
2.99108
 21
4.696766
 31
0.0
210
0.0
220
0.0
230
1.0
  0
LINE
  5
44B
100
AcDbEntity
  8
0
370
    35
390
0
 62
     7
 48
0.03937
100
AcDbLine
 10
3.275515
 20
1.212448
 30
0.0
 11
3.275515
 21
4.696766
 31
0.0
210
0.0
220
0.0
230
1.0
  0
LINE
  5
44C
100
AcDbEntity
  8
0
370
    35
390
0
 62
     7
 48
0.00526
100
AcDbLine
 10
3.275515
 20
4.696766
 30
0.0
 11
3.065115
 21
4.696766
 31
0.0
210
0.0
220
0.0
230
1.0
  0
LINE
  5
44D
100
AcDbEntity
  8
0
370
    35
390
0
 62
     7
 48
0.00238
100
AcDbLine
 10
2.878445
 20
4.696766
 30
0.0
 11
2.84124
 21
4.609118
 31
0.0
210
0.0
220
0.0
230
1.0
  0
LINE
  5
44E
100
AcDbEntity
  8
0
370
    35
390
0
 62
     7
 48
0.00238
100
AcDbLine
 10
3.388151
 20
4.696766
 30
0.0
 11
3.425355
 21
4.609118
 31
0.0
210
0.0
220
0.0
230
1.0
  0
LINE
  5
44F
100
AcDbEntity
  8
0
370
    35
390
0
 62
     7
 48
0.002816
100
AcDbLine
 10
2.878445
 20
4.696766
 30
0.0
 11
2.99108
 21
4.696766
 31
0.0
210
0.0
220
0.0
230
1.0
  0
LINE
  5
450
100
AcDbEntity
  8
0
370
    35
390
0
 62
     7
 48
0.002816
100
AcDbLine
 10
3.275515
 20
4.696766
 30
0.0
 11
3.388151
 21
4.696766
 31
0.0
210
0.0
220
0.0
230
1.0
  0
INSERT
  5
76B
100
AcDbEntity
  8
0
370
     0
390
0
100
AcDbBlockReference
  2
BLOCK1
 10
0.0
 20
0.0
 30
0.0
210
0.0
220
0.0
230
1.0
  0
INSERT
  5
76C
100
AcDbEntity
  8
0
370
     0
390
0
100
AcDbBlockReference
  2
BLOCK2
 10
0.0
 20
0.0
 30
0.0
210
0.0
220
0.0
230
1.0
  0
INSERT
  5
76D
100
AcDbEntity
  8
0
370
     0
390
0
100
AcDbBlockReference
  2
BLOCK3
 10
0.0
 20
0.0
 30
0.0
210
0.0
220
0.0
230
1.0
  0
INSERT
  5
76E
100
AcDbEntity
  8
0
370
     0
390
0
100
AcDbBlockReference
  2
BLOCK4
 10
0.0
 20
0.0
 30
0.0
210
0.0
220
0.0
230
1.0
  0
INSERT
  5
76F
100
AcDbEntity
  8
0
370
     0
390
0
100
AcDbBlockReference
  2
BLOCK5
 10
0.0
 20
0.0
 30
0.0
210
0.0
220
0.0
230
1.0
  0
INSERT
  5
770
100
AcDbEntity
  8
0
370
     0
390
0
100
AcDbBlockReference
  2
BLOCK6
 10
0.0
 20
0.0
 30
0.0
210
0.0
220
0.0
230
1.0
  0
INSERT
  5
771
100
AcDbEntity
  8
0
370
     0
390
0
100
AcDbBlockReference
  2
BLOCK7
 10
3.133298
 20
6.919784
 30
0.0
 41
0.379246
 42
0.379246
 43
0.379246
210
0.0
220
0.0
230
1.0
  0
INSERT
  5
772
100
AcDbEntity
  8
0
370
     0
390
0
100
AcDbBlockReference
  2
BLOCK8
 10
3.133298
 20
6.919784
 30
0.0
 41
0.379246
 42
0.379246
 43
0.379246
210
0.0
220
0.0
230
1.0
  0
INSERT
  5
773
100
AcDbEntity
  8
0
370
     0
390
0
100
AcDbBlockReference
  2
BLOCK9
 10
3.133298
 20
6.919784
 30
0.0
 41
0.379246
 42
0.379246
 43
0.379246
210
0.0
220
0.0
230
1.0
  0
INSERT
  5
774
100
AcDbEntity
  8
0
370
     0
390
0
100
AcDbBlockReference
  2
BLOCK10
 10
3.133298
 20
6.919784
 30
0.0
 41
0.379246
 42
0.379246
 43
0.379246
210
0.0
220
0.0
230
1.0
  0
INSERT
  5
775
100
AcDbEntity
  8
0
370
     0
390
0
100
AcDbBlockReference
  2
BLOCK11
 10
3.133298
 20
6.919784
 30
0.0
 41
0.379246
 42
0.379246
 43
0.379246
210
0.0
220
0.0
230
1.0
  0
INSERT
  5
776
100
AcDbEntity
  8
0
370
     0
390
0
100
AcDbBlockReference
  2
BLOCK12
 10
3.133298
 20
6.919784
 30
0.0
 41
0.379246
 42
0.379246
 43
0.379246
210
0.0
220
0.0
230
1.0
  0
INSERT
  5
777
100
AcDbEntity
  8
0
370
     0
390
0
100
AcDbBlockReference
  2
BLOCK13
 10
3.133298
 20
6.919784
 30
0.0
 41
0.379246
 42
0.379246
 43
0.379246
210
0.0
220
0.0
230
1.0
  0
INSERT
  5
778
100
AcDbEntity
  8
0
370
     0
390
0
100
AcDbBlockReference
  2
BLOCK14
 10
3.133298
 20
6.919784
 30
0.0
 41
0.379246
 42
0.379246
 43
0.379246
210
0.0
220
0.0
230
1.0
  0
INSERT
  5
779
100
AcDbEntity
  8
0
370
     0
390
0
100
AcDbBlockReference
  2
BLOCK15
 10
3.133298
 20
4.601955
 30
0.0
 41
0.379246
 42
0.379246
 43
0.379246
210
0.0
220
0.0
230
1.0
  0
INSERT
  5
77A
100
AcDbEntity
  8
0
370
     0
390
0
100
AcDbBlockReference
  2
BLOCK16
 10
3.133298
 20
4.601955
 30
0.0
 41
0.379246
 42
0.379246
 43
0.379246
210
0.0
220
0.0
230
1.0
  0
INSERT
  5
77B
100
AcDbEntity
  8
0
370
     0
390
0
100
AcDbBlockReference
  2
BLOCK17
 10
3.133298
 20
4.601955
 30
0.0
 41
0.379246
 42
0.379246
 43
0.379246
210
0.0
220
0.0
230
1.0
  0
INSERT
  5
77C
100
AcDbEntity
  8
0
370
     0
390
0
100
AcDbBlockReference
  2
BLOCK18
 10
3.133298
 20
4.601955
 30
0.0
 41
0.379246
 42
0.379246
 43
0.379246
210
0.0
220
0.0
230
1.0
  0
INSERT
  5
77D
100
AcDbEntity
  8
0
370
     0
390
0
100
AcDbBlockReference
  2
BLOCK19
 10
3.133298
 20
4.601955
 30
0.0
 41
0.379246
 42
0.379246
 43
0.379246
210
0.0
220
0.0
230
1.0
  0
INSERT
  5
77E
100
AcDbEntity
  8
0
370
     0
390
0
100
AcDbBlockReference
  2
BLOCK20
 10
3.133298
 20
4.601955
 30
0.0
 41
0.379246
 42
0.379246
 43
0.379246
210
0.0
220
0.0
230
1.0
  0
INSERT
  5
77F
100
AcDbEntity
  8
0
370
     0
390
0
100
AcDbBlockReference
  2
BLOCK21
 10
3.133298
 20
4.601955
 30
0.0
 41
0.379246
 42
0.379246
 43
0.379246
210
0.0
220
0.0
230
1.0
  0
INSERT
  5
780
100
AcDbEntity
  8
0
370
     0
390
0
100
AcDbBlockReference
  2
BLOCK22
 10
3.133298
 20
4.601955
 30
0.0
 41
0.379246
 42
0.379246
 43
0.379246
210
0.0
220
0.0
230
1.0
  0
INSERT
  5
781
100
AcDbEntity
  8
0
370
     0
390
0
100
AcDbBlockReference
  2
BLOCK23
 10
3.133298
 20
4.601955
 30
0.0
 41
0.379246
 42
0.379246
 43
0.379246
210
0.0
220
0.0
230
1.0
  0
INSERT
  5
782
100
AcDbEntity
  8
0
370
     0
390
0
100
AcDbBlockReference
  2
BLOCK24
 10
3.133298
 20
4.601955
 30
0.0
 41
0.379246
 42
0.379246
 43
0.379246
210
0.0
220
0.0
230
1.0
  0
INSERT
  5
783
100
AcDbEntity
  8
0
370
     0
390
0
100
AcDbBlockReference
  2
BLOCK25
 10
3.133298
 20
4.601955
 30
0.0
 41
0.379246
 42
0.379246
 43
0.379246
210
0.0
220
0.0
230
1.0
  0
INSERT
  5
784
100
AcDbEntity
  8
0
370
     0
390
0
100
AcDbBlockReference
  2
BLOCK26
 10
3.133298
 20
4.601955
 30
0.0
 41
0.379246
 42
0.379246
 43
0.379246
210
0.0
220
0.0
230
1.0
  0
INSERT
  5
785
100
AcDbEntity
  8
0
370
     0
390
0
100
AcDbBlockReference
  2
BLOCK27
 10
3.133298
 20
4.601955
 30
0.0
 41
0.379246
 42
0.379246
 43
0.379246
210
0.0
220
0.0
230
1.0
  0
INSERT
  5
786
100
AcDbEntity
  8
0
370
     0
390
0
100
AcDbBlockReference
  2
BLOCK28
 10
3.133298
 20
4.601955
 30
0.0
 41
0.379246
 42
0.379246
 43
0.379246
210
0.0
220
0.0
230
1.0
  0
INSERT
  5
787
100
AcDbEntity
  8
0
370
     0
390
0
100
AcDbBlockReference
  2
BLOCK29
 10
3.133298
 20
4.601955
 30
0.0
 41
0.379246
 42
0.379246
 43
0.379246
210
0.0
220
0.0
230
1.0
  0
INSERT
  5
788
100
AcDbEntity
  8
0
370
     0
390
0
100
AcDbBlockReference
  2
BLOCK30
 10
3.133298
 20
4.601955
 30
0.0
 41
0.379246
 42
0.379246
 43
0.379246
210
0.0
220
0.0
230
1.0
  0
ENDSEC
  0
SECTION
  2
OBJECTS
  0
DICTIONARY
  5
19
100
AcDbDictionary
280
     0
281
     1
  3
ACAD_GROUP
350
1A
  3
ACAD_MLINESTYLE
350
1B
  3
ACAD_LAYOUT
350
1E
  3
ACAD_PLOTSETTINGS
350
22
  3
ACAD_PLOTSTYLENAME
350
1F
  3
ACAD_WIPEOUT_VARS
350
23
  0
DICTIONARY
  5
1A
102
{ACAD_REACTORS
330
19
102
}
100
AcDbDictionary
280
     0
281
     1
  0
DICTIONARY
  5
1B
102
{ACAD_REACTORS
330
19
102
}
100
AcDbDictionary
280
     0
281
     1
  3
Standard
350
1C
  0
MLINESTYLE
  5
1C
102
{ACAD_REACTORS
330
1B
102
}
100
AcDbMlineStyle
  2
Standard
 70
     0
  3

 62
     0
 51
90.0
 52
90.0
 71
     2
 49
0.5
 62
   256
  6
ByLayer
 49
-0.5
 62
   256
  6
ByLayer
  0
ACDBDICTIONARYWDFLT
  5
1F
102
{ACAD_REACTORS
330
19
102
}
100
AcDbDictionary
281
     1
  3
Normal
350
1D
100
AcDbDictionaryWithDefault
340
1D
  0
ACDBPLACEHOLDER
  5
1D
102
{ACAD_REACTORS
330
1F
102
}
  0
LAYOUT
  5
20
102
{ACAD_REACTORS
330
1E
102
}
100
AcDbPlotSettings
  1

  2

  4

  6

 40
0.0
 41
0.0
 42
0.0
 43
0.0
 44
0.0
 45
0.0
 46
0.0
 47
0.0
 48
0.0
 49
0.0
140
0.0
141
0.0
142
1.0
143
1.0
 70
  1024
 72
     0
 73
     0
 74
     0
  7

 75
     0
147
1.0
148
0.0
149
0.0
100
AcDbLayout
  1
Model
 70
     0
 71
     0
 10
0.0
 20
0.0
 11
0.0
 21
0.0
 12
0.0
 22
0.0
 32
0.0
 14
0.0
 24
0.0
 34
0.0
 15
0.0
 25
0.0
 35
0.0
146
0.0
 13
0.0
 23
0.0
 33
0.0
 16
0.0
 26
0.0
 36
0.0
 17
0.0
 27
0.0
 37
0.0
 76
     0
330
A
331
0
345
0
346
0
  0
LAYOUT
  5
21
102
{ACAD_REACTORS
330
1E
102
}
100
AcDbPlotSettings
  1

  2

  4

  6

 40
0.0
 41
0.0
 42
0.0
 43
0.0
 44
0.0
 45
0.0
 46
0.0
 47
0.0
 48
0.0
 49
0.0
140
0.0
141
0.0
142
1.0
143
1.0
 70
     0
 72
     0
 73
     0
 74
     0
  7

 75
     0
147
1.0
148
0.0
149
0.0
100
AcDbLayout
  1
Layout1
 70
     0
 71
     0
 10
0.0
 20
0.0
 11
0.0
 21
0.0
 12
0.0
 22
0.0
 32
0.0
 14
0.0
 24
0.0
 34
0.0
 15
0.0
 25
0.0
 35
0.0
146
0.0
 13
0.0
 23
0.0
 33
0.0
 16
0.0
 26
0.0
 36
0.0
 17
0.0
 27
0.0
 37
0.0
 76
     0
330
B
331
0
345
0
346
0
  0
DICTIONARY
  5
1E
102
{ACAD_REACTORS
330
19
102
}
100
AcDbDictionary
280
     0
281
     1
  3
Layout1
350
21
  3
Model
350
20
  0
DICTIONARY
  5
22
102
{ACAD_REACTORS
330
19
102
}
100
AcDbDictionary
280
     0
281
     1
  0
WIPEOUTVARIABLES
  5
23
100
AcDbWipeoutVariables
 70
     1
  0
ENDSEC
  0
EOF
