  0
SECTION
  2
HEADER
  9
$ACADVER
  1
AC1015
  9
$ACADMAINTVER
 70
     6
  9
$DWGCODEPAGE
  3
ANSI_1252
  9
$INSBASE
 10
0.0
 20
0.0
 30
0.0
  9
$EXTMIN
 10
0.0
 20
0.0
 30
0.0
  9
$EXTMAX
 10
144.467163
 20
2.845275
 30
2.0
  9
$LIMMIN
 10
0.0
 20
0.0
  9
$LIMMAX
 10
17.0
 20
11.0
  9
$ORTHOMODE
 70
     0
  9
$REGENMODE
 70
     1
  9
$FILLMODE
 70
     1
  9
$QTEXTMODE
 70
     0
  9
$MIRRTEXT
 70
     1
  9
$LTSCALE
 40
1.0
  9
$ATTMODE
 70
     1
  9
$TEXTSIZE
 40
0.2
  9
$TRACEWID
 40
0.05
  9
$TEXTSTYLE
  7
STANDARD
  9
$CLAYER
  8
0
  9
$CELTYPE
  6
ByLayer
  9
$CECOLOR
 62
   256
  9
$CELTSCALE
 40
1.0
  9
$DISPSILH
 70
     0
  9
$DIMSCALE
 40
1.0
  9
$DIMASZ
 40
0.18
  9
$DIMEXO
 40
0.0625
  9
$DIMDLI
 40
0.38
  9
$DIMRND
 40
0.0
  9
$DIMDLE
 40
0.0
  9
$DIMEXE
 40
0.18
  9
$DIMTP
 40
0.0
  9
$DIMTM
 40
0.0
  9
$DIMTXT
 40
0.18
  9
$DIMCEN
 40
0.09
  9
$DIMTSZ
 40
0.0
  9
$DIMTOL
 70
     0
  9
$DIMLIM
 70
     0
  9
$DIMTIH
 70
     1
  9
$DIMTOH
 70
     1
  9
$DIMSE1
 70
     0
  9
$DIMSE2
 70
     0
  9
$DIMTAD
 70
     0
  9
$DIMZIN
 70
     0
  9
$DIMBLK
  1

  9
$DIMASO
 70
     1
  9
$DIMSHO
 70
     1
  9
$DIMPOST
  1

  9
$DIMAPOST
  1

  9
$DIMALT
 70
     0
  9
$DIMALTD
 70
     2
  9
$DIMALTF
 40
25.4
  9
$DIMLFAC
 40
1.0
  9
$DIMTOFL
 70
     0
  9
$DIMTVP
 40
0.0
  9
$DIMTIX
 70
     0
  9
$DIMSOXD
 70
     0
  9
$DIMSAH
 70
     0
  9
$DIMBLK1
  1

  9
$DIMBLK2
  1

  9
$DIMSTYLE
  2
STANDARD
  9
$DIMCLRD
 70
     0
  9
$DIMCLRE
 70
     0
  9
$DIMCLRT
 70
     0
  9
$DIMTFAC
 40
1.0
  9
$DIMGAP
 40
0.09
  9
$DIMJUST
 70
     0
  9
$DIMSD1
 70
     0
  9
$DIMSD2
 70
     0
  9
$DIMTOLJ
 70
     1
  9
$DIMTZIN
 70
     0
  9
$DIMALTZ
 70
     0
  9
$DIMALTTZ
 70
     0
  9
$DIMUPT
 70
     0
  9
$DIMDEC
 70
     4
  9
$DIMTDEC
 70
     4
  9
$DIMALTU
 70
     2
  9
$DIMALTTD
 70
     2
  9
$DIMTXSTY
  7
STANDARD
  9
$DIMAUNIT
 70
     0
  9
$DIMADEC
 70
     0
  9
$DIMALTRND
 40
0.0
  9
$DIMAZIN
 70
     0
  9
$DIMDSEP
 70
    46
  9
$DIMATFIT
 70
     0
  9
$DIMFRAC
 70
     0
  9
$DIMLDRBLK
  1

  9
$DIMLUNIT
 70
     2
  9
$DIMLWD
 70
    -2
  9
$DIMLWE
 70
    -2
  9
$DIMTMOVE
 70
     0
  9
$LUNITS
 70
     2
  9
$LUPREC
 70
     4
  9
$SKETCHINC
 40
0.1
  9
$FILLETRAD
 40
0.125
  9
$AUNITS
 70
     0
  9
$AUPREC
 70
     0
  9
$MENU
  1
.
  9
$ELEVATION
 40
0.0
  9
$PELEVATION
 40
0.0
  9
$THICKNESS
 40
0.0
  9
$LIMCHECK
 70
     0
  9
$CHAMFERA
 40
0.125
  9
$CHAMFERB
 40
0.125
  9
$CHAMFERC
 40
0.0
  9
$CHAMFERD
 40
0.0
  9
$SKPOLY
 70
     0
  9
$TDCREATE
 40
0.000000000
  9
$TDUCREATE
 40
0.000000000
  9
$TDUPDATE
 40
0.000000000
  9
$TDUUPDATE
 40
0.000000000
  9
$TDINDWG
 40
0.0000000000
  9
$TDUSRTIMER
 40
0.0000000000
  9
$USRTIMER
 70
     1
  9
$ANGBASE
 50
0.0
  9
$ANGDIR
 70
     0
  9
$PDMODE
 70
     0
  9
$PDSIZE
 40
0.0
  9
$PLINEWID
 40
0.0
  9
$SPLFRAME
 70
     0
  9
$SPLINETYPE
 70
     6
  9
$SPLINESEGS
 70
     8
  9
$HANDSEED
  5
697
  9
$SURFTAB1
 70
     6
  9
$SURFTAB2
 70
     6
  9
$SURFTYPE
 70
     6
  9
$SURFU
 70
     6
  9
$SURFV
 70
     6
  9
$UCSBASE
  2

  9
$UCSNAME
  2

  9
$UCSORG
 10
0.0
 20
0.0
 30
0.0
  9
$UCSXDIR
 10
1.0
 20
0.0
 30
0.0
  9
$UCSYDIR
 10
0.0
 20
1.0
 30
0.0
  9
$UCSORTHOREF
  2

  9
$UCSORTHOVIEW
 70
     1
  9
$UCSORGTOP
 10
0.0
 20
0.0
 30
0.0
  9
$UCSORGBOTTOM
 10
0.0
 20
0.0
 30
0.0
  9
$UCSORGLEFT
 10
0.0
 20
0.0
 30
0.0
  9
$UCSORGRIGHT
 10
0.0
 20
0.0
 30
0.0
  9
$UCSORGFRONT
 10
0.0
 20
0.0
 30
0.0
  9
$UCSORGBACK
 10
0.0
 20
0.0
 30
0.0
  9
$PUCSBASE
  2

  9
$PUCSNAME
  2

  9
$PUCSORG
 10
0.0
 20
0.0
 30
0.0
  9
$PUCSXDIR
 10
1.0
 20
0.0
 30
0.0
  9
$PUCSYDIR
 10
0.0
 20
1.0
 30
0.0
  9
$PUCSORTHOREF
  2

  9
$PUCSORTHOVIEW
 70
     0
  9
$PUCSORGTOP
 10
0.0
 20
0.0
 30
0.0
  9
$PUCSORGBOTTOM
 10
0.0
 20
0.0
 30
0.0
  9
$PUCSORGLEFT
 10
0.0
 20
0.0
 30
0.0
  9
$PUCSORGRIGHT
 10
0.0
 20
0.0
 30
0.0
  9
$PUCSORGFRONT
 10
0.0
 20
0.0
 30
0.0
  9
$PUCSORGBACK
 10
0.0
 20
0.0
 30
0.0
  9
$USERI1
 70
     0
  9
$USERI2
 70
     0
  9
$USERI3
 70
     0
  9
$USERI4
 70
     0
  9
$USERI5
 70
     0
  9
$USERR1
 40
0.0
  9
$USERR2
 40
0.0
  9
$USERR3
 40
0.0
  9
$USERR4
 40
0.0
  9
$USERR5
 40
0.0
  9
$WORLDVIEW
 70
     1
  9
$SHADEDGE
 70
     3
  9
$SHADEDIF
 70
    70
  9
$TILEMODE
 70
     1
  9
$MAXACTVP
 70
    48
  9
$PINSBASE
 10
0.0
 20
0.0
 30
0.0
  9
$PLIMCHECK
 70
     0
  9
$PEXTMIN
 10
0.0
 20
0.0
 30
0.0
  9
$PEXTMAX
 10
144.467163
 20
2.845275
 30
2.0
  9
$PLIMMIN
 10
0.0
 20
0.0
  9
$PLIMMAX
 10
12.0
 20
9.0
  9
$UNITMODE
 70
     0
  9
$VISRETAIN
 70
     0
  9
$PLINEGEN
 70
     0
  9
$PSLTSCALE
 70
     1
  9
$TREEDEPTH
 70
  3020
  9
$CMLSTYLE
  2
Standard
  9
$CMLJUST
 70
     0
  9
$CMLSCALE
 40
1.0
  9
$PROXYGRAPHICS
 70
     1
  9
$MEASUREMENT
 70
     0
  9
$CELWEIGHT
370
    -1
  9
$ENDCAPS
280
     0
  9
$JOINSTYLE
280
     0
  9
$LWDISPLAY
290
     0
  9
$INSUNITS
 70
     0
  9
$HYPERLINKBASE
  1

  9
$STYLESHEET
  1

  9
$XEDIT
290
     1
  9
$CEPSNTYPE
380
     0
  9
$PSTYLEMODE
290
     0
  9
$FINGERPRINTGUID
  2

  9
$VERSIONGUID
  2

  9
$EXTNAMES
290
     0
  9
$PSVPSCALE
 40
0.0
  0
ENDSEC
  0
SECTION
  2
CLASSES
  0
CLASS
  1
LWPOLYLINE
  2
AcDbPolyline
  3
AutoCAD 2000
 90
        0
280
     0
281
     1
  0
CLASS
  1
IMAGE
  2
AcDbRasterImage
  3
ISM
 90
      127
280
     0
281
     1
  0
CLASS
  1
OLE2FRAME
  2
AcDbOle2Frame
  3
AutoCAD 2000
 90
        0
280
     0
281
     1
  0
CLASS
  1
HATCH
  2
AcDbHatch
  3
AutoCAD 2000
 90
        0
280
     0
281
     1
  0
CLASS
  1
DICTIONARYVAR
  2
AcDbDictionaryVar
  3
AutoCAD 2000
 90
        0
280
     0
281
     0
  0
CLASS
  1
RASTERVARIABLES
  2
AcDbRasterVariables
  3
ISM
 90
        0
280
     0
281
     0
  0
CLASS
  1
IMAGEDEF
  2
AcDbRasterImageDef
  3
ISM
 90
        0
280
     0
281
     0
  0
CLASS
  1
IMAGEDEF_REACTOR
  2
AcDbRasterImageDefReactor
  3
ISM
 90
        1
280
     0
281
     0
  0
CLASS
  1
IDBUFFER
  2
AcDbIdBuffer
  3
AutoCAD 2000
 90
        0
280
     0
281
     0
  0
CLASS
  1
SPATIAL_FILTER
  2
AcDbSpatialFilter
  3
AutoCAD 2000
 90
        0
280
     0
281
     0
  0
CLASS
  1
XRECORD
  2
AcDbXrecord
  3
AutoCAD 2000
 90
        0
280
     0
281
     0
  0
CLASS
  1
SORTENTSTABLE
  2
AcDbSortentsTable
  3
AutoCAD 2000
 90
        0
280
     0
281
     0
  0
CLASS
  1
LAYER_INDEX
  2
AcDbLayerIndex
  3
AutoCAD 2000
 90
        0
280
     0
281
     0
  0
CLASS
  1
SPATIAL_INDEX
  2
AcDbSpatialIndex
  3
AutoCAD 2000
 90
        0
280
     0
281
     0
  0
CLASS
  1
OBJECT_PTR
  2
CAseDLPNTableRecord
  3
"ASE-LPNTableRecord"
 90
        1
280
     0
281
     0
  0
CLASS
  1
LAYOUT
  2
AcDbLayout
  3
AutoCAD 2000
 90
        0
280
     0
281
     0
  0
CLASS
  1
PLOTSETTINGS
  2
AcDbPlotSettings
  3
AutoCAD 2000
 90
        0
280
     0
281
     0
  0
CLASS
  1
ACDBDICTIONARYWDFLT
  2
AcDbDictionaryWithDefault
  3
AutoCAD 2000
 90
        0
280
     0
281
     0
  0
CLASS
  1
ACDBPLACEHOLDER
  2
AcDbPlaceHolder
  3
AutoCAD 2000
 90
        0
280
     0
281
     0
  0
CLASS
  1
VBA_PROJECT
  2
AcDbVbaProject
  3
acadvba
 90
        0
280
     0
281
     0
  0
CLASS
  1
WIPEOUT
  2
AcDbWipeout
  3
WipeOut|AutoCAD Express Tool|expresstools@autodesk.com
 90
      127
280
     0
281
     1
  0
CLASS
  1
WIPEOUTVARIABLES
  2
AcDbWipeoutVariables
  3
WipeOut|AutoCAD Express Tool|expresstools@autodesk.com
 90
        0
280
     0
281
     0
  0
CLASS
  1
RTEXT
  2
RText
  3
RText|AutoCAD Express Tool|expresstools@autodesk.com
 90
        0
280
     0
281
     1
  0
CLASS
  1
ARCALIGNEDTEXT
  2
AcDbArcAlignedText
  3
ATEXT|AutoCAD Express Tool|expresstools@autodesk.com
 90
        0
280
     0
281
     1
  0
ENDSEC
  0
SECTION
  2
TABLES
  0
TABLE
  2
VPORT
  5
7
100
AcDbSymbolTable
 70
     1
  0
VPORT
  5
15
100
AcDbSymbolTableRecord
100
AcDbViewportTableRecord
  2
*ACTIVE
 70
     0
 10
0.0
 20
0.0
 11
1.0
 21
1.0
 12
6.591288
 22
4.579184
 13
0.0
 23
0.0
 14
1.0
 24
1.0
 15
0.0
 25
0.0
 16
0.0
 26
0.0
 36
1.0
 17
0.0
 27
0.0
 37
0.0
 40
9.158369
 41
0.688564
 42
50.0
 43
0.0
 44
0.0
 50
0.0
 51
0.0
 71
     0
 72
   100
 73
     1
 74
     1
 75
     0
 76
     0
 77
     0
 78
     0
281
     0
 65
     0
110
0.0
120
0.0
130
0.0
111
1.0
121
0.0
131
0.0
112
0.0
122
1.0
132
0.0
345
0
346
0
 79
     0
146
0.0
  0
ENDTAB
  0
TABLE
  2
LTYPE
  5
4
100
AcDbSymbolTable
 70
     4
  0
LTYPE
  5
11
100
AcDbSymbolTableRecord
100
AcDbLinetypeTableRecord
  2
ByBlock
 70
    64
  3

 72
    65
 73
     0
 40
0.0
  0
LTYPE
  5
12
100
AcDbSymbolTableRecord
100
AcDbLinetypeTableRecord
  2
ByLayer
 70
    64
  3

 72
    65
 73
     0
 40
0.0
  0
LTYPE
  5
13
100
AcDbSymbolTableRecord
100
AcDbLinetypeTableRecord
  2
Continuous
 70
    64
  3
Solid line
 72
    65
 73
     0
 40
0.0
  0
LTYPE
  5
24
100
AcDbSymbolTableRecord
100
AcDbLinetypeTableRecord
  2
DASHDOT
 70
     0
  3
 __ . __ . __ . __ . __ . __ . __ . 
 72
    65
 73
     4
 40
18.5
 49
12.0
 74
     0
 49
-3.0
 74
     0
 49
0.5
 74
     0
 49
-3.0
 74
     0
  0
ENDTAB
  0
TABLE
  2
LAYER
  5
2
100
AcDbSymbolTable
 70
     2
  0
LAYER
  5
14
100
AcDbSymbolTableRecord
100
AcDbLayerTableRecord
  2
0
 70
     0
 62
     7
  6
Continuous
290
     1
370
    13
390
1D
  0
LAYER
  5
25
100
AcDbSymbolTableRecord
100
AcDbLayerTableRecord
  2
1
 70
     0
 62
     7
  6
Continuous
290
     1
370
    13
390
1D
  0
ENDTAB
  0
TABLE
  2
STYLE
  5
3
100
AcDbSymbolTable
 70
     2
  0
STYLE
  5
17
100
AcDbSymbolTableRecord
100
AcDbTextStyleTableRecord
  2
STANDARD
 70
     0
 40
0.0
 41
1.0
 50
0.0
 71
     0
 42
0.0
  3
isocp.shx
  4

  0
STYLE
  5
26
100
AcDbSymbolTableRecord
100
AcDbTextStyleTableRecord
  2
GDT
 70
     0
 40
0.0
 41
1.0
 50
0.0
 71
     0
 42
0.0
  3
gdt.shx
  4

  0
ENDTAB
  0
TABLE
  2
VIEW
  5
5
100
AcDbSymbolTable
 70
     0
  0
ENDTAB
  0
TABLE
  2
UCS
  5
6
100
AcDbSymbolTable
 70
     0
  0
ENDTAB
  0
TABLE
  2
APPID
  5
8
100
AcDbSymbolTable
 70
     1
  0
APPID
  5
16
100
AcDbSymbolTableRecord
100
AcDbRegAppTableRecord
  2
ACAD
 70
     0
  0
ENDTAB
  0
TABLE
  2
DIMSTYLE
  5
9
100
AcDbSymbolTable
 70
     1
100
AcDbDimStyleTable
 71
     0
  0
DIMSTYLE
105
18
100
AcDbSymbolTableRecord
100
AcDbDimStyleTableRecord
  2
STANDARD
 70
     0
  3

  4

 40
1.0
 41
0.18
 42
0.0625
 43
0.38
 44
0.18
 45
0.0
 46
0.0
 47
0.0
 48
0.0
 71
     0
 72
     0
 73
     1
 74
     1
 75
     0
 76
     0
 77
     0
 78
     0
 79
     0
140
0.18
141
0.09
142
0.0
143
25.4
144
1.0
145
0.0
146
1.0
147
0.09
148
0.0
170
     0
171
     2
172
     0
173
     0
174
     0
175
     0
176
     0
177
     0
178
     0
179
     0
271
     4
272
     4
273
     2
274
     2
275
     0
276
     0
277
     2
278
    46
279
     0
280
     0
281
     0
282
     0
283
     1
284
     0
285
     0
286
     0
288
     0
289
     0
340
0
341
0
342
0
343
0
344
0
371
    -2
372
    -2
  0
ENDTAB
  0
TABLE
  2
BLOCK_RECORD
  5
1
100
AcDbSymbolTable
 70
    24
  0
BLOCK_RECORD
  5
A
100
AcDbSymbolTableRecord
100
AcDbBlockTableRecord
  2
*MODEL_SPACE
340
20
  0
BLOCK_RECORD
  5
B
100
AcDbSymbolTableRecord
100
AcDbBlockTableRecord
  2
*PAPER_SPACE
340
21
  0
BLOCK_RECORD
  5
431
100
AcDbSymbolTableRecord
100
AcDbBlockTableRecord
  2
BLOCK1
340
0
102
{BLKREFS
331
67F
102
}
  0
BLOCK_RECORD
  5
432
100
AcDbSymbolTableRecord
100
AcDbBlockTableRecord
  2
BLOCK2
340
0
102
{BLKREFS
331
680
102
}
  0
BLOCK_RECORD
  5
433
100
AcDbSymbolTableRecord
100
AcDbBlockTableRecord
  2
BLOCK3
340
0
102
{BLKREFS
331
681
102
}
  0
BLOCK_RECORD
  5
434
100
AcDbSymbolTableRecord
100
AcDbBlockTableRecord
  2
BLOCK4
340
0
102
{BLKREFS
331
682
102
}
  0
BLOCK_RECORD
  5
435
100
AcDbSymbolTableRecord
100
AcDbBlockTableRecord
  2
BLOCK5
340
0
102
{BLKREFS
331
683
102
}
  0
BLOCK_RECORD
  5
436
100
AcDbSymbolTableRecord
100
AcDbBlockTableRecord
  2
BLOCK6
340
0
102
{BLKREFS
331
684
102
}
  0
BLOCK_RECORD
  5
437
100
AcDbSymbolTableRecord
100
AcDbBlockTableRecord
  2
BLOCK7
340
0
102
{BLKREFS
331
685
102
}
  0
BLOCK_RECORD
  5
438
100
AcDbSymbolTableRecord
100
AcDbBlockTableRecord
  2
BLOCK8
340
0
102
{BLKREFS
331
686
102
}
  0
BLOCK_RECORD
  5
439
100
AcDbSymbolTableRecord
100
AcDbBlockTableRecord
  2
BLOCK9
340
0
102
{BLKREFS
331
687
102
}
  0
BLOCK_RECORD
  5
43A
100
AcDbSymbolTableRecord
100
AcDbBlockTableRecord
  2
BLOCK10
340
0
102
{BLKREFS
331
688
102
}
  0
BLOCK_RECORD
  5
43B
100
AcDbSymbolTableRecord
100
AcDbBlockTableRecord
  2
BLOCK11
340
0
102
{BLKREFS
331
689
102
}
  0
BLOCK_RECORD
  5
43C
100
AcDbSymbolTableRecord
100
AcDbBlockTableRecord
  2
BLOCK12
340
0
102
{BLKREFS
331
68A
102
}
  0
BLOCK_RECORD
  5
43D
100
AcDbSymbolTableRecord
100
AcDbBlockTableRecord
  2
BLOCK13
340
0
102
{BLKREFS
331
68B
102
}
  0
BLOCK_RECORD
  5
43E
100
AcDbSymbolTableRecord
100
AcDbBlockTableRecord
  2
BLOCK14
340
0
102
{BLKREFS
331
68C
102
}
  0
BLOCK_RECORD
  5
43F
100
AcDbSymbolTableRecord
100
AcDbBlockTableRecord
  2
BLOCK15
340
0
102
{BLKREFS
331
68D
102
}
  0
BLOCK_RECORD
  5
440
100
AcDbSymbolTableRecord
100
AcDbBlockTableRecord
  2
BLOCK16
340
0
102
{BLKREFS
331
68E
102
}
  0
BLOCK_RECORD
  5
441
100
AcDbSymbolTableRecord
100
AcDbBlockTableRecord
  2
BLOCK17
340
0
102
{BLKREFS
331
68F
102
}
  0
BLOCK_RECORD
  5
442
100
AcDbSymbolTableRecord
100
AcDbBlockTableRecord
  2
BLOCK18
340
0
102
{BLKREFS
331
690
102
}
  0
BLOCK_RECORD
  5
443
100
AcDbSymbolTableRecord
100
AcDbBlockTableRecord
  2
BLOCK19
340
0
102
{BLKREFS
331
691
102
}
  0
BLOCK_RECORD
  5
444
100
AcDbSymbolTableRecord
100
AcDbBlockTableRecord
  2
BLOCK20
340
0
102
{BLKREFS
331
692
102
}
  0
BLOCK_RECORD
  5
445
100
AcDbSymbolTableRecord
100
AcDbBlockTableRecord
  2
BLOCK21
340
0
102
{BLKREFS
331
693
102
}
  0
BLOCK_RECORD
  5
446
100
AcDbSymbolTableRecord
100
AcDbBlockTableRecord
  2
BLOCK22
340
0
102
{BLKREFS
331
694
102
}
  0
BLOCK_RECORD
  5
447
100
AcDbSymbolTableRecord
100
AcDbBlockTableRecord
  2
BLOCK23
340
0
102
{BLKREFS
331
695
102
}
  0
BLOCK_RECORD
  5
448
100
AcDbSymbolTableRecord
100
AcDbBlockTableRecord
  2
BLOCK24
340
0
102
{BLKREFS
331
696
102
}
  0
ENDTAB
  0
ENDSEC
  0
SECTION
  2
BLOCKS
  0
BLOCK
  5
D
100
AcDbEntity
  8
0
390
0
100
AcDbBlockBegin
  2
*MODEL_SPACE
 70
     0
 10
0.0
 20
0.0
 30
0.0
  3
*MODEL_SPACE
  1

  0
ENDBLK
  5
E
100
AcDbEntity
  8
0
390
0
100
AcDbBlockEnd
  0
BLOCK
  5
F
100
AcDbEntity
 67
     1
  8
0
390
0
100
AcDbBlockBegin
  2
*PAPER_SPACE
 70
     0
 10
0.0
 20
0.0
 30
0.0
  3
*PAPER_SPACE
  1

  0
ENDBLK
  5
10
100
AcDbEntity
 67
     1
  8
0
390
0
100
AcDbBlockEnd
  0
BLOCK
  5
449
100
AcDbEntity
  8
0
370
     0
390
0
100
AcDbBlockBegin
  2
BLOCK1
 70
     0
 10
0.0
 20
0.0
 30
0.0
  3
BLOCK1
  1

  0
TEXT
  5
44A
100
AcDbEntity
  8
0
370
    13
390
0
 62
     7
 48
0.03937
100
AcDbText
 10
8.20411
 20
0.85583
 30
0.0
 40
0.098425
  1
300-EB-FF
 72
     5
 11
8.895983
 21
0.85583
 31
0.0
100
AcDbText
  0
TEXT
  5
44B
100
AcDbEntity
  8
0
370
    13
390
0
 62
     7
 48
0.03937
100
AcDbText
 10
8.897483
 20
0.85583
 30
0.0
 40
0.098425
  1
-
 72
     5
 11
8.94442
 21
0.85583
 31
0.0
100
AcDbText
  0
TEXT
  5
44C
100
AcDbEntity
  8
0
370
    13
390
0
 62
     7
 48
0.03937
100
AcDbText
 10
8.94592
 20
0.85583
 30
0.0
 40
0.098425
  1
STD-CONN-FLANGE
 72
     5
 11
10.394227
 21
0.85583
 31
0.0
100
AcDbText
  0
ENDBLK
  5
44D
100
AcDbEntity
  8
0
390
0
100
AcDbBlockEnd
  0
BLOCK
  5
44E
100
AcDbEntity
  8
0
370
     0
390
0
100
AcDbBlockBegin
  2
BLOCK2
 70
     0
 10
0.0
 20
0.0
 30
0.0
  3
BLOCK2
  1

  0
TEXT
  5
44F
100
AcDbEntity
  8
0
370
    13
390
0
 62
     7
 48
0.03937
100
AcDbText
 10
8.395026
 20
1.043137
 30
0.0
 40
0.098425
  1
NOM. PIPE SIZE 
 72
     5
 11
9.575082
 21
1.043137
 31
0.0
100
AcDbText
  0
TEXT
  5
450
100
AcDbEntity
  8
0
370
    13
390
0
 62
     7
 48
0.03937
100
AcDbText
 10
9.576582
 20
1.043137
 30
0.0
 40
0.098425
  1
0.75
 72
     5
 11
9.829989
 21
1.043137
 31
0.0
100
AcDbText
  0
TEXT
  5
451
100
AcDbEntity
  8
0
370
    13
390
0
 62
     7
 48
0.03937
100
AcDbText
 10
9.83149
 20
1.043137
 30
0.0
 40
0.098425
  1
 INCH
 72
     5
 11
10.253805
 21
1.043137
 31
0.0
100
AcDbText
  0
ENDBLK
  5
452
100
AcDbEntity
  8
0
390
0
100
AcDbBlockEnd
  0
BLOCK
  5
453
100
AcDbEntity
  8
0
370
     0
390
0
100
AcDbBlockBegin
  2
BLOCK3
 70
     0
 10
0.0
 20
0.0
 30
0.0
  3
BLOCK3
  1

  0
TEXT
  5
454
100
AcDbEntity
  8
0
370
    13
390
0
 62
     7
 48
0.03937
100
AcDbText
 10
10.093103
 20
0.689966
 30
0.0
 40
0.06
  1
PO Box 2889
 72
     5
 11
10.730818
 21
0.689966
 31
0.0
100
AcDbText
  0
TEXT
  5
455
100
AcDbEntity
  8
0
370
    13
390
0
 62
     7
 48
0.03937
100
AcDbText
 10
9.686702
 20
0.589966
 30
0.0
 40
0.06
  1
Pearland, TX 77588
 72
     5
 11
10.730818
 21
0.589966
 31
0.0
100
AcDbText
  0
TEXT
  5
456
100
AcDbEntity
  8
0
370
    13
390
0
 62
     7
 48
0.03937
100
AcDbText
 10
9.802816
 20
0.489966
 30
0.0
 40
0.06
  1
PH: 800-826-3801
 72
     5
 11
10.730818
 21
0.489966
 31
0.0
100
AcDbText
  0
TEXT
  5
457
100
AcDbEntity
  8
0
370
    13
390
0
 62
     7
 48
0.03937
100
AcDbText
 10
9.744759
 20
0.389966
 30
0.0
 40
0.06
  1
FAX: 281-484-8730
 72
     5
 11
10.730818
 21
0.389966
 31
0.0
100
AcDbText
  0
TEXT
  5
458
100
AcDbEntity
  8
0
370
    13
390
0
 62
     7
 48
0.03937
100
AcDbText
 10
9.628644
 20
0.289966
 30
0.0
 40
0.06
  1
www.texasflange.com
 72
     5
 11
10.730818
 21
0.289966
 31
0.0
100
AcDbText
  0
ENDBLK
  5
459
100
AcDbEntity
  8
0
390
0
100
AcDbBlockEnd
  0
BLOCK
  5
45A
100
AcDbEntity
  8
0
370
     0
390
0
100
AcDbBlockBegin
  2
BLOCK4
 70
     0
 10
0.0
 20
0.0
 30
0.0
  3
BLOCK4
  1

  0
TEXT
  5
45B
100
AcDbEntity
  8
0
370
    13
390
0
 62
     7
 48
0.03937
100
AcDbText
 10
8.289209
 20
0.587871
 30
0.0
 40
0.2
  1
Texas
 72
     5
 11
9.383692
 21
0.587871
 31
0.0
100
AcDbText
  0
TEXT
  5
45C
100
AcDbEntity
  8
0
370
    13
390
0
 62
     7
 48
0.03937
100
AcDbText
 10
8.289209
 20
0.327871
 30
0.0
 40
0.2
  1
Flange
 72
     5
 11
9.608945
 21
0.327871
 31
0.0
100
AcDbText
  0
ENDBLK
  5
45D
100
AcDbEntity
  8
0
390
0
100
AcDbBlockEnd
  0
BLOCK
  5
45E
100
AcDbEntity
  8
0
370
     0
390
0
100
AcDbBlockBegin
  2
BLOCK5
 70
     0
 10
0.0
 20
0.0
 30
0.0
  3
BLOCK5
  1

  0
LINE
  5
45F
100
AcDbEntity
  8
0
370
     5
390
0
 62
     7
 48
0.00324
100
AcDbLine
 10
8.029831
 20
0.605292
 30
0.0
 11
7.900255
 21
0.604209
 31
0.0
210
0.0
220
0.0
230
1.0
  0
LINE
  5
460
100
AcDbEntity
  8
0
370
     5
390
0
 62
     7
 48
0.000103
100
AcDbLine
 10
7.900255
 20
0.604209
 30
0.0
 11
7.902151
 21
0.600546
 31
0.0
210
0.0
220
0.0
230
1.0
  0
LINE
  5
461
100
AcDbEntity
  8
0
370
     5
390
0
 62
     7
 48
0.0001
100
AcDbLine
 10
7.902151
 20
0.600546
 30
0.0
 11
7.903945
 21
0.596951
 31
0.0
210
0.0
220
0.0
230
1.0
  0
LINE
  5
462
100
AcDbEntity
  8
0
370
     5
390
0
 62
     7
 48
0.000098
100
AcDbLine
 10
7.903945
 20
0.596951
 30
0.0
 11
7.905638
 21
0.593424
 31
0.0
210
0.0
220
0.0
230
1.0
  0
LINE
  5
463
100
AcDbEntity
  8
0
370
     5
390
0
 62
     7
 48
0.000095
100
AcDbLine
 10
7.905638
 20
0.593424
 30
0.0
 11
7.907229
 21
0.589967
 31
0.0
210
0.0
220
0.0
230
1.0
  0
LINE
  5
464
100
AcDbEntity
  8
0
370
     5
390
0
 62
     7
 48
0.000093
100
AcDbLine
 10
7.907229
 20
0.589967
 30
0.0
 11
7.908719
 21
0.58658
 31
0.0
210
0.0
220
0.0
230
1.0
  0
LINE
  5
465
100
AcDbEntity
  8
0
370
     5
390
0
 62
     7
 48
0.00009
100
AcDbLine
 10
7.908719
 20
0.58658
 30
0.0
 11
7.910106
 21
0.583262
 31
0.0
210
0.0
220
0.0
230
1.0
  0
LINE
  5
466
100
AcDbEntity
  8
0
370
     5
390
0
 62
     7
 48
0.000087
100
AcDbLine
 10
7.910106
 20
0.583262
 30
0.0
 11
7.911392
 21
0.580013
 31
0.0
210
0.0
220
0.0
230
1.0
  0
LINE
  5
467
100
AcDbEntity
  8
0
370
     5
390
0
 62
     7
 48
0.000085
100
AcDbLine
 10
7.911392
 20
0.580013
 30
0.0
 11
7.912577
 21
0.576833
 31
0.0
210
0.0
220
0.0
230
1.0
  0
LINE
  5
468
100
AcDbEntity
  8
0
370
     5
390
0
 62
     7
 48
0.000082
100
AcDbLine
 10
7.912577
 20
0.576833
 30
0.0
 11
7.913659
 21
0.573722
 31
0.0
210
0.0
220
0.0
230
1.0
  0
LINE
  5
469
100
AcDbEntity
  8
0
370
     5
390
0
 62
     7
 48
0.000095
100
AcDbLine
 10
7.913659
 20
0.573722
 30
0.0
 11
7.915938
 21
0.570681
 31
0.0
210
0.0
220
0.0
230
1.0
  0
LINE
  5
46A
100
AcDbEntity
  8
0
370
     5
390
0
 62
     7
 48
0.000066
100
AcDbLine
 10
7.915938
 20
0.570681
 30
0.0
 11
7.916123
 21
0.573306
 31
0.0
210
0.0
220
0.0
230
1.0
  0
LINE
  5
46B
100
AcDbEntity
  8
0
370
     5
390
0
 62
     7
 48
0.000062
100
AcDbLine
 10
7.916123
 20
0.573306
 30
0.0
 11
7.916418
 21
0.575775
 31
0.0
210
0.0
220
0.0
230
1.0
  0
LINE
  5
46C
100
AcDbEntity
  8
0
370
     5
390
0
 62
     7
 48
0.000059
100
AcDbLine
 10
7.916418
 20
0.575775
 30
0.0
 11
7.916824
 21
0.578087
 31
0.0
210
0.0
220
0.0
230
1.0
  0
LINE
  5
46D
100
AcDbEntity
  8
0
370
     5
390
0
 62
     7
 48
0.000055
100
AcDbLine
 10
7.916824
 20
0.578087
 30
0.0
 11
7.917339
 21
0.580242
 31
0.0
210
0.0
220
0.0
230
1.0
  0
LINE
  5
46E
100
AcDbEntity
  8
0
370
     5
390
0
 62
     7
 48
0.000052
100
AcDbLine
 10
7.917339
 20
0.580242
 30
0.0
 11
7.917966
 21
0.58224
 31
0.0
210
0.0
220
0.0
230
1.0
  0
LINE
  5
46F
100
AcDbEntity
  8
0
370
     5
390
0
 62
     7
 48
0.00005
100
AcDbLine
 10
7.917966
 20
0.58224
 30
0.0
 11
7.918703
 21
0.584081
 31
0.0
210
0.0
220
0.0
230
1.0
  0
LINE
  5
470
100
AcDbEntity
  8
0
370
     5
390
0
 62
     7
 48
0.000047
100
AcDbLine
 10
7.918703
 20
0.584081
 30
0.0
 11
7.919549
 21
0.585767
 31
0.0
210
0.0
220
0.0
230
1.0
  0
LINE
  5
471
100
AcDbEntity
  8
0
370
     5
390
0
 62
     7
 48
0.000045
100
AcDbLine
 10
7.919549
 20
0.585767
 30
0.0
 11
7.920506
 21
0.587294
 31
0.0
210
0.0
220
0.0
230
1.0
  0
LINE
  5
472
100
AcDbEntity
  8
0
370
     5
390
0
 62
     7
 48
0.000043
100
AcDbLine
 10
7.920506
 20
0.587294
 30
0.0
 11
7.921574
 21
0.588665
 31
0.0
210
0.0
220
0.0
230
1.0
  0
LINE
  5
473
100
AcDbEntity
  8
0
370
     5
390
0
 62
     7
 48
0.000042
100
AcDbLine
 10
7.921574
 20
0.588665
 30
0.0
 11
7.922751
 21
0.58988
 31
0.0
210
0.0
220
0.0
230
1.0
  0
LINE
  5
474
100
AcDbEntity
  8
0
370
     5
390
0
 62
     7
 48
0.000042
100
AcDbLine
 10
7.922751
 20
0.58988
 30
0.0
 11
7.924063
 21
0.590958
 31
0.0
210
0.0
220
0.0
230
1.0
  0
LINE
  5
475
100
AcDbEntity
  8
0
370
     5
390
0
 62
     7
 48
0.000044
100
AcDbLine
 10
7.924063
 20
0.590958
 30
0.0
 11
7.92553
 21
0.591923
 31
0.0
210
0.0
220
0.0
230
1.0
  0
LINE
  5
476
100
AcDbEntity
  8
0
370
     5
390
0
 62
     7
 48
0.000046
100
AcDbLine
 10
7.92553
 20
0.591923
 30
0.0
 11
7.927152
 21
0.592775
 31
0.0
210
0.0
220
0.0
230
1.0
  0
LINE
  5
477
100
AcDbEntity
  8
0
370
     5
390
0
 62
     7
 48
0.000048
100
AcDbLine
 10
7.927152
 20
0.592775
 30
0.0
 11
7.92893
 21
0.593513
 31
0.0
210
0.0
220
0.0
230
1.0
  0
LINE
  5
478
100
AcDbEntity
  8
0
370
     5
390
0
 62
     7
 48
0.000051
100
AcDbLine
 10
7.92893
 20
0.593513
 30
0.0
 11
7.930864
 21
0.594138
 31
0.0
210
0.0
220
0.0
230
1.0
  0
LINE
  5
479
100
AcDbEntity
  8
0
370
     5
390
0
 62
     7
 48
0.000054
100
AcDbLine
 10
7.930864
 20
0.594138
 30
0.0
 11
7.932953
 21
0.594648
 31
0.0
210
0.0
220
0.0
230
1.0
  0
LINE
  5
47A
100
AcDbEntity
  8
0
370
     5
390
0
 62
     7
 48
0.000057
100
AcDbLine
 10
7.932953
 20
0.594648
 30
0.0
 11
7.9352
 21
0.595046
 31
0.0
210
0.0
220
0.0
230
1.0
  0
LINE
  5
47B
100
AcDbEntity
  8
0
370
     5
390
0
 62
     7
 48
0.00006
100
AcDbLine
 10
7.9352
 20
0.595046
 30
0.0
 11
7.9376
 21
0.595331
 31
0.0
210
0.0
220
0.0
230
1.0
  0
LINE
  5
47C
100
AcDbEntity
  8
0
370
     5
390
0
 62
     7
 48
0.000064
100
AcDbLine
 10
7.9376
 20
0.595331
 30
0.0
 11
7.940158
 21
0.5955
 31
0.0
210
0.0
220
0.0
230
1.0
  0
LINE
  5
47D
100
AcDbEntity
  8
0
370
     5
390
0
 62
     7
 48
0.000068
100
AcDbLine
 10
7.940158
 20
0.5955
 30
0.0
 11
7.94287
 21
0.595557
 31
0.0
210
0.0
220
0.0
230
1.0
  0
LINE
  5
47E
100
AcDbEntity
  8
0
370
     5
390
0
 62
     7
 48
0.00005
100
AcDbLine
 10
7.94287
 20
0.595557
 30
0.0
 11
7.944881
 21
0.595532
 31
0.0
210
0.0
220
0.0
230
1.0
  0
LINE
  5
47F
100
AcDbEntity
  8
0
370
     5
390
0
 62
     7
 48
0.000051
100
AcDbLine
 10
7.944881
 20
0.595532
 30
0.0
 11
7.946936
 21
0.595454
 31
0.0
210
0.0
220
0.0
230
1.0
  0
LINE
  5
480
100
AcDbEntity
  8
0
370
     5
390
0
 62
     7
 48
0.000053
100
AcDbLine
 10
7.946936
 20
0.595454
 30
0.0
 11
7.949034
 21
0.595323
 31
0.0
210
0.0
220
0.0
230
1.0
  0
LINE
  5
481
100
AcDbEntity
  8
0
370
     5
390
0
 62
     7
 48
0.000054
100
AcDbLine
 10
7.949034
 20
0.595323
 30
0.0
 11
7.951177
 21
0.595142
 31
0.0
210
0.0
220
0.0
230
1.0
  0
LINE
  5
482
100
AcDbEntity
  8
0
370
     5
390
0
 62
     7
 48
0.000055
100
AcDbLine
 10
7.951177
 20
0.595142
 30
0.0
 11
7.953361
 21
0.594908
 31
0.0
210
0.0
220
0.0
230
1.0
  0
LINE
  5
483
100
AcDbEntity
  8
0
370
     5
390
0
 62
     7
 48
0.000136
100
AcDbLine
 10
7.953361
 20
0.594908
 30
0.0
 11
7.952171
 21
0.589608
 31
0.0
210
0.0
220
0.0
230
1.0
  0
LINE
  5
484
100
AcDbEntity
  8
0
370
     5
390
0
 62
     7
 48
0.000162
100
AcDbLine
 10
7.952171
 20
0.589608
 30
0.0
 11
7.945682
 21
0.589716
 31
0.0
210
0.0
220
0.0
230
1.0
  0
LINE
  5
485
100
AcDbEntity
  8
0
370
     5
390
0
 62
     7
 48
0.00006
100
AcDbLine
 10
7.945682
 20
0.589716
 30
0.0
 11
7.943286
 21
0.589667
 31
0.0
210
0.0
220
0.0
230
1.0
  0
LINE
  5
486
100
AcDbEntity
  8
0
370
     5
390
0
 62
     7
 48
0.000057
100
AcDbLine
 10
7.943286
 20
0.589667
 30
0.0
 11
7.941029
 21
0.589518
 31
0.0
210
0.0
220
0.0
230
1.0
  0
LINE
  5
487
100
AcDbEntity
  8
0
370
     5
390
0
 62
     7
 48
0.000053
100
AcDbLine
 10
7.941029
 20
0.589518
 30
0.0
 11
7.938912
 21
0.589269
 31
0.0
210
0.0
220
0.0
230
1.0
  0
LINE
  5
488
100
AcDbEntity
  8
0
370
     5
390
0
 62
     7
 48
0.00005
100
AcDbLine
 10
7.938912
 20
0.589269
 30
0.0
 11
7.936934
 21
0.588921
 31
0.0
210
0.0
220
0.0
230
1.0
  0
LINE
  5
489
100
AcDbEntity
  8
0
370
     5
390
0
 62
     7
 48
0.000047
100
AcDbLine
 10
7.936934
 20
0.588921
 30
0.0
 11
7.935095
 21
0.588473
 31
0.0
210
0.0
220
0.0
230
1.0
  0
LINE
  5
48A
100
AcDbEntity
  8
0
370
     5
390
0
 62
     7
 48
0.000045
100
AcDbLine
 10
7.935095
 20
0.588473
 30
0.0
 11
7.933397
 21
0.587925
 31
0.0
210
0.0
220
0.0
230
1.0
  0
LINE
  5
48B
100
AcDbEntity
  8
0
370
     5
390
0
 62
     7
 48
0.000042
100
AcDbLine
 10
7.933397
 20
0.587925
 30
0.0
 11
7.931839
 21
0.587279
 31
0.0
210
0.0
220
0.0
230
1.0
  0
LINE
  5
48C
100
AcDbEntity
  8
0
370
     5
390
0
 62
     7
 48
0.00004
100
AcDbLine
 10
7.931839
 20
0.587279
 30
0.0
 11
7.930418
 21
0.586532
 31
0.0
210
0.0
220
0.0
230
1.0
  0
LINE
  5
48D
100
AcDbEntity
  8
0
370
     5
390
0
 62
     7
 48
0.000038
100
AcDbLine
 10
7.930418
 20
0.586532
 30
0.0
 11
7.929138
 21
0.585687
 31
0.0
210
0.0
220
0.0
230
1.0
  0
LINE
  5
48E
100
AcDbEntity
  8
0
370
     5
390
0
 62
     7
 48
0.000074
100
AcDbLine
 10
7.929138
 20
0.585687
 30
0.0
 11
7.926968
 21
0.58367
 31
0.0
210
0.0
220
0.0
230
1.0
  0
LINE
  5
48F
100
AcDbEntity
  8
0
370
     5
390
0
 62
     7
 48
0.000039
100
AcDbLine
 10
7.926968
 20
0.58367
 30
0.0
 11
7.926023
 21
0.582444
 31
0.0
210
0.0
220
0.0
230
1.0
  0
LINE
  5
490
100
AcDbEntity
  8
0
370
     5
390
0
 62
     7
 48
0.000041
100
AcDbLine
 10
7.926023
 20
0.582444
 30
0.0
 11
7.92516
 21
0.581064
 31
0.0
210
0.0
220
0.0
230
1.0
  0
LINE
  5
491
100
AcDbEntity
  8
0
370
     5
390
0
 62
     7
 48
0.000043
100
AcDbLine
 10
7.92516
 20
0.581064
 30
0.0
 11
7.924381
 21
0.579533
 31
0.0
210
0.0
220
0.0
230
1.0
  0
LINE
  5
492
100
AcDbEntity
  8
0
370
     5
390
0
 62
     7
 48
0.000046
100
AcDbLine
 10
7.924381
 20
0.579533
 30
0.0
 11
7.923684
 21
0.577847
 31
0.0
210
0.0
220
0.0
230
1.0
  0
LINE
  5
493
100
AcDbEntity
  8
0
370
     5
390
0
 62
     7
 48
0.000048
100
AcDbLine
 10
7.923684
 20
0.577847
 30
0.0
 11
7.923073
 21
0.576006
 31
0.0
210
0.0
220
0.0
230
1.0
  0
LINE
  5
494
100
AcDbEntity
  8
0
370
     5
390
0
 62
     7
 48
0.000052
100
AcDbLine
 10
7.923073
 20
0.576006
 30
0.0
 11
7.922543
 21
0.574013
 31
0.0
210
0.0
220
0.0
230
1.0
  0
LINE
  5
495
100
AcDbEntity
  8
0
370
     5
390
0
 62
     7
 48
0.000055
100
AcDbLine
 10
7.922543
 20
0.574013
 30
0.0
 11
7.922096
 21
0.571866
 31
0.0
210
0.0
220
0.0
230
1.0
  0
LINE
  5
496
100
AcDbEntity
  8
0
370
     5
390
0
 62
     7
 48
0.000058
100
AcDbLine
 10
7.922096
 20
0.571866
 30
0.0
 11
7.921734
 21
0.569565
 31
0.0
210
0.0
220
0.0
230
1.0
  0
LINE
  5
497
100
AcDbEntity
  8
0
370
     5
390
0
 62
     7
 48
0.000062
100
AcDbLine
 10
7.921734
 20
0.569565
 30
0.0
 11
7.921454
 21
0.567111
 31
0.0
210
0.0
220
0.0
230
1.0
  0
LINE
  5
498
100
AcDbEntity
  8
0
370
     5
390
0
 62
     7
 48
0.00007
100
AcDbLine
 10
7.921454
 20
0.567111
 30
0.0
 11
7.924266
 21
0.567111
 31
0.0
210
0.0
220
0.0
230
1.0
  0
LINE
  5
499
100
AcDbEntity
  8
0
370
     5
390
0
 62
     7
 48
0.000054
100
AcDbLine
 10
7.924266
 20
0.567111
 30
0.0
 11
7.924478
 21
0.569252
 31
0.0
210
0.0
220
0.0
230
1.0
  0
LINE
  5
49A
100
AcDbEntity
  8
0
370
     5
390
0
 62
     7
 48
0.000051
100
AcDbLine
 10
7.924478
 20
0.569252
 30
0.0
 11
7.924766
 21
0.571259
 31
0.0
210
0.0
220
0.0
230
1.0
  0
LINE
  5
49B
100
AcDbEntity
  8
0
370
     5
390
0
 62
     7
 48
0.000048
100
AcDbLine
 10
7.924766
 20
0.571259
 30
0.0
 11
7.92513
 21
0.573132
 31
0.0
210
0.0
220
0.0
230
1.0
  0
LINE
  5
49C
100
AcDbEntity
  8
0
370
     5
390
0
 62
     7
 48
0.000045
100
AcDbLine
 10
7.92513
 20
0.573132
 30
0.0
 11
7.925573
 21
0.574872
 31
0.0
210
0.0
220
0.0
230
1.0
  0
LINE
  5
49D
100
AcDbEntity
  8
0
370
     5
390
0
 62
     7
 48
0.000042
100
AcDbLine
 10
7.925573
 20
0.574872
 30
0.0
 11
7.926092
 21
0.57648
 31
0.0
210
0.0
220
0.0
230
1.0
  0
LINE
  5
49E
100
AcDbEntity
  8
0
370
     5
390
0
 62
     7
 48
0.000077
100
AcDbLine
 10
7.926092
 20
0.57648
 30
0.0
 11
7.92736
 21
0.579297
 31
0.0
210
0.0
220
0.0
230
1.0
  0
LINE
  5
49F
100
AcDbEntity
  8
0
370
     5
390
0
 62
     7
 48
0.000069
100
AcDbLine
 10
7.92736
 20
0.579297
 30
0.0
 11
7.928935
 21
0.581582
 31
0.0
210
0.0
220
0.0
230
1.0
  0
LINE
  5
4A0
100
AcDbEntity
  8
0
370
     5
390
0
 62
     7
 48
0.000065
100
AcDbLine
 10
7.928935
 20
0.581582
 30
0.0
 11
7.930843
 21
0.583356
 31
0.0
210
0.0
220
0.0
230
1.0
  0
LINE
  5
4A1
100
AcDbEntity
  8
0
370
     5
390
0
 62
     7
 48
0.000069
100
AcDbLine
 10
7.930843
 20
0.583356
 30
0.0
 11
7.93324
 21
0.584759
 31
0.0
210
0.0
220
0.0
230
1.0
  0
LINE
  5
4A2
100
AcDbEntity
  8
0
370
     5
390
0
 62
     7
 48
0.000038
100
AcDbLine
 10
7.93324
 20
0.584759
 30
0.0
 11
7.93463
 21
0.585327
 31
0.0
210
0.0
220
0.0
230
1.0
  0
LINE
  5
4A3
100
AcDbEntity
  8
0
370
     5
390
0
 62
     7
 48
0.00004
100
AcDbLine
 10
7.93463
 20
0.585327
 30
0.0
 11
7.936151
 21
0.585809
 31
0.0
210
0.0
220
0.0
230
1.0
  0
LINE
  5
4A4
100
AcDbEntity
  8
0
370
     5
390
0
 62
     7
 48
0.000042
100
AcDbLine
 10
7.936151
 20
0.585809
 30
0.0
 11
7.937799
 21
0.586203
 31
0.0
210
0.0
220
0.0
230
1.0
  0
LINE
  5
4A5
100
AcDbEntity
  8
0
370
     5
390
0
 62
     7
 48
0.000045
100
AcDbLine
 10
7.937799
 20
0.586203
 30
0.0
 11
7.939577
 21
0.586511
 31
0.0
210
0.0
220
0.0
230
1.0
  0
LINE
  5
4A6
100
AcDbEntity
  8
0
370
     5
390
0
 62
     7
 48
0.000048
100
AcDbLine
 10
7.939577
 20
0.586511
 30
0.0
 11
7.941484
 21
0.58673
 31
0.0
210
0.0
220
0.0
230
1.0
  0
LINE
  5
4A7
100
AcDbEntity
  8
0
370
     5
390
0
 62
     7
 48
0.000051
100
AcDbLine
 10
7.941484
 20
0.58673
 30
0.0
 11
7.943519
 21
0.58686
 31
0.0
210
0.0
220
0.0
230
1.0
  0
LINE
  5
4A8
100
AcDbEntity
  8
0
370
     5
390
0
 62
     7
 48
0.000054
100
AcDbLine
 10
7.943519
 20
0.58686
 30
0.0
 11
7.945682
 21
0.586905
 31
0.0
210
0.0
220
0.0
230
1.0
  0
LINE
  5
4A9
100
AcDbEntity
  8
0
370
     5
390
0
 62
     7
 48
0.000192
100
AcDbLine
 10
7.945682
 20
0.586905
 30
0.0
 11
7.953361
 21
0.586796
 31
0.0
210
0.0
220
0.0
230
1.0
  0
LINE
  5
4AA
100
AcDbEntity
  8
0
370
     5
390
0
 62
     7
 48
0.00269
100
AcDbLine
 10
7.953361
 20
0.586796
 30
0.0
 11
7.953361
 21
0.479178
 31
0.0
210
0.0
220
0.0
230
1.0
  0
LINE
  5
4AB
100
AcDbEntity
  8
0
370
     5
390
0
 62
     7
 48
0.000493
100
AcDbLine
 10
7.953361
 20
0.479178
 30
0.0
 11
7.93822
 21
0.466523
 31
0.0
210
0.0
220
0.0
230
1.0
  0
LINE
  5
4AC
100
AcDbEntity
  8
0
370
     5
390
0
 62
     7
 48
0.001236
100
AcDbLine
 10
7.93822
 20
0.466523
 30
0.0
 11
7.987647
 21
0.466523
 31
0.0
210
0.0
220
0.0
230
1.0
  0
LINE
  5
4AD
100
AcDbEntity
  8
0
370
     5
390
0
 62
     7
 48
0.000434
100
AcDbLine
 10
7.987647
 20
0.466523
 30
0.0
 11
7.974885
 21
0.478313
 31
0.0
210
0.0
220
0.0
230
1.0
  0
LINE
  5
4AE
100
AcDbEntity
  8
0
370
     5
390
0
 62
     7
 48
0.002931
100
AcDbLine
 10
7.974885
 20
0.478313
 30
0.0
 11
7.976183
 21
0.595557
 31
0.0
210
0.0
220
0.0
230
1.0
  0
LINE
  5
4AF
100
AcDbEntity
  8
0
370
     5
390
0
 62
     7
 48
0.000049
100
AcDbLine
 10
7.976183
 20
0.595557
 30
0.0
 11
7.97813
 21
0.595713
 31
0.0
210
0.0
220
0.0
230
1.0
  0
LINE
  5
4B0
100
AcDbEntity
  8
0
370
     5
390
0
 62
     7
 48
0.000049
100
AcDbLine
 10
7.97813
 20
0.595713
 30
0.0
 11
7.980077
 21
0.595835
 31
0.0
210
0.0
220
0.0
230
1.0
  0
LINE
  5
4B1
100
AcDbEntity
  8
0
370
     5
390
0
 62
     7
 48
0.000049
100
AcDbLine
 10
7.980077
 20
0.595835
 30
0.0
 11
7.982024
 21
0.59592
 31
0.0
210
0.0
220
0.0
230
1.0
  0
LINE
  5
4B2
100
AcDbEntity
  8
0
370
     5
390
0
 62
     7
 48
0.000049
100
AcDbLine
 10
7.982024
 20
0.59592
 30
0.0
 11
7.983971
 21
0.595973
 31
0.0
210
0.0
220
0.0
230
1.0
  0
LINE
  5
4B3
100
AcDbEntity
  8
0
370
     5
390
0
 62
     7
 48
0.000049
100
AcDbLine
 10
7.983971
 20
0.595973
 30
0.0
 11
7.985918
 21
0.595991
 31
0.0
210
0.0
220
0.0
230
1.0
  0
LINE
  5
4B4
100
AcDbEntity
  8
0
370
     5
390
0
 62
     7
 48
0.000058
100
AcDbLine
 10
7.985918
 20
0.595991
 30
0.0
 11
7.988236
 21
0.595943
 31
0.0
210
0.0
220
0.0
230
1.0
  0
LINE
  5
4B5
100
AcDbEntity
  8
0
370
     5
390
0
 62
     7
 48
0.000055
100
AcDbLine
 10
7.988236
 20
0.595943
 30
0.0
 11
7.990431
 21
0.595799
 31
0.0
210
0.0
220
0.0
230
1.0
  0
LINE
  5
4B6
100
AcDbEntity
  8
0
370
     5
390
0
 62
     7
 48
0.000052
100
AcDbLine
 10
7.990431
 20
0.595799
 30
0.0
 11
7.992506
 21
0.595562
 31
0.0
210
0.0
220
0.0
230
1.0
  0
LINE
  5
4B7
100
AcDbEntity
  8
0
370
     5
390
0
 62
     7
 48
0.000049
100
AcDbLine
 10
7.992506
 20
0.595562
 30
0.0
 11
7.994457
 21
0.595229
 31
0.0
210
0.0
220
0.0
230
1.0
  0
LINE
  5
4B8
100
AcDbEntity
  8
0
370
     5
390
0
 62
     7
 48
0.000047
100
AcDbLine
 10
7.994457
 20
0.595229
 30
0.0
 11
7.996287
 21
0.5948
 31
0.0
210
0.0
220
0.0
230
1.0
  0
LINE
  5
4B9
100
AcDbEntity
  8
0
370
     5
390
0
 62
     7
 48
0.000045
100
AcDbLine
 10
7.996287
 20
0.5948
 30
0.0
 11
7.997995
 21
0.594276
 31
0.0
210
0.0
220
0.0
230
1.0
  0
LINE
  5
4BA
100
AcDbEntity
  8
0
370
     5
390
0
 62
     7
 48
0.000043
100
AcDbLine
 10
7.997995
 20
0.594276
 30
0.0
 11
7.99958
 21
0.593658
 31
0.0
210
0.0
220
0.0
230
1.0
  0
LINE
  5
4BB
100
AcDbEntity
  8
0
370
     5
390
0
 62
     7
 48
0.000041
100
AcDbLine
 10
7.99958
 20
0.593658
 30
0.0
 11
8.001043
 21
0.592944
 31
0.0
210
0.0
220
0.0
230
1.0
  0
LINE
  5
4BC
100
AcDbEntity
  8
0
370
     5
390
0
 62
     7
 48
0.000039
100
AcDbLine
 10
8.001043
 20
0.592944
 30
0.0
 11
8.002384
 21
0.592136
 31
0.0
210
0.0
220
0.0
230
1.0
  0
LINE
  5
4BD
100
AcDbEntity
  8
0
370
     5
390
0
 62
     7
 48
0.000038
100
AcDbLine
 10
8.002384
 20
0.592136
 30
0.0
 11
8.003601
 21
0.591231
 31
0.0
210
0.0
220
0.0
230
1.0
  0
LINE
  5
4BE
100
AcDbEntity
  8
0
370
     5
390
0
 62
     7
 48
0.000038
100
AcDbLine
 10
8.003601
 20
0.591231
 30
0.0
 11
8.004733
 21
0.590204
 31
0.0
210
0.0
220
0.0
230
1.0
  0
LINE
  5
4BF
100
AcDbEntity
  8
0
370
     5
390
0
 62
     7
 48
0.00004
100
AcDbLine
 10
8.004733
 20
0.590204
 30
0.0
 11
8.00581
 21
0.589025
 31
0.0
210
0.0
220
0.0
230
1.0
  0
LINE
  5
4C0
100
AcDbEntity
  8
0
370
     5
390
0
 62
     7
 48
0.000042
100
AcDbLine
 10
8.00581
 20
0.589025
 30
0.0
 11
8.006836
 21
0.587694
 31
0.0
210
0.0
220
0.0
230
1.0
  0
LINE
  5
4C1
100
AcDbEntity
  8
0
370
     5
390
0
 62
     7
 48
0.000044
100
AcDbLine
 10
8.006836
 20
0.587694
 30
0.0
 11
8.007806
 21
0.586212
 31
0.0
210
0.0
220
0.0
230
1.0
  0
LINE
  5
4C2
100
AcDbEntity
  8
0
370
     5
390
0
 62
     7
 48
0.000047
100
AcDbLine
 10
8.007806
 20
0.586212
 30
0.0
 11
8.008726
 21
0.584579
 31
0.0
210
0.0
220
0.0
230
1.0
  0
LINE
  5
4C3
100
AcDbEntity
  8
0
370
     5
390
0
 62
     7
 48
0.00005
100
AcDbLine
 10
8.008726
 20
0.584579
 30
0.0
 11
8.009591
 21
0.582795
 31
0.0
210
0.0
220
0.0
230
1.0
  0
LINE
  5
4C4
100
AcDbEntity
  8
0
370
     5
390
0
 62
     7
 48
0.000053
100
AcDbLine
 10
8.009591
 20
0.582795
 30
0.0
 11
8.010404
 21
0.580859
 31
0.0
210
0.0
220
0.0
230
1.0
  0
LINE
  5
4C5
100
AcDbEntity
  8
0
370
     5
390
0
 62
     7
 48
0.000056
100
AcDbLine
 10
8.010404
 20
0.580859
 30
0.0
 11
8.011163
 21
0.578771
 31
0.0
210
0.0
220
0.0
230
1.0
  0
LINE
  5
4C6
100
AcDbEntity
  8
0
370
     5
390
0
 62
     7
 48
0.000059
100
AcDbLine
 10
8.011163
 20
0.578771
 30
0.0
 11
8.011871
 21
0.576531
 31
0.0
210
0.0
220
0.0
230
1.0
  0
LINE
  5
4C7
100
AcDbEntity
  8
0
370
     5
390
0
 62
     7
 48
0.000062
100
AcDbLine
 10
8.011871
 20
0.576531
 30
0.0
 11
8.012525
 21
0.574142
 31
0.0
210
0.0
220
0.0
230
1.0
  0
LINE
  5
4C8
100
AcDbEntity
  8
0
370
     5
390
0
 62
     7
 48
0.000057
100
AcDbLine
 10
8.012525
 20
0.574142
 30
0.0
 11
8.014147
 21
0.572519
 31
0.0
210
0.0
220
0.0
230
1.0
  0
LINE
  5
4C9
100
AcDbEntity
  8
0
370
     5
390
0
 62
     7
 48
0.000054
100
AcDbLine
 10
8.014147
 20
0.572519
 30
0.0
 11
8.014802
 21
0.574562
 31
0.0
210
0.0
220
0.0
230
1.0
  0
LINE
  5
4CA
100
AcDbEntity
  8
0
370
     5
390
0
 62
     7
 48
0.000052
100
AcDbLine
 10
8.014802
 20
0.574562
 30
0.0
 11
8.015467
 21
0.576534
 31
0.0
210
0.0
220
0.0
230
1.0
  0
LINE
  5
4CB
100
AcDbEntity
  8
0
370
     5
390
0
 62
     7
 48
0.000051
100
AcDbLine
 10
8.015467
 20
0.576534
 30
0.0
 11
8.016143
 21
0.578438
 31
0.0
210
0.0
220
0.0
230
1.0
  0
LINE
  5
4CC
100
AcDbEntity
  8
0
370
     5
390
0
 62
     7
 48
0.000049
100
AcDbLine
 10
8.016143
 20
0.578438
 30
0.0
 11
8.01683
 21
0.580272
 31
0.0
210
0.0
220
0.0
230
1.0
  0
LINE
  5
4CD
100
AcDbEntity
  8
0
370
     5
390
0
 62
     7
 48
0.000047
100
AcDbLine
 10
8.01683
 20
0.580272
 30
0.0
 11
8.017528
 21
0.582038
 31
0.0
210
0.0
220
0.0
230
1.0
  0
LINE
  5
4CE
100
AcDbEntity
  8
0
370
     5
390
0
 62
     7
 48
0.000046
100
AcDbLine
 10
8.017528
 20
0.582038
 30
0.0
 11
8.018235
 21
0.583734
 31
0.0
210
0.0
220
0.0
230
1.0
  0
LINE
  5
4CF
100
AcDbEntity
  8
0
370
     5
390
0
 62
     7
 48
0.000044
100
AcDbLine
 10
8.018235
 20
0.583734
 30
0.0
 11
8.018954
 21
0.58536
 31
0.0
210
0.0
220
0.0
230
1.0
  0
LINE
  5
4D0
100
AcDbEntity
  8
0
370
     5
390
0
 62
     7
 48
0.000043
100
AcDbLine
 10
8.018954
 20
0.58536
 30
0.0
 11
8.019684
 21
0.586917
 31
0.0
210
0.0
220
0.0
230
1.0
  0
LINE
  5
4D1
100
AcDbEntity
  8
0
370
     5
390
0
 62
     7
 48
0.000042
100
AcDbLine
 10
8.019684
 20
0.586917
 30
0.0
 11
8.020426
 21
0.588405
 31
0.0
210
0.0
220
0.0
230
1.0
  0
LINE
  5
4D2
100
AcDbEntity
  8
0
370
     5
390
0
 62
     7
 48
0.00004
100
AcDbLine
 10
8.020426
 20
0.588405
 30
0.0
 11
8.021177
 21
0.589826
 31
0.0
210
0.0
220
0.0
230
1.0
  0
LINE
  5
4D3
100
AcDbEntity
  8
0
370
     5
390
0
 62
     7
 48
0.0004
100
AcDbLine
 10
8.021177
 20
0.589826
 30
0.0
 11
8.029019
 21
0.60375
 31
0.0
210
0.0
220
0.0
230
1.0
  0
LINE
  5
4D4
100
AcDbEntity
  8
0
370
     5
390
0
 62
     7
 48
0.000044
100
AcDbLine
 10
8.029019
 20
0.60375
 30
0.0
 11
8.029831
 21
0.605292
 31
0.0
210
0.0
220
0.0
230
1.0
  0
ENDBLK
  5
4D5
100
AcDbEntity
  8
0
390
0
100
AcDbBlockEnd
  0
BLOCK
  5
4D6
100
AcDbEntity
  8
0
370
     0
390
0
100
AcDbBlockBegin
  2
BLOCK6
 70
     0
 10
0.0
 20
0.0
 30
0.0
  3
BLOCK6
  1

  0
LINE
  5
4D7
100
AcDbEntity
  8
0
370
     5
390
0
 62
     7
 48
0.000505
100
AcDbLine
 10
8.03978
 20
0.605292
 30
0.0
 11
8.054382
 21
0.591339
 31
0.0
210
0.0
220
0.0
230
1.0
  0
LINE
  5
4D8
100
AcDbEntity
  8
0
370
     5
390
0
 62
     7
 48
0.001141
100
AcDbLine
 10
8.054382
 20
0.591339
 30
0.0
 11
8.054382
 21
0.545696
 31
0.0
210
0.0
220
0.0
230
1.0
  0
LINE
  5
4D9
100
AcDbEntity
  8
0
370
     5
390
0
 62
     7
 48
0.00008
100
AcDbLine
 10
8.054382
 20
0.545696
 30
0.0
 11
8.051189
 21
0.545309
 31
0.0
210
0.0
220
0.0
230
1.0
  0
LINE
  5
4DA
100
AcDbEntity
  8
0
370
     5
390
0
 62
     7
 48
0.000076
100
AcDbLine
 10
8.051189
 20
0.545309
 30
0.0
 11
8.048231
 21
0.544665
 31
0.0
210
0.0
220
0.0
230
1.0
  0
LINE
  5
4DB
100
AcDbEntity
  8
0
370
     5
390
0
 62
     7
 48
0.000072
100
AcDbLine
 10
8.048231
 20
0.544665
 30
0.0
 11
8.045504
 21
0.543768
 31
0.0
210
0.0
220
0.0
230
1.0
  0
LINE
  5
4DC
100
AcDbEntity
  8
0
370
     5
390
0
 62
     7
 48
0.000069
100
AcDbLine
 10
8.045504
 20
0.543768
 30
0.0
 11
8.043013
 21
0.542615
 31
0.0
210
0.0
220
0.0
230
1.0
  0
LINE
  5
4DD
100
AcDbEntity
  8
0
370
     5
390
0
 62
     7
 48
0.000067
100
AcDbLine
 10
8.043013
 20
0.542615
 30
0.0
 11
8.040755
 21
0.541208
 31
0.0
210
0.0
220
0.0
230
1.0
  0
LINE
  5
4DE
100
AcDbEntity
  8
0
370
     5
390
0
 62
     7
 48
0.000066
100
AcDbLine
 10
8.040755
 20
0.541208
 30
0.0
 11
8.03873
 21
0.539544
 31
0.0
210
0.0
220
0.0
230
1.0
  0
LINE
  5
4DF
100
AcDbEntity
  8
0
370
     5
390
0
 62
     7
 48
0.000066
100
AcDbLine
 10
8.03873
 20
0.539544
 30
0.0
 11
8.036938
 21
0.537626
 31
0.0
210
0.0
220
0.0
230
1.0
  0
LINE
  5
4E0
100
AcDbEntity
  8
0
370
     5
390
0
 62
     7
 48
0.000067
100
AcDbLine
 10
8.036938
 20
0.537626
 30
0.0
 11
8.03538
 21
0.535451
 31
0.0
210
0.0
220
0.0
230
1.0
  0
LINE
  5
4E1
100
AcDbEntity
  8
0
370
     5
390
0
 62
     7
 48
0.000069
100
AcDbLine
 10
8.03538
 20
0.535451
 30
0.0
 11
8.034058
 21
0.533022
 31
0.0
210
0.0
220
0.0
230
1.0
  0
LINE
  5
4E2
100
AcDbEntity
  8
0
370
     5
390
0
 62
     7
 48
0.000072
100
AcDbLine
 10
8.034058
 20
0.533022
 30
0.0
 11
8.032967
 21
0.530337
 31
0.0
210
0.0
220
0.0
230
1.0
  0
LINE
  5
4E3
100
AcDbEntity
  8
0
370
     5
390
0
 62
     7
 48
0.000047
100
AcDbLine
 10
8.032967
 20
0.530337
 30
0.0
 11
8.033725
 21
0.528606
 31
0.0
210
0.0
220
0.0
230
1.0
  0
LINE
  5
4E4
100
AcDbEntity
  8
0
370
     5
390
0
 62
     7
 48
0.000054
100
AcDbLine
 10
8.033725
 20
0.528606
 30
0.0
 11
8.035222
 21
0.530168
 31
0.0
210
0.0
220
0.0
230
1.0
  0
LINE
  5
4E5
100
AcDbEntity
  8
0
370
     5
390
0
 62
     7
 48
0.000052
100
AcDbLine
 10
8.035222
 20
0.530168
 30
0.0
 11
8.036774
 21
0.531566
 31
0.0
210
0.0
220
0.0
230
1.0
  0
LINE
  5
4E6
100
AcDbEntity
  8
0
370
     5
390
0
 62
     7
 48
0.000051
100
AcDbLine
 10
8.036774
 20
0.531566
 30
0.0
 11
8.038381
 21
0.532799
 31
0.0
210
0.0
220
0.0
230
1.0
  0
LINE
  5
4E7
100
AcDbEntity
  8
0
370
     5
390
0
 62
     7
 48
0.000049
100
AcDbLine
 10
8.038381
 20
0.532799
 30
0.0
 11
8.04004
 21
0.533868
 31
0.0
210
0.0
220
0.0
230
1.0
  0
LINE
  5
4E8
100
AcDbEntity
  8
0
370
     5
390
0
 62
     7
 48
0.000048
100
AcDbLine
 10
8.04004
 20
0.533868
 30
0.0
 11
8.041754
 21
0.534771
 31
0.0
210
0.0
220
0.0
230
1.0
  0
LINE
  5
4E9
100
AcDbEntity
  8
0
370
     5
390
0
 62
     7
 48
0.000048
100
AcDbLine
 10
8.041754
 20
0.534771
 30
0.0
 11
8.043522
 21
0.535512
 31
0.0
210
0.0
220
0.0
230
1.0
  0
LINE
  5
4EA
100
AcDbEntity
  8
0
370
     5
390
0
 62
     7
 48
0.000048
100
AcDbLine
 10
8.043522
 20
0.535512
 30
0.0
 11
8.045345
 21
0.536087
 31
0.0
210
0.0
220
0.0
230
1.0
  0
LINE
  5
4EB
100
AcDbEntity
  8
0
370
     5
390
0
 62
     7
 48
0.000048
100
AcDbLine
 10
8.045345
 20
0.536087
 30
0.0
 11
8.047222
 21
0.536498
 31
0.0
210
0.0
220
0.0
230
1.0
  0
LINE
  5
4EC
100
AcDbEntity
  8
0
370
     5
390
0
 62
     7
 48
0.000049
100
AcDbLine
 10
8.047222
 20
0.536498
 30
0.0
 11
8.049152
 21
0.536744
 31
0.0
210
0.0
220
0.0
230
1.0
  0
LINE
  5
4ED
100
AcDbEntity
  8
0
370
     5
390
0
 62
     7
 48
0.00005
100
AcDbLine
 10
8.049152
 20
0.536744
 30
0.0
 11
8.051138
 21
0.536826
 31
0.0
210
0.0
220
0.0
230
1.0
  0
LINE
  5
4EE
100
AcDbEntity
  8
0
370
     5
390
0
 62
     7
 48
0.000041
100
AcDbLine
 10
8.051138
 20
0.536826
 30
0.0
 11
8.052773
 21
0.536748
 31
0.0
210
0.0
220
0.0
230
1.0
  0
LINE
  5
4EF
100
AcDbEntity
  8
0
370
     5
390
0
 62
     7
 48
0.00004
100
AcDbLine
 10
8.052773
 20
0.536748
 30
0.0
 11
8.054382
 21
0.53661
 31
0.0
210
0.0
220
0.0
230
1.0
  0
LINE
  5
4F0
100
AcDbEntity
  8
0
370
     5
390
0
 62
     7
 48
0.000127
100
AcDbLine
 10
8.054382
 20
0.53661
 30
0.0
 11
8.054382
 21
0.531527
 31
0.0
210
0.0
220
0.0
230
1.0
  0
LINE
  5
4F1
100
AcDbEntity
  8
0
370
     5
390
0
 62
     7
 48
0.000051
100
AcDbLine
 10
8.054382
 20
0.531527
 30
0.0
 11
8.052347
 21
0.531458
 31
0.0
210
0.0
220
0.0
230
1.0
  0
LINE
  5
4F2
100
AcDbEntity
  8
0
370
     5
390
0
 62
     7
 48
0.000049
100
AcDbLine
 10
8.052347
 20
0.531458
 30
0.0
 11
8.050394
 21
0.531249
 31
0.0
210
0.0
220
0.0
230
1.0
  0
LINE
  5
4F3
100
AcDbEntity
  8
0
370
     5
390
0
 62
     7
 48
0.000048
100
AcDbLine
 10
8.050394
 20
0.531249
 30
0.0
 11
8.048522
 21
0.530904
 31
0.0
210
0.0
220
0.0
230
1.0
  0
LINE
  5
4F4
100
AcDbEntity
  8
0
370
     5
390
0
 62
     7
 48
0.000046
100
AcDbLine
 10
8.048522
 20
0.530904
 30
0.0
 11
8.046733
 21
0.53042
 31
0.0
210
0.0
220
0.0
230
1.0
  0
LINE
  5
4F5
100
AcDbEntity
  8
0
370
     5
390
0
 62
     7
 48
0.000045
100
AcDbLine
 10
8.046733
 20
0.53042
 30
0.0
 11
8.045027
 21
0.529796
 31
0.0
210
0.0
220
0.0
230
1.0
  0
LINE
  5
4F6
100
AcDbEntity
  8
0
370
     5
390
0
 62
     7
 48
0.000045
100
AcDbLine
 10
8.045027
 20
0.529796
 30
0.0
 11
8.043403
 21
0.529035
 31
0.0
210
0.0
220
0.0
230
1.0
  0
LINE
  5
4F7
100
AcDbEntity
  8
0
370
     5
390
0
 62
     7
 48
0.000045
100
AcDbLine
 10
8.043403
 20
0.529035
 30
0.0
 11
8.041859
 21
0.528135
 31
0.0
210
0.0
220
0.0
230
1.0
  0
LINE
  5
4F8
100
AcDbEntity
  8
0
370
     5
390
0
 62
     7
 48
0.000045
100
AcDbLine
 10
8.041859
 20
0.528135
 30
0.0
 11
8.0404
 21
0.527097
 31
0.0
210
0.0
220
0.0
230
1.0
  0
LINE
  5
4F9
100
AcDbEntity
  8
0
370
     5
390
0
 62
     7
 48
0.000045
100
AcDbLine
 10
8.0404
 20
0.527097
 30
0.0
 11
8.039021
 21
0.52592
 31
0.0
210
0.0
220
0.0
230
1.0
  0
LINE
  5
4FA
100
AcDbEntity
  8
0
370
     5
390
0
 62
     7
 48
0.000046
100
AcDbLine
 10
8.039021
 20
0.52592
 30
0.0
 11
8.037725
 21
0.524604
 31
0.0
210
0.0
220
0.0
230
1.0
  0
LINE
  5
4FB
100
AcDbEntity
  8
0
370
     5
390
0
 62
     7
 48
0.000077
100
AcDbLine
 10
8.037725
 20
0.524604
 30
0.0
 11
8.03978
 21
0.522333
 31
0.0
210
0.0
220
0.0
230
1.0
  0
LINE
  5
4FC
100
AcDbEntity
  8
0
370
     5
390
0
 62
     7
 48
0.000044
100
AcDbLine
 10
8.03978
 20
0.522333
 30
0.0
 11
8.041057
 21
0.523526
 31
0.0
210
0.0
220
0.0
230
1.0
  0
LINE
  5
4FD
100
AcDbEntity
  8
0
370
     5
390
0
 62
     7
 48
0.000042
100
AcDbLine
 10
8.041057
 20
0.523526
 30
0.0
 11
8.042372
 21
0.524592
 31
0.0
210
0.0
220
0.0
230
1.0
  0
LINE
  5
4FE
100
AcDbEntity
  8
0
370
     5
390
0
 62
     7
 48
0.000041
100
AcDbLine
 10
8.042372
 20
0.524592
 30
0.0
 11
8.04373
 21
0.525533
 31
0.0
210
0.0
220
0.0
230
1.0
  0
LINE
  5
4FF
100
AcDbEntity
  8
0
370
     5
390
0
 62
     7
 48
0.000041
100
AcDbLine
 10
8.04373
 20
0.525533
 30
0.0
 11
8.045129
 21
0.526349
 31
0.0
210
0.0
220
0.0
230
1.0
  0
LINE
  5
500
100
AcDbEntity
  8
0
370
     5
390
0
 62
     7
 48
0.00004
100
AcDbLine
 10
8.045129
 20
0.526349
 30
0.0
 11
8.046567
 21
0.527039
 31
0.0
210
0.0
220
0.0
230
1.0
  0
LINE
  5
501
100
AcDbEntity
  8
0
370
     5
390
0
 62
     7
 48
0.00004
100
AcDbLine
 10
8.046567
 20
0.527039
 30
0.0
 11
8.048048
 21
0.527603
 31
0.0
210
0.0
220
0.0
230
1.0
  0
LINE
  5
502
100
AcDbEntity
  8
0
370
     5
390
0
 62
     7
 48
0.00004
100
AcDbLine
 10
8.048048
 20
0.527603
 30
0.0
 11
8.049571
 21
0.528042
 31
0.0
210
0.0
220
0.0
230
1.0
  0
LINE
  5
503
100
AcDbEntity
  8
0
370
     5
390
0
 62
     7
 48
0.00004
100
AcDbLine
 10
8.049571
 20
0.528042
 30
0.0
 11
8.051134
 21
0.528356
 31
0.0
210
0.0
220
0.0
230
1.0
  0
LINE
  5
504
100
AcDbEntity
  8
0
370
     5
390
0
 62
     7
 48
0.00004
100
AcDbLine
 10
8.051134
 20
0.528356
 30
0.0
 11
8.052737
 21
0.528543
 31
0.0
210
0.0
220
0.0
230
1.0
  0
LINE
  5
505
100
AcDbEntity
  8
0
370
     5
390
0
 62
     7
 48
0.000041
100
AcDbLine
 10
8.052737
 20
0.528543
 30
0.0
 11
8.054382
 21
0.528606
 31
0.0
210
0.0
220
0.0
230
1.0
  0
LINE
  5
506
100
AcDbEntity
  8
0
370
     5
390
0
 62
     7
 48
0.001163
100
AcDbLine
 10
8.054382
 20
0.528606
 30
0.0
 11
8.054382
 21
0.482097
 31
0.0
210
0.0
220
0.0
230
1.0
  0
LINE
  5
507
100
AcDbEntity
  8
0
370
     5
390
0
 62
     7
 48
0.000564
100
AcDbLine
 10
8.054382
 20
0.482097
 30
0.0
 11
8.036753
 21
0.468038
 31
0.0
210
0.0
220
0.0
230
1.0
  0
LINE
  5
508
100
AcDbEntity
  8
0
370
     5
390
0
 62
     7
 48
0.001328
100
AcDbLine
 10
8.036753
 20
0.468038
 30
0.0
 11
8.089859
 21
0.468038
 31
0.0
210
0.0
220
0.0
230
1.0
  0
LINE
  5
509
100
AcDbEntity
  8
0
370
     5
390
0
 62
     7
 48
0.000493
100
AcDbLine
 10
8.089859
 20
0.468038
 30
0.0
 11
8.076014
 21
0.482097
 31
0.0
210
0.0
220
0.0
230
1.0
  0
LINE
  5
50A
100
AcDbEntity
  8
0
370
     5
390
0
 62
     7
 48
0.001363
100
AcDbLine
 10
8.076014
 20
0.482097
 30
0.0
 11
8.076014
 21
0.53661
 31
0.0
210
0.0
220
0.0
230
1.0
  0
LINE
  5
50B
100
AcDbEntity
  8
0
370
     5
390
0
 62
     7
 48
0.000619
100
AcDbLine
 10
8.076014
 20
0.53661
 30
0.0
 11
8.100782
 21
0.53661
 31
0.0
210
0.0
220
0.0
230
1.0
  0
LINE
  5
50C
100
AcDbEntity
  8
0
370
     5
390
0
 62
     7
 48
0.000639
100
AcDbLine
 10
8.100782
 20
0.53661
 30
0.0
 11
8.118953
 21
0.518655
 31
0.0
210
0.0
220
0.0
230
1.0
  0
LINE
  5
50D
100
AcDbEntity
  8
0
370
     5
390
0
 62
     7
 48
0.001133
100
AcDbLine
 10
8.118953
 20
0.518655
 30
0.0
 11
8.118953
 21
0.563975
 31
0.0
210
0.0
220
0.0
230
1.0
  0
LINE
  5
50E
100
AcDbEntity
  8
0
370
     5
390
0
 62
     7
 48
0.000629
100
AcDbLine
 10
8.118953
 20
0.563975
 30
0.0
 11
8.101647
 21
0.545696
 31
0.0
210
0.0
220
0.0
230
1.0
  0
LINE
  5
50F
100
AcDbEntity
  8
0
370
     5
390
0
 62
     7
 48
0.000408
100
AcDbLine
 10
8.101647
 20
0.545696
 30
0.0
 11
8.085316
 21
0.545696
 31
0.0
210
0.0
220
0.0
230
1.0
  0
LINE
  5
510
100
AcDbEntity
  8
0
370
     5
390
0
 62
     7
 48
0.001044
100
AcDbLine
 10
8.085316
 20
0.545696
 30
0.0
 11
8.085316
 21
0.587445
 31
0.0
210
0.0
220
0.0
230
1.0
  0
LINE
  5
511
100
AcDbEntity
  8
0
370
     5
390
0
 62
     7
 48
0.000067
100
AcDbLine
 10
8.085316
 20
0.587445
 30
0.0
 11
8.087994
 21
0.58764
 31
0.0
210
0.0
220
0.0
230
1.0
  0
LINE
  5
512
100
AcDbEntity
  8
0
370
     5
390
0
 62
     7
 48
0.000063
100
AcDbLine
 10
8.087994
 20
0.58764
 30
0.0
 11
8.090491
 21
0.587792
 31
0.0
210
0.0
220
0.0
230
1.0
  0
LINE
  5
513
100
AcDbEntity
  8
0
370
     5
390
0
 62
     7
 48
0.000058
100
AcDbLine
 10
8.090491
 20
0.587792
 30
0.0
 11
8.092805
 21
0.5879
 31
0.0
210
0.0
220
0.0
230
1.0
  0
LINE
  5
514
100
AcDbEntity
  8
0
370
     5
390
0
 62
     7
 48
0.000053
100
AcDbLine
 10
8.092805
 20
0.5879
 30
0.0
 11
8.094938
 21
0.587964
 31
0.0
210
0.0
220
0.0
230
1.0
  0
LINE
  5
515
100
AcDbEntity
  8
0
370
     5
390
0
 62
     7
 48
0.000049
100
AcDbLine
 10
8.094938
 20
0.587964
 30
0.0
 11
8.09689
 21
0.587987
 31
0.0
210
0.0
220
0.0
230
1.0
  0
LINE
  5
516
100
AcDbEntity
  8
0
370
     5
390
0
 62
     7
 48
0.000063
100
AcDbLine
 10
8.09689
 20
0.587987
 30
0.0
 11
8.099417
 21
0.587969
 31
0.0
210
0.0
220
0.0
230
1.0
  0
LINE
  5
517
100
AcDbEntity
  8
0
370
     5
390
0
 62
     7
 48
0.00006
100
AcDbLine
 10
8.099417
 20
0.587969
 30
0.0
 11
8.101811
 21
0.587915
 31
0.0
210
0.0
220
0.0
230
1.0
  0
LINE
  5
518
100
AcDbEntity
  8
0
370
     5
390
0
 62
     7
 48
0.000056
100
AcDbLine
 10
8.101811
 20
0.587915
 30
0.0
 11
8.104068
 21
0.587826
 31
0.0
210
0.0
220
0.0
230
1.0
  0
LINE
  5
519
100
AcDbEntity
  8
0
370
     5
390
0
 62
     7
 48
0.000053
100
AcDbLine
 10
8.104068
 20
0.587826
 30
0.0
 11
8.106191
 21
0.5877
 31
0.0
210
0.0
220
0.0
230
1.0
  0
LINE
  5
51A
100
AcDbEntity
  8
0
370
     5
390
0
 62
     7
 48
0.00005
100
AcDbLine
 10
8.106191
 20
0.5877
 30
0.0
 11
8.108179
 21
0.58754
 31
0.0
210
0.0
220
0.0
230
1.0
  0
LINE
  5
51B
100
AcDbEntity
  8
0
370
     5
390
0
 62
     7
 48
0.000047
100
AcDbLine
 10
8.108179
 20
0.58754
 30
0.0
 11
8.110031
 21
0.587343
 31
0.0
210
0.0
220
0.0
230
1.0
  0
LINE
  5
51C
100
AcDbEntity
  8
0
370
     5
390
0
 62
     7
 48
0.000043
100
AcDbLine
 10
8.110031
 20
0.587343
 30
0.0
 11
8.111747
 21
0.587112
 31
0.0
210
0.0
220
0.0
230
1.0
  0
LINE
  5
51D
100
AcDbEntity
  8
0
370
     5
390
0
 62
     7
 48
0.00004
100
AcDbLine
 10
8.111747
 20
0.587112
 30
0.0
 11
8.113329
 21
0.586844
 31
0.0
210
0.0
220
0.0
230
1.0
  0
LINE
  5
51E
100
AcDbEntity
  8
0
370
     5
390
0
 62
     7
 48
0.000071
100
AcDbLine
 10
8.113329
 20
0.586844
 30
0.0
 11
8.116087
 21
0.586202
 31
0.0
210
0.0
220
0.0
230
1.0
  0
LINE
  5
51F
100
AcDbEntity
  8
0
370
     5
390
0
 62
     7
 48
0.000065
100
AcDbLine
 10
8.116087
 20
0.586202
 30
0.0
 11
8.118538
 21
0.585356
 31
0.0
210
0.0
220
0.0
230
1.0
  0
LINE
  5
520
100
AcDbEntity
  8
0
370
     5
390
0
 62
     7
 48
0.000066
100
AcDbLine
 10
8.118538
 20
0.585356
 30
0.0
 11
8.120915
 21
0.584246
 31
0.0
210
0.0
220
0.0
230
1.0
  0
LINE
  5
521
100
AcDbEntity
  8
0
370
     5
390
0
 62
     7
 48
0.000067
100
AcDbLine
 10
8.120915
 20
0.584246
 30
0.0
 11
8.123219
 21
0.582873
 31
0.0
210
0.0
220
0.0
230
1.0
  0
LINE
  5
522
100
AcDbEntity
  8
0
370
     5
390
0
 62
     7
 48
0.000069
100
AcDbLine
 10
8.123219
 20
0.582873
 30
0.0
 11
8.125449
 21
0.581235
 31
0.0
210
0.0
220
0.0
230
1.0
  0
LINE
  5
523
100
AcDbEntity
  8
0
370
     5
390
0
 62
     7
 48
0.000072
100
AcDbLine
 10
8.125449
 20
0.581235
 30
0.0
 11
8.127607
 21
0.579333
 31
0.0
210
0.0
220
0.0
230
1.0
  0
LINE
  5
524
100
AcDbEntity
  8
0
370
     5
390
0
 62
     7
 48
0.000063
100
AcDbLine
 10
8.127607
 20
0.579333
 30
0.0
 11
8.126338
 21
0.581511
 31
0.0
210
0.0
220
0.0
230
1.0
  0
LINE
  5
525
100
AcDbEntity
  8
0
370
     5
390
0
 62
     7
 48
0.000063
100
AcDbLine
 10
8.126338
 20
0.581511
 30
0.0
 11
8.124737
 21
0.583461
 31
0.0
210
0.0
220
0.0
230
1.0
  0
LINE
  5
526
100
AcDbEntity
  8
0
370
     5
390
0
 62
     7
 48
0.000065
100
AcDbLine
 10
8.124737
 20
0.583461
 30
0.0
 11
8.122807
 21
0.58518
 31
0.0
210
0.0
220
0.0
230
1.0
  0
LINE
  5
527
100
AcDbEntity
  8
0
370
     5
390
0
 62
     7
 48
0.000068
100
AcDbLine
 10
8.122807
 20
0.58518
 30
0.0
 11
8.120546
 21
0.586671
 31
0.0
210
0.0
220
0.0
230
1.0
  0
LINE
  5
528
100
AcDbEntity
  8
0
370
     5
390
0
 62
     7
 48
0.000072
100
AcDbLine
 10
8.120546
 20
0.586671
 30
0.0
 11
8.117954
 21
0.587933
 31
0.0
210
0.0
220
0.0
230
1.0
  0
LINE
  5
529
100
AcDbEntity
  8
0
370
     5
390
0
 62
     7
 48
0.000078
100
AcDbLine
 10
8.117954
 20
0.587933
 30
0.0
 11
8.115029
 21
0.588965
 31
0.0
210
0.0
220
0.0
230
1.0
  0
LINE
  5
52A
100
AcDbEntity
  8
0
370
     5
390
0
 62
     7
 48
0.000084
100
AcDbLine
 10
8.115029
 20
0.588965
 30
0.0
 11
8.111775
 21
0.589767
 31
0.0
210
0.0
220
0.0
230
1.0
  0
LINE
  5
52B
100
AcDbEntity
  8
0
370
     5
390
0
 62
     7
 48
0.000091
100
AcDbLine
 10
8.111775
 20
0.589767
 30
0.0
 11
8.108189
 21
0.59034
 31
0.0
210
0.0
220
0.0
230
1.0
  0
LINE
  5
52C
100
AcDbEntity
  8
0
370
     5
390
0
 62
     7
 48
0.000098
100
AcDbLine
 10
8.108189
 20
0.59034
 30
0.0
 11
8.104273
 21
0.590684
 31
0.0
210
0.0
220
0.0
230
1.0
  0
LINE
  5
52D
100
AcDbEntity
  8
0
370
     5
390
0
 62
     7
 48
0.000106
100
AcDbLine
 10
8.104273
 20
0.590684
 30
0.0
 11
8.100026
 21
0.590798
 31
0.0
210
0.0
220
0.0
230
1.0
  0
LINE
  5
52E
100
AcDbEntity
  8
0
370
     5
390
0
 62
     7
 48
0.000075
100
AcDbLine
 10
8.100026
 20
0.590798
 30
0.0
 11
8.097032
 21
0.590786
 31
0.0
210
0.0
220
0.0
230
1.0
  0
LINE
  5
52F
100
AcDbEntity
  8
0
370
     5
390
0
 62
     7
 48
0.000073
100
AcDbLine
 10
8.097032
 20
0.590786
 30
0.0
 11
8.094107
 21
0.590747
 31
0.0
210
0.0
220
0.0
230
1.0
  0
LINE
  5
530
100
AcDbEntity
  8
0
370
     5
390
0
 62
     7
 48
0.000071
100
AcDbLine
 10
8.094107
 20
0.590747
 30
0.0
 11
8.091251
 21
0.590682
 31
0.0
210
0.0
220
0.0
230
1.0
  0
LINE
  5
531
100
AcDbEntity
  8
0
370
     5
390
0
 62
     7
 48
0.00007
100
AcDbLine
 10
8.091251
 20
0.590682
 30
0.0
 11
8.088465
 21
0.590591
 31
0.0
210
0.0
220
0.0
230
1.0
  0
LINE
  5
532
100
AcDbEntity
  8
0
370
     5
390
0
 62
     7
 48
0.000068
100
AcDbLine
 10
8.088465
 20
0.590591
 30
0.0
 11
8.085749
 21
0.590474
 31
0.0
210
0.0
220
0.0
230
1.0
  0
LINE
  5
533
100
AcDbEntity
  8
0
370
     5
390
0
 62
     7
 48
0.000078
100
AcDbLine
 10
8.085749
 20
0.590474
 30
0.0
 11
8.082612
 21
0.590366
 31
0.0
210
0.0
220
0.0
230
1.0
  0
LINE
  5
534
100
AcDbEntity
  8
0
370
     5
390
0
 62
     7
 48
0.001117
100
AcDbLine
 10
8.082612
 20
0.590366
 30
0.0
 11
8.082612
 21
0.545696
 31
0.0
210
0.0
220
0.0
230
1.0
  0
LINE
  5
535
100
AcDbEntity
  8
0
370
     5
390
0
 62
     7
 48
0.000165
100
AcDbLine
 10
8.082612
 20
0.545696
 30
0.0
 11
8.076014
 21
0.545696
 31
0.0
210
0.0
220
0.0
230
1.0
  0
LINE
  5
536
100
AcDbEntity
  8
0
370
     5
390
0
 62
     7
 48
0.001265
100
AcDbLine
 10
8.076014
 20
0.545696
 30
0.0
 11
8.076014
 21
0.596315
 31
0.0
210
0.0
220
0.0
230
1.0
  0
LINE
  5
537
100
AcDbEntity
  8
0
370
     5
390
0
 62
     7
 48
0.0001
100
AcDbLine
 10
8.076014
 20
0.596315
 30
0.0
 11
8.080016
 21
0.596207
 31
0.0
210
0.0
220
0.0
230
1.0
  0
LINE
  5
538
100
AcDbEntity
  8
0
370
     5
390
0
 62
     7
 48
0.000262
100
AcDbLine
 10
8.080016
 20
0.596207
 30
0.0
 11
8.090507
 21
0.596099
 31
0.0
210
0.0
220
0.0
230
1.0
  0
LINE
  5
539
100
AcDbEntity
  8
0
370
     5
390
0
 62
     7
 48
0.000154
100
AcDbLine
 10
8.090507
 20
0.596099
 30
0.0
 11
8.096672
 21
0.596207
 31
0.0
210
0.0
220
0.0
230
1.0
  0
LINE
  5
53A
100
AcDbEntity
  8
0
370
     5
390
0
 62
     7
 48
0.00008
100
AcDbLine
 10
8.096672
 20
0.596207
 30
0.0
 11
8.099887
 21
0.596163
 31
0.0
210
0.0
220
0.0
230
1.0
  0
LINE
  5
53B
100
AcDbEntity
  8
0
370
     5
390
0
 62
     7
 48
0.000076
100
AcDbLine
 10
8.099887
 20
0.596163
 30
0.0
 11
8.102909
 21
0.596033
 31
0.0
210
0.0
220
0.0
230
1.0
  0
LINE
  5
53C
100
AcDbEntity
  8
0
370
     5
390
0
 62
     7
 48
0.000071
100
AcDbLine
 10
8.102909
 20
0.596033
 30
0.0
 11
8.10574
 21
0.595817
 31
0.0
210
0.0
220
0.0
230
1.0
  0
LINE
  5
53D
100
AcDbEntity
  8
0
370
     5
390
0
 62
     7
 48
0.000066
100
AcDbLine
 10
8.10574
 20
0.595817
 30
0.0
 11
8.108379
 21
0.595514
 31
0.0
210
0.0
220
0.0
230
1.0
  0
LINE
  5
53E
100
AcDbEntity
  8
0
370
     5
390
0
 62
     7
 48
0.000062
100
AcDbLine
 10
8.108379
 20
0.595514
 30
0.0
 11
8.110827
 21
0.595125
 31
0.0
210
0.0
220
0.0
230
1.0
  0
LINE
  5
53F
100
AcDbEntity
  8
0
370
     5
390
0
 62
     7
 48
0.000058
100
AcDbLine
 10
8.110827
 20
0.595125
 30
0.0
 11
8.113085
 21
0.594648
 31
0.0
210
0.0
220
0.0
230
1.0
  0
LINE
  5
540
100
AcDbEntity
  8
0
370
     5
390
0
 62
     7
 48
0.000054
100
AcDbLine
 10
8.113085
 20
0.594648
 30
0.0
 11
8.11515
 21
0.594086
 31
0.0
210
0.0
220
0.0
230
1.0
  0
LINE
  5
541
100
AcDbEntity
  8
0
370
     5
390
0
 62
     7
 48
0.00005
100
AcDbLine
 10
8.11515
 20
0.594086
 30
0.0
 11
8.117024
 21
0.593438
 31
0.0
210
0.0
220
0.0
230
1.0
  0
LINE
  5
542
100
AcDbEntity
  8
0
370
     5
390
0
 62
     7
 48
0.000046
100
AcDbLine
 10
8.117024
 20
0.593438
 30
0.0
 11
8.118707
 21
0.592701
 31
0.0
210
0.0
220
0.0
230
1.0
  0
LINE
  5
543
100
AcDbEntity
  8
0
370
     5
390
0
 62
     7
 48
0.000043
100
AcDbLine
 10
8.118707
 20
0.592701
 30
0.0
 11
8.120198
 21
0.591881
 31
0.0
210
0.0
220
0.0
230
1.0
  0
LINE
  5
544
100
AcDbEntity
  8
0
370
     5
390
0
 62
     7
 48
0.000043
100
AcDbLine
 10
8.120198
 20
0.591881
 30
0.0
 11
8.121594
 21
0.59091
 31
0.0
210
0.0
220
0.0
230
1.0
  0
LINE
  5
545
100
AcDbEntity
  8
0
370
     5
390
0
 62
     7
 48
0.000046
100
AcDbLine
 10
8.121594
 20
0.59091
 30
0.0
 11
8.122994
 21
0.589734
 31
0.0
210
0.0
220
0.0
230
1.0
  0
LINE
  5
546
100
AcDbEntity
  8
0
370
     5
390
0
 62
     7
 48
0.000049
100
AcDbLine
 10
8.122994
 20
0.589734
 30
0.0
 11
8.124398
 21
0.58835
 31
0.0
210
0.0
220
0.0
230
1.0
  0
LINE
  5
547
100
AcDbEntity
  8
0
370
     5
390
0
 62
     7
 48
0.000053
100
AcDbLine
 10
8.124398
 20
0.58835
 30
0.0
 11
8.125804
 21
0.586758
 31
0.0
210
0.0
220
0.0
230
1.0
  0
LINE
  5
548
100
AcDbEntity
  8
0
370
     5
390
0
 62
     7
 48
0.000057
100
AcDbLine
 10
8.125804
 20
0.586758
 30
0.0
 11
8.127215
 21
0.584958
 31
0.0
210
0.0
220
0.0
230
1.0
  0
LINE
  5
549
100
AcDbEntity
  8
0
370
     5
390
0
 62
     7
 48
0.000061
100
AcDbLine
 10
8.127215
 20
0.584958
 30
0.0
 11
8.128628
 21
0.582951
 31
0.0
210
0.0
220
0.0
230
1.0
  0
LINE
  5
54A
100
AcDbEntity
  8
0
370
     5
390
0
 62
     7
 48
0.000066
100
AcDbLine
 10
8.128628
 20
0.582951
 30
0.0
 11
8.130044
 21
0.580736
 31
0.0
210
0.0
220
0.0
230
1.0
  0
LINE
  5
54B
100
AcDbEntity
  8
0
370
     5
390
0
 62
     7
 48
0.00007
100
AcDbLine
 10
8.130044
 20
0.580736
 30
0.0
 11
8.131463
 21
0.578313
 31
0.0
210
0.0
220
0.0
230
1.0
  0
LINE
  5
54C
100
AcDbEntity
  8
0
370
     5
390
0
 62
     7
 48
0.000075
100
AcDbLine
 10
8.131463
 20
0.578313
 30
0.0
 11
8.132887
 21
0.575682
 31
0.0
210
0.0
220
0.0
230
1.0
  0
LINE
  5
54D
100
AcDbEntity
  8
0
370
     5
390
0
 62
     7
 48
0.000079
100
AcDbLine
 10
8.132887
 20
0.575682
 30
0.0
 11
8.134311
 21
0.572844
 31
0.0
210
0.0
220
0.0
230
1.0
  0
LINE
  5
54E
100
AcDbEntity
  8
0
370
     5
390
0
 62
     7
 48
0.000058
100
AcDbLine
 10
8.134311
 20
0.572844
 30
0.0
 11
8.135177
 21
0.575007
 31
0.0
210
0.0
220
0.0
230
1.0
  0
LINE
  5
54F
100
AcDbEntity
  8
0
370
     5
390
0
 62
     7
 48
0.000059
100
AcDbLine
 10
8.135177
 20
0.575007
 30
0.0
 11
8.136049
 21
0.577196
 31
0.0
210
0.0
220
0.0
230
1.0
  0
LINE
  5
550
100
AcDbEntity
  8
0
370
     5
390
0
 62
     7
 48
0.000056
100
AcDbLine
 10
8.136049
 20
0.577196
 30
0.0
 11
8.136889
 21
0.57926
 31
0.0
210
0.0
220
0.0
230
1.0
  0
LINE
  5
551
100
AcDbEntity
  8
0
370
     5
390
0
 62
     7
 48
0.000053
100
AcDbLine
 10
8.136889
 20
0.57926
 30
0.0
 11
8.137697
 21
0.581201
 31
0.0
210
0.0
220
0.0
230
1.0
  0
LINE
  5
552
100
AcDbEntity
  8
0
370
     5
390
0
 62
     7
 48
0.000049
100
AcDbLine
 10
8.137697
 20
0.581201
 30
0.0
 11
8.138474
 21
0.583019
 31
0.0
210
0.0
220
0.0
230
1.0
  0
LINE
  5
553
100
AcDbEntity
  8
0
370
     5
390
0
 62
     7
 48
0.000046
100
AcDbLine
 10
8.138474
 20
0.583019
 30
0.0
 11
8.13922
 21
0.584714
 31
0.0
210
0.0
220
0.0
230
1.0
  0
LINE
  5
554
100
AcDbEntity
  8
0
370
     5
390
0
 62
     7
 48
0.000043
100
AcDbLine
 10
8.13922
 20
0.584714
 30
0.0
 11
8.139935
 21
0.586286
 31
0.0
210
0.0
220
0.0
230
1.0
  0
LINE
  5
555
100
AcDbEntity
  8
0
370
     5
390
0
 62
     7
 48
0.00004
100
AcDbLine
 10
8.139935
 20
0.586286
 30
0.0
 11
8.140617
 21
0.587735
 31
0.0
210
0.0
220
0.0
230
1.0
  0
LINE
  5
556
100
AcDbEntity
  8
0
370
     5
390
0
 62
     7
 48
0.000071
100
AcDbLine
 10
8.140617
 20
0.587735
 30
0.0
 11
8.14189
 21
0.590261
 31
0.0
210
0.0
220
0.0
230
1.0
  0
LINE
  5
557
100
AcDbEntity
  8
0
370
     5
390
0
 62
     7
 48
0.000061
100
AcDbLine
 10
8.14189
 20
0.590261
 30
0.0
 11
8.143089
 21
0.592394
 31
0.0
210
0.0
220
0.0
230
1.0
  0
LINE
  5
558
100
AcDbEntity
  8
0
370
     5
390
0
 62
     7
 48
0.000069
100
AcDbLine
 10
8.143089
 20
0.592394
 30
0.0
 11
8.144543
 21
0.594729
 31
0.0
210
0.0
220
0.0
230
1.0
  0
LINE
  5
559
100
AcDbEntity
  8
0
370
     5
390
0
 62
     7
 48
0.000038
100
AcDbLine
 10
8.144543
 20
0.594729
 30
0.0
 11
8.145386
 21
0.596012
 31
0.0
210
0.0
220
0.0
230
1.0
  0
LINE
  5
55A
100
AcDbEntity
  8
0
370
     5
390
0
 62
     7
 48
0.000041
100
AcDbLine
 10
8.145386
 20
0.596012
 30
0.0
 11
8.146304
 21
0.597369
 31
0.0
210
0.0
220
0.0
230
1.0
  0
LINE
  5
55B
100
AcDbEntity
  8
0
370
     5
390
0
 62
     7
 48
0.000044
100
AcDbLine
 10
8.146304
 20
0.597369
 30
0.0
 11
8.1473
 21
0.598802
 31
0.0
210
0.0
220
0.0
230
1.0
  0
LINE
  5
55C
100
AcDbEntity
  8
0
370
     5
390
0
 62
     7
 48
0.000046
100
AcDbLine
 10
8.1473
 20
0.598802
 30
0.0
 11
8.148372
 21
0.600311
 31
0.0
210
0.0
220
0.0
230
1.0
  0
LINE
  5
55D
100
AcDbEntity
  8
0
370
     5
390
0
 62
     7
 48
0.000049
100
AcDbLine
 10
8.148372
 20
0.600311
 30
0.0
 11
8.149522
 21
0.601895
 31
0.0
210
0.0
220
0.0
230
1.0
  0
LINE
  5
55E
100
AcDbEntity
  8
0
370
     5
390
0
 62
     7
 48
0.000052
100
AcDbLine
 10
8.149522
 20
0.601895
 30
0.0
 11
8.150747
 21
0.603555
 31
0.0
210
0.0
220
0.0
230
1.0
  0
LINE
  5
55F
100
AcDbEntity
  8
0
370
     5
390
0
 62
     7
 48
0.000054
100
AcDbLine
 10
8.150747
 20
0.603555
 30
0.0
 11
8.152051
 21
0.605292
 31
0.0
210
0.0
220
0.0
230
1.0
  0
LINE
  5
560
100
AcDbEntity
  8
0
370
     5
390
0
 62
     7
 48
0.002807
100
AcDbLine
 10
8.152051
 20
0.605292
 30
0.0
 11
8.03978
 21
0.605292
 31
0.0
210
0.0
220
0.0
230
1.0
  0
ENDBLK
  5
561
100
AcDbEntity
  8
0
390
0
100
AcDbBlockEnd
  0
BLOCK
  5
562
100
AcDbEntity
  8
0
370
     0
390
0
100
AcDbBlockBegin
  2
BLOCK7
 70
     0
 10
0.0
 20
0.0
 30
0.0
  3
BLOCK7
  1

  0
TEXT
  5
563
100
AcDbEntity
  8
0
370
    13
390
0
 62
     7
 48
0.03937
100
AcDbText
 10
3.815028
 20
1.154535
 30
0.0
 40
0.256024
  1
4
 72
     5
 11
4.000017
 21
1.154535
 31
0.0
100
AcDbText
  0
TEXT
  5
564
100
AcDbEntity
  8
0
370
    13
390
0
 62
     7
 48
0.03937
100
AcDbText
 10
4.000017
 20
1.154535
 30
0.0
 40
0.256024
  1
X
 72
     5
 11
4.284529
 21
1.154535
 31
0.0
100
AcDbText
  0
ENDBLK
  5
565
100
AcDbEntity
  8
0
390
0
100
AcDbBlockEnd
  0
BLOCK
  5
566
100
AcDbEntity
  8
0
370
     0
390
0
100
AcDbBlockBegin
  2
BLOCK8
 70
     0
 10
0.0
 20
0.0
 30
0.0
  3
BLOCK8
  1

  0
SOLID
  5
567
100
AcDbEntity
  8
0
370
    13
390
0
 62
     7
 48
0.03937
100
AcDbTrace
 10
-1.804209
 20
-2.182332
 30
0.0
 11
-1.525707
 21
-1.73445
 31
0.0
 12
-1.804209
 22
-2.182332
 32
0.0
 13
-1.934413
 23
-2.067798
 33
0.0
  0
TEXT
  5
568
100
AcDbEntity
  8
0
370
    13
390
0
 62
     7
 48
0.03937
100
AcDbText
 10
-3.867444
 20
-2.835832
 30
0.0
 40
0.256024
  1
4.62
 72
     5
 11
-3.219983
 21
-2.835832
 31
0.0
100
AcDbText
  0
TEXT
  5
569
100
AcDbEntity
  8
0
370
    13
390
0
 62
     7
 48
0.03937
100
AcDbText
 10
-3.219983
 20
-2.835832
 30
0.0
 40
0.256024
  1
"
 72
     5
 11
-3.032232
 21
-2.835832
 31
0.0
100
AcDbText
  0
TEXT
  5
56A
100
AcDbEntity
  8
0
370
    13
390
0
 62
     7
 48
0.03937
100
AcDbText
 10
-4.383589
 20
-2.835832
 30
0.0
 40
0.256024
  1
%%c
 72
     5
 11
-4.127564
 21
-2.835832
 31
0.0
100
AcDbText
  0
LINE
  5
56B
100
AcDbEntity
  8
0
370
    13
390
0
 62
     7
 48
0.011055
100
AcDbLine
 10
-2.38193
 20
-2.707819
 30
0.0
 11
-2.824136
 21
-2.707819
 31
0.0
210
0.0
220
0.0
230
1.0
  0
LINE
  5
56C
100
AcDbEntity
  8
0
370
    13
390
0
 62
     7
 48
0.019403
100
AcDbLine
 10
-1.869311
 20
-2.125065
 30
0.0
 11
-2.38193
 21
-2.707819
 31
0.0
210
0.0
220
0.0
230
1.0
  0
POLYLINE
  5
56D
100
AcDbEntity
  8
0
370
    13
390
0
 62
     7
 48
0.03937
100
AcDb2dPolyline
 66
     1
 10
0.0
 20
0.0
 30
0.0
 70
     1
 71
     3
  0
VERTEX
  5
56E
100
AcDbEntity
  8
0
370
     0
390
0
100
AcDbVertex
100
AcDb2dVertex
 10
-1.804209
 20
-2.182332
 30
0.0
  0
VERTEX
  5
56F
100
AcDbEntity
  8
0
370
     0
390
0
100
AcDbVertex
100
AcDb2dVertex
 10
-1.525707
 20
-1.73445
 30
0.0
  0
VERTEX
  5
570
100
AcDbEntity
  8
0
370
     0
390
0
100
AcDbVertex
100
AcDb2dVertex
 10
-1.934413
 20
-2.067798
 30
0.0
  0
SEQEND
  5
571
100
AcDbEntity
  8
0
370
     0
390
0
  0
ENDBLK
  5
572
100
AcDbEntity
  8
0
390
0
100
AcDbBlockEnd
  0
BLOCK
  5
573
100
AcDbEntity
  8
0
370
     0
390
0
100
AcDbBlockBegin
  2
BLOCK9
 70
     0
 10
0.0
 20
0.0
 30
0.0
  3
BLOCK9
  1

  0
SOLID
  5
574
100
AcDbEntity
  8
0
370
    13
390
0
 62
     7
 48
0.03937
100
AcDbTrace
 10
-1.556019
 20
1.479308
 30
0.0
 11
-1.131535
 21
1.1663
 31
0.0
 12
-1.556019
 22
1.479308
 32
0.0
 13
-1.431558
 23
1.600059
 33
0.0
  0
TEXT
  5
575
100
AcDbEntity
  8
0
370
    13
390
0
 62
     7
 48
0.03937
100
AcDbText
 10
-5.007583
 20
2.242731
 30
0.0
 40
0.256024
  1
3.25
 72
     5
 11
-4.360123
 21
2.242731
 31
0.0
100
AcDbText
  0
TEXT
  5
576
100
AcDbEntity
  8
0
370
    13
390
0
 62
     7
 48
0.03937
100
AcDbText
 10
-4.360123
 20
2.242731
 30
0.0
 40
0.256024
  1
"
 72
     5
 11
-4.172372
 21
2.242731
 31
0.0
100
AcDbText
  0
TEXT
  5
577
100
AcDbEntity
  8
0
370
    13
390
0
 62
     7
 48
0.03937
100
AcDbText
 10
-5.523728
 20
2.242731
 30
0.0
 40
0.256024
  1
%%c
 72
     5
 11
-5.267703
 21
2.242731
 31
0.0
100
AcDbText
  0
TEXT
  5
578
100
AcDbEntity
  8
0
370
    13
390
0
 62
     7
 48
0.03937
100
AcDbText
 10
-5.523728
 20
1.833092
 30
0.0
 40
0.256024
  1
BOLT CIRCLE
 72
     5
 11
-2.953125
 21
1.833092
 31
0.0
100
AcDbText
  0
LINE
  5
579
100
AcDbEntity
  8
0
370
    13
390
0
 62
     7
 48
0.011124
100
AcDbLine
 10
-2.300076
 20
2.370743
 30
0.0
 11
-2.745029
 21
2.370743
 31
0.0
210
0.0
220
0.0
230
1.0
  0
LINE
  5
57A
100
AcDbEntity
  8
0
370
    13
390
0
 62
     7
 48
0.03937
100
AcDbLine
 10
-1.493789
 20
1.539683
 30
0.0
 11
-2.300076
 21
2.370743
 31
0.0
210
0.0
220
0.0
230
1.0
  0
POLYLINE
  5
57B
100
AcDbEntity
  8
0
370
    13
390
0
 62
     7
 48
0.03937
100
AcDb2dPolyline
 66
     1
 10
0.0
 20
0.0
 30
0.0
 70
     1
 71
     3
  0
VERTEX
  5
57C
100
AcDbEntity
  8
0
370
     0
390
0
100
AcDbVertex
100
AcDb2dVertex
 10
-1.556019
 20
1.479308
 30
0.0
  0
VERTEX
  5
57D
100
AcDbEntity
  8
0
370
     0
390
0
100
AcDbVertex
100
AcDb2dVertex
 10
-1.131535
 20
1.1663
 30
0.0
  0
VERTEX
  5
57E
100
AcDbEntity
  8
0
370
     0
390
0
100
AcDbVertex
100
AcDb2dVertex
 10
-1.431558
 20
1.600059
 30
0.0
  0
SEQEND
  5
57F
100
AcDbEntity
  8
0
370
     0
390
0
  0
ENDBLK
  5
580
100
AcDbEntity
  8
0
390
0
100
AcDbBlockEnd
  0
BLOCK
  5
581
100
AcDbEntity
  8
0
370
     0
390
0
100
AcDbBlockBegin
  2
BLOCK10
 70
     0
 10
0.0
 20
0.0
 30
0.0
  3
BLOCK10
  1

  0
SOLID
  5
582
100
AcDbEntity
  8
0
370
    13
390
0
 62
     7
 48
0.03937
100
AcDbTrace
 10
2.398034
 20
0.45976
 30
0.0
 11
1.964282
 21
0.159726
 31
0.0
 12
2.398034
 22
0.45976
 32
0.0
 13
2.471897
 23
0.302866
 33
0.0
  0
TEXT
  5
583
100
AcDbEntity
  8
0
370
    13
390
0
 62
     7
 48
0.03937
100
AcDbText
 10
4.311777
 20
0.587725
 30
0.0
 40
0.256024
  1
0.75
 72
     5
 11
4.959238
 21
0.587725
 31
0.0
100
AcDbText
  0
TEXT
  5
584
100
AcDbEntity
  8
0
370
    13
390
0
 62
     7
 48
0.03937
100
AcDbText
 10
4.959238
 20
0.587725
 30
0.0
 40
0.256024
  1
"
 72
     5
 11
5.146989
 21
0.587725
 31
0.0
100
AcDbText
  0
TEXT
  5
585
100
AcDbEntity
  8
0
370
    13
390
0
 62
     7
 48
0.03937
100
AcDbText
 10
3.795632
 20
0.587725
 30
0.0
 40
0.256024
  1
%%c
 72
     5
 11
4.051657
 21
0.587725
 31
0.0
100
AcDbText
  0
LINE
  5
586
100
AcDbEntity
  8
0
370
    13
390
0
 62
     7
 48
0.011055
100
AcDbLine
 10
3.145331
 20
0.715737
 30
0.0
 11
3.587536
 21
0.715737
 31
0.0
210
0.0
220
0.0
230
1.0
  0
LINE
  5
587
100
AcDbEntity
  8
0
370
    13
390
0
 62
     7
 48
0.019629
100
AcDbLine
 10
2.434966
 20
0.381313
 30
0.0
 11
3.145331
 21
0.715737
 31
0.0
210
0.0
220
0.0
230
1.0
  0
POLYLINE
  5
588
100
AcDbEntity
  8
0
370
    13
390
0
 62
     7
 48
0.03937
100
AcDb2dPolyline
 66
     1
 10
0.0
 20
0.0
 30
0.0
 70
     1
 71
     3
  0
VERTEX
  5
589
100
AcDbEntity
  8
0
370
     0
390
0
100
AcDbVertex
100
AcDb2dVertex
 10
2.398034
 20
0.45976
 30
0.0
  0
VERTEX
  5
58A
100
AcDbEntity
  8
0
370
     0
390
0
100
AcDbVertex
100
AcDb2dVertex
 10
1.964282
 20
0.159726
 30
0.0
  0
VERTEX
  5
58B
100
AcDbEntity
  8
0
370
     0
390
0
100
AcDbVertex
100
AcDb2dVertex
 10
2.471897
 20
0.302866
 30
0.0
  0
SEQEND
  5
58C
100
AcDbEntity
  8
0
370
     0
390
0
  0
ENDBLK
  5
58D
100
AcDbEntity
  8
0
390
0
100
AcDbBlockEnd
  0
BLOCK
  5
58E
100
AcDbEntity
  8
0
370
     0
390
0
100
AcDbBlockBegin
  2
BLOCK11
 70
     0
 10
0.0
 20
0.0
 30
0.0
  3
BLOCK11
  1

  0
LINE
  5
58F
100
AcDbEntity
  8
0
370
    13
390
0
  6
DASHDOT
 62
     7
 48
0.03937
100
AcDbLine
 10
0.0
 20
2.845275
 30
0.0
 11
0.0
 21
0.404725
 31
0.0
210
0.0
220
0.0
230
1.0
  0
ARC
  5
590
100
AcDbEntity
  8
0
370
    13
390
0
  6
DASHDOT
 62
     7
 48
0.03937
100
AcDbCircle
 10
0.0
 20
0.0
 30
0.0
 40
1.625
210
0.0
220
0.0
230
1.0
100
AcDbArc
 50
46.974411
 51
133.025584
  0
ENDBLK
  5
591
100
AcDbEntity
  8
0
390
0
100
AcDbBlockEnd
  0
BLOCK
  5
592
100
AcDbEntity
  8
0
370
     0
390
0
100
AcDbBlockBegin
  2
BLOCK12
 70
     0
 10
0.0
 20
0.0
 30
0.0
  3
BLOCK12
  1

  0
LINE
  5
593
100
AcDbEntity
  8
0
370
    13
390
0
  6
DASHDOT
 62
     7
 48
0.03937
100
AcDbLine
 10
-2.956513
 20
0.0
 30
0.0
 11
-0.293487
 21
0.0
 31
0.0
210
0.0
220
0.0
230
1.0
  0
ARC
  5
594
100
AcDbEntity
  8
0
370
    13
390
0
  6
DASHDOT
 62
     7
 48
0.03937
100
AcDbCircle
 10
0.0
 20
0.0
 30
0.0
 40
1.625
210
0.0
220
0.0
230
1.0
100
AcDbArc
 50
133.052249
 51
226.947751
  0
ENDBLK
  5
595
100
AcDbEntity
  8
0
390
0
100
AcDbBlockEnd
  0
BLOCK
  5
596
100
AcDbEntity
  8
0
370
     0
390
0
100
AcDbBlockBegin
  2
BLOCK13
 70
     0
 10
0.0
 20
0.0
 30
0.0
  3
BLOCK13
  1

  0
LINE
  5
597
100
AcDbEntity
  8
0
370
    13
390
0
  6
DASHDOT
 62
     7
 48
0.03937
100
AcDbLine
 10
0.0
 20
-3.041897
 30
0.0
 11
0.0
 21
-0.208103
 31
0.0
210
0.0
220
0.0
230
1.0
  0
ARC
  5
598
100
AcDbEntity
  8
0
370
    13
390
0
  6
DASHDOT
 62
     7
 48
0.03937
100
AcDbCircle
 10
0.0
 20
0.0
 30
0.0
 40
1.625
210
0.0
220
0.0
230
1.0
100
AcDbArc
 50
220.041719
 51
319.958272
  0
ENDBLK
  5
599
100
AcDbEntity
  8
0
390
0
100
AcDbBlockEnd
  0
BLOCK
  5
59A
100
AcDbEntity
  8
0
370
     0
390
0
100
AcDbBlockBegin
  2
BLOCK14
 70
     0
 10
0.0
 20
0.0
 30
0.0
  3
BLOCK14
  1

  0
LINE
  5
59B
100
AcDbEntity
  8
0
370
    13
390
0
  6
DASHDOT
 62
     7
 48
0.03937
100
AcDbLine
 10
3.030298
 20
0.0
 30
0.0
 11
0.219701
 21
0.0
 31
0.0
210
0.0
220
0.0
230
1.0
  0
ARC
  5
59C
100
AcDbEntity
  8
0
370
    13
390
0
  6
DASHDOT
 62
     7
 48
0.03937
100
AcDbCircle
 10
0.0
 20
0.0
 30
0.0
 40
1.625
210
0.0
220
0.0
230
1.0
100
AcDbArc
 50
310.450649
 51
49.549341
  0
ENDBLK
  5
59D
100
AcDbEntity
  8
0
390
0
100
AcDbBlockEnd
  0
BLOCK
  5
59E
100
AcDbEntity
  8
0
370
     0
390
0
100
AcDbBlockBegin
  2
BLOCK15
 70
     0
 10
0.0
 20
0.0
 30
0.0
  3
BLOCK15
  1

  0
SOLID
  5
59F
100
AcDbEntity
  8
0
370
    13
390
0
 62
     7
 48
0.03937
100
AcDbTrace
 10
3.779447
 20
0.520234
 30
0.0
 11
3.866153
 21
0.0
 31
0.0
 12
3.779447
 22
0.520234
 32
0.0
 13
3.952858
 23
0.520234
 33
0.0
  0
SOLID
  5
5A0
100
AcDbEntity
  8
0
370
    13
390
0
 62
     7
 48
0.03937
100
AcDbTrace
 10
3.952858
 20
-1.077734
 30
0.0
 11
3.866153
 21
-0.5575
 31
0.0
 12
3.952858
 22
-1.077734
 32
0.0
 13
3.779447
 23
-1.077734
 33
0.0
  0
TEXT
  5
5A1
100
AcDbEntity
  8
0
370
    13
390
0
 62
     7
 48
0.03937
100
AcDbText
 10
3.448547
 20
-0.406762
 30
0.0
 40
0.256024
  1
0.56
 72
     5
 11
4.096008
 21
-0.406762
 31
0.0
100
AcDbText
  0
TEXT
  5
5A2
100
AcDbEntity
  8
0
370
    13
390
0
 62
     7
 48
0.03937
100
AcDbText
 10
4.096008
 20
-0.406762
 30
0.0
 40
0.256024
  1
"
 72
     5
 11
4.283759
 21
-0.406762
 31
0.0
100
AcDbText
  0
LINE
  5
5A3
100
AcDbEntity
  8
0
370
    13
390
0
 62
     7
 48
0.03937
100
AcDbLine
 10
2.514819
 20
-0.5575
 30
0.0
 11
4.070973
 21
-0.5575
 31
0.0
210
0.0
220
0.0
230
1.0
  0
LINE
  5
5A4
100
AcDbEntity
  8
0
370
    13
390
0
 62
     7
 48
0.03937
100
AcDbLine
 10
2.514819
 20
0.0
 30
0.0
 11
4.070973
 21
0.0
 31
0.0
210
0.0
220
0.0
230
1.0
  0
LINE
  5
5A5
100
AcDbEntity
  8
0
370
    13
390
0
 62
     7
 48
0.007476
100
AcDbLine
 10
3.866153
 20
-1.376778
 30
0.0
 11
3.866153
 21
-1.077734
 31
0.0
210
0.0
220
0.0
230
1.0
  0
LINE
  5
5A6
100
AcDbEntity
  8
0
370
    13
390
0
 62
     7
 48
0.007476
100
AcDbLine
 10
3.866153
 20
0.520234
 30
0.0
 11
3.866153
 21
0.819278
 31
0.0
210
0.0
220
0.0
230
1.0
  0
POLYLINE
  5
5A7
100
AcDbEntity
  8
0
370
    13
390
0
 62
     7
 48
0.03937
100
AcDb2dPolyline
 66
     1
 10
0.0
 20
0.0
 30
0.0
 70
     1
 71
     3
  0
VERTEX
  5
5A8
100
AcDbEntity
  8
0
370
     0
390
0
100
AcDbVertex
100
AcDb2dVertex
 10
3.779447
 20
0.520234
 30
0.0
  0
VERTEX
  5
5A9
100
AcDbEntity
  8
0
370
     0
390
0
100
AcDbVertex
100
AcDb2dVertex
 10
3.866153
 20
0.0
 30
0.0
  0
VERTEX
  5
5AA
100
AcDbEntity
  8
0
370
     0
390
0
100
AcDbVertex
100
AcDb2dVertex
 10
3.952858
 20
0.520234
 30
0.0
  0
SEQEND
  5
5AB
100
AcDbEntity
  8
0
370
     0
390
0
  0
POLYLINE
  5
5AC
100
AcDbEntity
  8
0
370
    13
390
0
 62
     7
 48
0.03937
100
AcDb2dPolyline
 66
     1
 10
0.0
 20
0.0
 30
0.0
 70
     1
 71
     3
  0
VERTEX
  5
5AD
100
AcDbEntity
  8
0
370
     0
390
0
100
AcDbVertex
100
AcDb2dVertex
 10
3.952858
 20
-1.077734
 30
0.0
  0
VERTEX
  5
5AE
100
AcDbEntity
  8
0
370
     0
390
0
100
AcDbVertex
100
AcDb2dVertex
 10
3.866153
 20
-0.5575
 30
0.0
  0
VERTEX
  5
5AF
100
AcDbEntity
  8
0
370
     0
390
0
100
AcDbVertex
100
AcDb2dVertex
 10
3.779447
 20
-1.077734
 30
0.0
  0
SEQEND
  5
5B0
100
AcDbEntity
  8
0
370
     0
390
0
  0
ENDBLK
  5
5B1
100
AcDbEntity
  8
0
390
0
100
AcDbBlockEnd
  0
BLOCK
  5
5B2
100
AcDbEntity
  8
0
370
     0
390
0
100
AcDbBlockBegin
  2
BLOCK16
 70
     0
 10
0.0
 20
0.0
 30
0.0
  3
BLOCK16
  1

  0
SOLID
  5
5B3
100
AcDbEntity
  8
0
370
    13
390
0
 62
     7
 48
0.03937
100
AcDbTrace
 10
5.239184
 20
-0.520234
 30
0.0
 11
5.152479
 21
0.0
 31
0.0
 12
5.239184
 22
-0.520234
 32
0.0
 13
5.065773
 23
-0.520234
 33
0.0
  0
SOLID
  5
5B4
100
AcDbEntity
  8
0
370
    13
390
0
 62
     7
 48
0.03937
100
AcDbTrace
 10
5.065773
 20
-8.417266
 30
0.0
 11
5.152479
 21
-8.9375
 31
0.0
 12
5.065773
 22
-8.417266
 32
0.0
 13
5.239184
 23
-8.417266
 33
0.0
  0
TEXT
  5
5B5
100
AcDbEntity
  8
0
370
    13
390
0
 62
     7
 48
0.03937
100
AcDbText
 10
4.734873
 20
-4.596762
 30
0.0
 40
0.256024
  1
8.94
 72
     5
 11
5.382334
 21
-4.596762
 31
0.0
100
AcDbText
  0
TEXT
  5
5B6
100
AcDbEntity
  8
0
370
    13
390
0
 62
     7
 48
0.03937
100
AcDbText
 10
5.382333
 20
-4.596762
 30
0.0
 40
0.256024
  1
"
 72
     5
 11
5.570085
 21
-4.596762
 31
0.0
100
AcDbText
  0
LINE
  5
5B7
100
AcDbEntity
  8
0
370
    13
390
0
 62
     7
 48
0.03937
100
AcDbLine
 10
2.514819
 20
-8.9375
 30
0.0
 11
5.357298
 21
-8.9375
 31
0.0
210
0.0
220
0.0
230
1.0
  0
LINE
  5
5B8
100
AcDbEntity
  8
0
370
    13
390
0
 62
     7
 48
0.03937
100
AcDbLine
 10
2.514819
 20
0.0
 30
0.0
 11
5.357298
 21
0.0
 31
0.0
210
0.0
220
0.0
230
1.0
  0
LINE
  5
5B9
100
AcDbEntity
  8
0
370
    13
390
0
 62
     7
 48
0.03937
100
AcDbLine
 10
5.152479
 20
-8.417266
 30
0.0
 11
5.152479
 21
-4.804859
 31
0.0
210
0.0
220
0.0
230
1.0
  0
LINE
  5
5BA
100
AcDbEntity
  8
0
370
    13
390
0
 62
     7
 48
0.03937
100
AcDbLine
 10
5.152479
 20
-4.132641
 30
0.0
 11
5.152479
 21
-0.520234
 31
0.0
210
0.0
220
0.0
230
1.0
  0
POLYLINE
  5
5BB
100
AcDbEntity
  8
0
370
    13
390
0
 62
     7
 48
0.03937
100
AcDb2dPolyline
 66
     1
 10
0.0
 20
0.0
 30
0.0
 70
     1
 71
     3
  0
VERTEX
  5
5BC
100
AcDbEntity
  8
0
370
     0
390
0
100
AcDbVertex
100
AcDb2dVertex
 10
5.239184
 20
-0.520234
 30
0.0
  0
VERTEX
  5
5BD
100
AcDbEntity
  8
0
370
     0
390
0
100
AcDbVertex
100
AcDb2dVertex
 10
5.152479
 20
0.0
 30
0.0
  0
VERTEX
  5
5BE
100
AcDbEntity
  8
0
370
     0
390
0
100
AcDbVertex
100
AcDb2dVertex
 10
5.065773
 20
-0.520234
 30
0.0
  0
SEQEND
  5
5BF
100
AcDbEntity
  8
0
370
     0
390
0
  0
POLYLINE
  5
5C0
100
AcDbEntity
  8
0
370
    13
390
0
 62
     7
 48
0.03937
100
AcDb2dPolyline
 66
     1
 10
0.0
 20
0.0
 30
0.0
 70
     1
 71
     3
  0
VERTEX
  5
5C1
100
AcDbEntity
  8
0
370
     0
390
0
100
AcDbVertex
100
AcDb2dVertex
 10
5.065773
 20
-8.417266
 30
0.0
  0
VERTEX
  5
5C2
100
AcDbEntity
  8
0
370
     0
390
0
100
AcDbVertex
100
AcDb2dVertex
 10
5.152479
 20
-8.9375
 30
0.0
  0
VERTEX
  5
5C3
100
AcDbEntity
  8
0
370
     0
390
0
100
AcDbVertex
100
AcDb2dVertex
 10
5.239184
 20
-8.417266
 30
0.0
  0
SEQEND
  5
5C4
100
AcDbEntity
  8
0
370
     0
390
0
  0
ENDBLK
  5
5C5
100
AcDbEntity
  8
0
390
0
100
AcDbBlockEnd
  0
BLOCK
  5
5C6
100
AcDbEntity
  8
0
370
     0
390
0
100
AcDbBlockBegin
  2
BLOCK17
 70
     0
 10
0.0
 20
0.0
 30
0.0
  3
BLOCK17
  1

  0
SOLID
  5
5C7
100
AcDbEntity
  8
0
370
    13
390
0
 62
     7
 48
0.03937
100
AcDbTrace
 10
0.419766
 20
-1.341684
 30
0.0
 11
0.94
 21
-1.254979
 31
0.0
 12
0.419766
 22
-1.341684
 32
0.0
 13
0.419766
 23
-1.168273
 33
0.0
  0
SOLID
  5
5C8
100
AcDbEntity
  8
0
370
    13
390
0
 62
     7
 48
0.03937
100
AcDbTrace
 10
-0.419766
 20
-1.168273
 30
0.0
 11
-0.94
 21
-1.254979
 31
0.0
 12
-0.419766
 22
-1.168273
 32
0.0
 13
-0.419766
 23
-1.341684
 33
0.0
  0
TEXT
  5
5C9
100
AcDbEntity
  8
0
370
    13
390
0
 62
     7
 48
0.03937
100
AcDbText
 10
1.968171
 20
-1.382991
 30
0.0
 40
0.256024
  1
1.88
 72
     5
 11
2.615632
 21
-1.382991
 31
0.0
100
AcDbText
  0
TEXT
  5
5CA
100
AcDbEntity
  8
0
370
    13
390
0
 62
     7
 48
0.03937
100
AcDbText
 10
2.615632
 20
-1.382991
 30
0.0
 40
0.256024
  1
"
 72
     5
 11
2.803383
 21
-1.382991
 31
0.0
100
AcDbText
  0
LINE
  5
5CB
100
AcDbEntity
  8
0
370
    13
390
0
 62
     7
 48
0.03937
100
AcDbLine
 10
-0.419766
 20
-1.254979
 30
0.0
 11
0.419766
 21
-1.254979
 31
0.0
210
0.0
220
0.0
230
1.0
  0
LINE
  5
5CC
100
AcDbEntity
  8
0
370
    13
390
0
 62
     7
 48
0.03937
100
AcDbLine
 10
0.94
 20
-1.254979
 30
0.0
 11
1.760075
 21
-1.254979
 31
0.0
210
0.0
220
0.0
230
1.0
  0
POLYLINE
  5
5CD
100
AcDbEntity
  8
0
370
    13
390
0
 62
     7
 48
0.03937
100
AcDb2dPolyline
 66
     1
 10
0.0
 20
0.0
 30
0.0
 70
     1
 71
     3
  0
VERTEX
  5
5CE
100
AcDbEntity
  8
0
370
     0
390
0
100
AcDbVertex
100
AcDb2dVertex
 10
0.419766
 20
-1.341684
 30
0.0
  0
VERTEX
  5
5CF
100
AcDbEntity
  8
0
370
     0
390
0
100
AcDbVertex
100
AcDb2dVertex
 10
0.94
 20
-1.254979
 30
0.0
  0
VERTEX
  5
5D0
100
AcDbEntity
  8
0
370
     0
390
0
100
AcDbVertex
100
AcDb2dVertex
 10
0.419766
 20
-1.168273
 30
0.0
  0
SEQEND
  5
5D1
100
AcDbEntity
  8
0
370
     0
390
0
  0
POLYLINE
  5
5D2
100
AcDbEntity
  8
0
370
    13
390
0
 62
     7
 48
0.03937
100
AcDb2dPolyline
 66
     1
 10
0.0
 20
0.0
 30
0.0
 70
     1
 71
     3
  0
VERTEX
  5
5D3
100
AcDbEntity
  8
0
370
     0
390
0
100
AcDbVertex
100
AcDb2dVertex
 10
-0.419766
 20
-1.168273
 30
0.0
  0
VERTEX
  5
5D4
100
AcDbEntity
  8
0
370
     0
390
0
100
AcDbVertex
100
AcDb2dVertex
 10
-0.94
 20
-1.254979
 30
0.0
  0
VERTEX
  5
5D5
100
AcDbEntity
  8
0
370
     0
390
0
100
AcDbVertex
100
AcDb2dVertex
 10
-0.419766
 20
-1.341684
 30
0.0
  0
SEQEND
  5
5D6
100
AcDbEntity
  8
0
370
     0
390
0
  0
ENDBLK
  5
5D7
100
AcDbEntity
  8
0
390
0
100
AcDbBlockEnd
  0
BLOCK
  5
5D8
100
AcDbEntity
  8
0
370
     0
390
0
100
AcDbBlockBegin
  2
BLOCK18
 70
     0
 10
0.0
 20
0.0
 30
0.0
  3
BLOCK18
  1

  0
SOLID
  5
5D9
100
AcDbEntity
  8
0
370
    13
390
0
 62
     7
 48
0.03937
100
AcDbTrace
 10
-3.568599
 20
-0.037266
 30
0.0
 11
-3.481893
 21
-0.5575
 31
0.0
 12
-3.568599
 22
-0.037266
 32
0.0
 13
-3.395188
 23
-0.037266
 33
0.0
  0
SOLID
  5
5DA
100
AcDbEntity
  8
0
370
    13
390
0
 62
     7
 48
0.03937
100
AcDbTrace
 10
-3.395188
 20
-1.957734
 30
0.0
 11
-3.481893
 21
-1.4375
 31
0.0
 12
-3.395188
 22
-1.957734
 32
0.0
 13
-3.568599
 23
-1.957734
 33
0.0
  0
TEXT
  5
5DB
100
AcDbEntity
  8
0
370
    13
390
0
 62
     7
 48
0.03937
100
AcDbText
 10
-3.899499
 20
-1.125512
 30
0.0
 40
0.256024
  1
0.88
 72
     5
 11
-3.252038
 21
-1.125512
 31
0.0
100
AcDbText
  0
TEXT
  5
5DC
100
AcDbEntity
  8
0
370
    13
390
0
 62
     7
 48
0.03937
100
AcDbText
 10
-3.252038
 20
-1.125512
 30
0.0
 40
0.256024
  1
"
 72
     5
 11
-3.064287
 21
-1.125512
 31
0.0
100
AcDbText
  0
LINE
  5
5DD
100
AcDbEntity
  8
0
370
    13
390
0
 62
     7
 48
0.03937
100
AcDbLine
 10
-1.144819
 20
-1.4375
 30
0.0
 11
-3.686713
 21
-1.4375
 31
0.0
210
0.0
220
0.0
230
1.0
  0
LINE
  5
5DE
100
AcDbEntity
  8
0
370
    13
390
0
 62
     7
 48
0.03937
100
AcDbLine
 10
-2.514819
 20
-0.5575
 30
0.0
 11
-3.686713
 21
-0.5575
 31
0.0
210
0.0
220
0.0
230
1.0
  0
LINE
  5
5DF
100
AcDbEntity
  8
0
370
    13
390
0
 62
     7
 48
0.007476
100
AcDbLine
 10
-3.481893
 20
-2.256778
 30
0.0
 11
-3.481893
 21
-1.957734
 31
0.0
210
0.0
220
0.0
230
1.0
  0
LINE
  5
5E0
100
AcDbEntity
  8
0
370
    13
390
0
 62
     7
 48
0.007476
100
AcDbLine
 10
-3.481893
 20
-0.037266
 30
0.0
 11
-3.481893
 21
0.261778
 31
0.0
210
0.0
220
0.0
230
1.0
  0
POLYLINE
  5
5E1
100
AcDbEntity
  8
0
370
    13
390
0
 62
     7
 48
0.03937
100
AcDb2dPolyline
 66
     1
 10
0.0
 20
0.0
 30
0.0
 70
     1
 71
     3
  0
VERTEX
  5
5E2
100
AcDbEntity
  8
0
370
     0
390
0
100
AcDbVertex
100
AcDb2dVertex
 10
-3.568599
 20
-0.037266
 30
0.0
  0
VERTEX
  5
5E3
100
AcDbEntity
  8
0
370
     0
390
0
100
AcDbVertex
100
AcDb2dVertex
 10
-3.481893
 20
-0.5575
 30
0.0
  0
VERTEX
  5
5E4
100
AcDbEntity
  8
0
370
     0
390
0
100
AcDbVertex
100
AcDb2dVertex
 10
-3.395188
 20
-0.037266
 30
0.0
  0
SEQEND
  5
5E5
100
AcDbEntity
  8
0
370
     0
390
0
  0
POLYLINE
  5
5E6
100
AcDbEntity
  8
0
370
    13
390
0
 62
     7
 48
0.03937
100
AcDb2dPolyline
 66
     1
 10
0.0
 20
0.0
 30
0.0
 70
     1
 71
     3
  0
VERTEX
  5
5E7
100
AcDbEntity
  8
0
370
     0
390
0
100
AcDbVertex
100
AcDb2dVertex
 10
-3.395188
 20
-1.957734
 30
0.0
  0
VERTEX
  5
5E8
100
AcDbEntity
  8
0
370
     0
390
0
100
AcDbVertex
100
AcDb2dVertex
 10
-3.481893
 20
-1.4375
 30
0.0
  0
VERTEX
  5
5E9
100
AcDbEntity
  8
0
370
     0
390
0
100
AcDbVertex
100
AcDb2dVertex
 10
-3.568599
 20
-1.957734
 30
0.0
  0
SEQEND
  5
5EA
100
AcDbEntity
  8
0
370
     0
390
0
  0
ENDBLK
  5
5EB
100
AcDbEntity
  8
0
390
0
100
AcDbBlockEnd
  0
BLOCK
  5
5EC
100
AcDbEntity
  8
0
370
     0
390
0
100
AcDbBlockBegin
  2
BLOCK19
 70
     0
 10
0.0
 20
0.0
 30
0.0
  3
BLOCK19
  1

  0
SOLID
  5
5ED
100
AcDbEntity
  8
0
370
    13
390
0
 62
     7
 48
0.03937
100
AcDbTrace
 10
1.789766
 20
-10.943923
 30
0.0
 11
2.31
 21
-10.857218
 31
0.0
 12
1.789766
 22
-10.943923
 32
0.0
 13
1.789766
 23
-10.770512
 33
0.0
  0
SOLID
  5
5EE
100
AcDbEntity
  8
0
370
    13
390
0
 62
     7
 48
0.03937
100
AcDbTrace
 10
-1.789766
 20
-10.770512
 30
0.0
 11
-2.31
 21
-10.857218
 31
0.0
 12
-1.789766
 22
-10.770512
 32
0.0
 13
-1.789766
 23
-10.943923
 33
0.0
  0
TEXT
  5
5EF
100
AcDbEntity
  8
0
370
    13
390
0
 62
     7
 48
0.03937
100
AcDbText
 10
-0.159533
 20
-10.98523
 30
0.0
 40
0.256024
  1
4.62
 72
     5
 11
0.487927
 21
-10.98523
 31
0.0
100
AcDbText
  0
TEXT
  5
5F0
100
AcDbEntity
  8
0
370
    13
390
0
 62
     7
 48
0.03937
100
AcDbText
 10
0.487927
 20
-10.98523
 30
0.0
 40
0.256024
  1
"
 72
     5
 11
0.675678
 21
-10.98523
 31
0.0
100
AcDbText
  0
TEXT
  5
5F1
100
AcDbEntity
  8
0
370
    13
390
0
 62
     7
 48
0.03937
100
AcDbText
 10
-0.675678
 20
-10.98523
 30
0.0
 40
0.256024
  1
%%c
 72
     5
 11
-0.419654
 21
-10.98523
 31
0.0
100
AcDbText
  0
LINE
  5
5F2
100
AcDbEntity
  8
0
370
    13
390
0
 62
     7
 48
0.011725
100
AcDbLine
 10
-2.31
 20
-9.14232
 30
0.0
 11
-2.31
 21
-9.6113
 31
0.0
210
0.0
220
0.0
230
1.0
  0
LINE
  5
5F3
100
AcDbEntity
  8
0
370
    13
390
0
 62
     7
 48
0.010206
100
AcDbLine
 10
-2.31
 20
-10.65381
 30
0.0
 11
-2.31
 21
-11.062038
 31
0.0
210
0.0
220
0.0
230
1.0
  0
LINE
  5
5F4
100
AcDbEntity
  8
0
370
    13
390
0
 62
     7
 48
0.03937
100
AcDbLine
 10
2.31
 20
-9.14232
 30
0.0
 11
2.31
 21
-11.062038
 31
0.0
210
0.0
220
0.0
230
1.0
  0
LINE
  5
5F5
100
AcDbEntity
  8
0
370
    13
390
0
 62
     7
 48
0.03937
100
AcDbLine
 10
-1.789766
 20
-10.857218
 30
0.0
 11
-0.883775
 21
-10.857218
 31
0.0
210
0.0
220
0.0
230
1.0
  0
LINE
  5
5F6
100
AcDbEntity
  8
0
370
    13
390
0
 62
     7
 48
0.03937
100
AcDbLine
 10
0.883775
 20
-10.857218
 30
0.0
 11
1.789766
 21
-10.857218
 31
0.0
210
0.0
220
0.0
230
1.0
  0
POLYLINE
  5
5F7
100
AcDbEntity
  8
0
370
    13
390
0
 62
     7
 48
0.03937
100
AcDb2dPolyline
 66
     1
 10
0.0
 20
0.0
 30
0.0
 70
     1
 71
     3
  0
VERTEX
  5
5F8
100
AcDbEntity
  8
0
370
     0
390
0
100
AcDbVertex
100
AcDb2dVertex
 10
1.789766
 20
-10.943923
 30
0.0
  0
VERTEX
  5
5F9
100
AcDbEntity
  8
0
370
     0
390
0
100
AcDbVertex
100
AcDb2dVertex
 10
2.31
 20
-10.857218
 30
0.0
  0
VERTEX
  5
5FA
100
AcDbEntity
  8
0
370
     0
390
0
100
AcDbVertex
100
AcDb2dVertex
 10
1.789766
 20
-10.770512
 30
0.0
  0
SEQEND
  5
5FB
100
AcDbEntity
  8
0
370
     0
390
0
  0
POLYLINE
  5
5FC
100
AcDbEntity
  8
0
370
    13
390
0
 62
     7
 48
0.03937
100
AcDb2dPolyline
 66
     1
 10
0.0
 20
0.0
 30
0.0
 70
     1
 71
     3
  0
VERTEX
  5
5FD
100
AcDbEntity
  8
0
370
     0
390
0
100
AcDbVertex
100
AcDb2dVertex
 10
-1.789766
 20
-10.770512
 30
0.0
  0
VERTEX
  5
5FE
100
AcDbEntity
  8
0
370
     0
390
0
100
AcDbVertex
100
AcDb2dVertex
 10
-2.31
 20
-10.857218
 30
0.0
  0
VERTEX
  5
5FF
100
AcDbEntity
  8
0
370
     0
390
0
100
AcDbVertex
100
AcDb2dVertex
 10
-1.789766
 20
-10.943923
 30
0.0
  0
SEQEND
  5
600
100
AcDbEntity
  8
0
370
     0
390
0
  0
ENDBLK
  5
601
100
AcDbEntity
  8
0
390
0
100
AcDbBlockEnd
  0
BLOCK
  5
602
100
AcDbEntity
  8
0
370
     0
390
0
100
AcDbBlockBegin
  2
BLOCK20
 70
     0
 10
0.0
 20
0.0
 30
0.0
  3
BLOCK20
  1

  0
SOLID
  5
603
100
AcDbEntity
  8
0
370
    13
390
0
 62
     7
 48
0.03937
100
AcDbTrace
 10
-0.895234
 20
-10.271498
 30
0.0
 11
-0.375
 21
-10.184792
 31
0.0
 12
-0.895234
 22
-10.271498
 32
0.0
 13
-0.895234
 23
-10.098086
 33
0.0
  0
SOLID
  5
604
100
AcDbEntity
  8
0
370
    13
390
0
 62
     7
 48
0.03937
100
AcDbTrace
 10
0.895234
 20
-10.098086
 30
0.0
 11
0.375
 21
-10.184792
 31
0.0
 12
0.895234
 22
-10.098086
 32
0.0
 13
0.895234
 23
-10.271498
 33
0.0
  0
TEXT
  5
605
100
AcDbEntity
  8
0
370
    13
390
0
 62
     7
 48
0.03937
100
AcDbText
 10
-2.510815
 20
-10.312804
 30
0.0
 40
0.256024
  1
0.75
 72
     5
 11
-1.863355
 21
-10.312804
 31
0.0
100
AcDbText
  0
TEXT
  5
606
100
AcDbEntity
  8
0
370
    13
390
0
 62
     7
 48
0.03937
100
AcDbText
 10
-1.863355
 20
-10.312804
 30
0.0
 40
0.256024
  1
"
 72
     5
 11
-1.675604
 21
-10.312804
 31
0.0
100
AcDbText
  0
TEXT
  5
607
100
AcDbEntity
  8
0
370
    13
390
0
 62
     7
 48
0.03937
100
AcDbText
 10
-3.02696
 20
-10.312804
 30
0.0
 40
0.256024
  1
%%c
 72
     5
 11
-2.770936
 21
-10.312804
 31
0.0
100
AcDbText
  0
LINE
  5
608
100
AcDbEntity
  8
0
370
    13
390
0
 62
     7
 48
0.03937
100
AcDbLine
 10
-0.375
 20
-9.14232
 30
0.0
 11
-0.375
 21
-10.389612
 31
0.0
210
0.0
220
0.0
230
1.0
  0
LINE
  5
609
100
AcDbEntity
  8
0
370
    13
390
0
 62
     7
 48
0.03937
100
AcDbLine
 10
0.375
 20
-9.14232
 30
0.0
 11
0.375
 21
-10.389612
 31
0.0
210
0.0
220
0.0
230
1.0
  0
LINE
  5
60A
100
AcDbEntity
  8
0
370
    13
390
0
 62
     7
 48
0.014307
100
AcDbLine
 10
-1.467507
 20
-10.184792
 30
0.0
 11
-0.895234
 21
-10.184792
 31
0.0
210
0.0
220
0.0
230
1.0
  0
LINE
  5
60B
100
AcDbEntity
  8
0
370
    13
390
0
 62
     7
 48
0.007476
100
AcDbLine
 10
0.895234
 20
-10.184792
 30
0.0
 11
1.194278
 21
-10.184792
 31
0.0
210
0.0
220
0.0
230
1.0
  0
POLYLINE
  5
60C
100
AcDbEntity
  8
0
370
    13
390
0
 62
     7
 48
0.03937
100
AcDb2dPolyline
 66
     1
 10
0.0
 20
0.0
 30
0.0
 70
     1
 71
     3
  0
VERTEX
  5
60D
100
AcDbEntity
  8
0
370
     0
390
0
100
AcDbVertex
100
AcDb2dVertex
 10
-0.895234
 20
-10.271498
 30
0.0
  0
VERTEX
  5
60E
100
AcDbEntity
  8
0
370
     0
390
0
100
AcDbVertex
100
AcDb2dVertex
 10
-0.375
 20
-10.184792
 30
0.0
  0
VERTEX
  5
60F
100
AcDbEntity
  8
0
370
     0
390
0
100
AcDbVertex
100
AcDb2dVertex
 10
-0.895234
 20
-10.098086
 30
0.0
  0
SEQEND
  5
610
100
AcDbEntity
  8
0
370
     0
390
0
  0
POLYLINE
  5
611
100
AcDbEntity
  8
0
370
    13
390
0
 62
     7
 48
0.03937
100
AcDb2dPolyline
 66
     1
 10
0.0
 20
0.0
 30
0.0
 70
     1
 71
     3
  0
VERTEX
  5
612
100
AcDbEntity
  8
0
370
     0
390
0
100
AcDbVertex
100
AcDb2dVertex
 10
0.895234
 20
-10.098086
 30
0.0
  0
VERTEX
  5
613
100
AcDbEntity
  8
0
370
     0
390
0
100
AcDbVertex
100
AcDb2dVertex
 10
0.375
 20
-10.184792
 30
0.0
  0
VERTEX
  5
614
100
AcDbEntity
  8
0
370
     0
390
0
100
AcDbVertex
100
AcDb2dVertex
 10
0.895234
 20
-10.271498
 30
0.0
  0
SEQEND
  5
615
100
AcDbEntity
  8
0
370
     0
390
0
  0
ENDBLK
  5
616
100
AcDbEntity
  8
0
390
0
100
AcDbBlockEnd
  0
BLOCK
  5
617
100
AcDbEntity
  8
0
370
     0
390
0
100
AcDbBlockBegin
  2
BLOCK21
 70
     0
 10
0.0
 20
0.0
 30
0.0
  3
BLOCK21
  1

  0
LINE
  5
618
100
AcDbEntity
  8
0
370
     5
390
0
 62
     7
 48
0.013937
100
AcDbLine
 10
2.31
 20
0.0
 30
0.0
 11
2.31
 21
-0.5575
 31
0.0
210
0.0
220
0.0
230
1.0
  0
LINE
  5
619
100
AcDbEntity
  8
0
370
     5
390
0
 62
     7
 48
0.00775
100
AcDbLine
 10
2.31
 20
-0.5575
 30
0.0
 11
2.0
 21
-0.5575
 31
0.0
210
0.0
220
0.0
230
1.0
  0
LINE
  5
61A
100
AcDbEntity
  8
0
370
     5
390
0
 62
     7
 48
0.013937
100
AcDbLine
 10
2.0
 20
-0.5575
 30
0.0
 11
2.0
 21
0.0
 31
0.0
210
0.0
220
0.0
230
1.0
  0
LINE
  5
61B
100
AcDbEntity
  8
0
370
     5
390
0
 62
     7
 48
0.00775
100
AcDbLine
 10
2.0
 20
0.0
 30
0.0
 11
2.31
 21
0.0
 31
0.0
210
0.0
220
0.0
230
1.0
  0
ENDBLK
  5
61C
100
AcDbEntity
  8
0
390
0
100
AcDbBlockEnd
  0
BLOCK
  5
61D
100
AcDbEntity
  8
0
370
     0
390
0
100
AcDbBlockBegin
  2
BLOCK22
 70
     0
 10
0.0
 20
0.0
 30
0.0
  3
BLOCK22
  1

  0
LINE
  5
61E
100
AcDbEntity
  8
0
370
     5
390
0
 62
     7
 48
0.03937
100
AcDbLine
 10
0.375
 20
0.0
 30
0.0
 11
1.25
 21
0.0
 31
0.0
210
0.0
220
0.0
230
1.0
  0
LINE
  5
61F
100
AcDbEntity
  8
0
370
     5
390
0
 62
     7
 48
0.013937
100
AcDbLine
 10
1.25
 20
0.0
 30
0.0
 11
1.25
 21
-0.5575
 31
0.0
210
0.0
220
0.0
230
1.0
  0
LINE
  5
620
100
AcDbEntity
  8
0
370
     5
390
0
 62
     7
 48
0.008125
100
AcDbLine
 10
1.25
 20
-0.5575
 30
0.0
 11
0.925
 21
-0.5575
 31
0.0
210
0.0
220
0.0
230
1.0
  0
LINE
  5
621
100
AcDbEntity
  8
0
370
     5
390
0
 62
     7
 48
0.000028
100
AcDbLine
 10
0.925
 20
-0.5575
 30
0.0
 11
0.923879
 21
-0.557542
 31
0.0
210
0.0
220
0.0
230
1.0
  0
LINE
  5
622
100
AcDbEntity
  8
0
370
     5
390
0
 62
     7
 48
0.000028
100
AcDbLine
 10
0.923879
 20
-0.557542
 30
0.0
 11
0.922764
 21
-0.557668
 31
0.0
210
0.0
220
0.0
230
1.0
  0
LINE
  5
623
100
AcDbEntity
  8
0
370
     5
390
0
 62
     7
 48
0.000028
100
AcDbLine
 10
0.922764
 20
-0.557668
 30
0.0
 11
0.921662
 21
-0.557876
 31
0.0
210
0.0
220
0.0
230
1.0
  0
LINE
  5
624
100
AcDbEntity
  8
0
370
     5
390
0
 62
     7
 48
0.000028
100
AcDbLine
 10
0.921662
 20
-0.557876
 30
0.0
 11
0.920579
 21
-0.558166
 31
0.0
210
0.0
220
0.0
230
1.0
  0
LINE
  5
625
100
AcDbEntity
  8
0
370
     5
390
0
 62
     7
 48
0.000028
100
AcDbLine
 10
0.920579
 20
-0.558166
 30
0.0
 11
0.91952
 21
-0.558537
 31
0.0
210
0.0
220
0.0
230
1.0
  0
LINE
  5
626
100
AcDbEntity
  8
0
370
     5
390
0
 62
     7
 48
0.000028
100
AcDbLine
 10
0.91952
 20
-0.558537
 30
0.0
 11
0.918492
 21
-0.558985
 31
0.0
210
0.0
220
0.0
230
1.0
  0
LINE
  5
627
100
AcDbEntity
  8
0
370
     5
390
0
 62
     7
 48
0.000028
100
AcDbLine
 10
0.918492
 20
-0.558985
 30
0.0
 11
0.9175
 21
-0.55951
 31
0.0
210
0.0
220
0.0
230
1.0
  0
LINE
  5
628
100
AcDbEntity
  8
0
370
     5
390
0
 62
     7
 48
0.000028
100
AcDbLine
 10
0.9175
 20
-0.55951
 30
0.0
 11
0.91655
 21
-0.560106
 31
0.0
210
0.0
220
0.0
230
1.0
  0
LINE
  5
629
100
AcDbEntity
  8
0
370
     5
390
0
 62
     7
 48
0.000028
100
AcDbLine
 10
0.91655
 20
-0.560106
 30
0.0
 11
0.915648
 21
-0.560773
 31
0.0
210
0.0
220
0.0
230
1.0
  0
LINE
  5
62A
100
AcDbEntity
  8
0
370
     5
390
0
 62
     7
 48
0.000028
100
AcDbLine
 10
0.915648
 20
-0.560773
 30
0.0
 11
0.914797
 21
-0.561504
 31
0.0
210
0.0
220
0.0
230
1.0
  0
LINE
  5
62B
100
AcDbEntity
  8
0
370
     5
390
0
 62
     7
 48
0.000028
100
AcDbLine
 10
0.914797
 20
-0.561504
 30
0.0
 11
0.914004
 21
-0.562297
 31
0.0
210
0.0
220
0.0
230
1.0
  0
LINE
  5
62C
100
AcDbEntity
  8
0
370
     5
390
0
 62
     7
 48
0.000028
100
AcDbLine
 10
0.914004
 20
-0.562297
 30
0.0
 11
0.913273
 21
-0.563148
 31
0.0
210
0.0
220
0.0
230
1.0
  0
LINE
  5
62D
100
AcDbEntity
  8
0
370
     5
390
0
 62
     7
 48
0.000028
100
AcDbLine
 10
0.913273
 20
-0.563148
 30
0.0
 11
0.912606
 21
-0.56405
 31
0.0
210
0.0
220
0.0
230
1.0
  0
LINE
  5
62E
100
AcDbEntity
  8
0
370
     5
390
0
 62
     7
 48
0.000028
100
AcDbLine
 10
0.912606
 20
-0.56405
 30
0.0
 11
0.91201
 21
-0.565
 31
0.0
210
0.0
220
0.0
230
1.0
  0
LINE
  5
62F
100
AcDbEntity
  8
0
370
     5
390
0
 62
     7
 48
0.000028
100
AcDbLine
 10
0.91201
 20
-0.565
 30
0.0
 11
0.911485
 21
-0.565992
 31
0.0
210
0.0
220
0.0
230
1.0
  0
LINE
  5
630
100
AcDbEntity
  8
0
370
     5
390
0
 62
     7
 48
0.000028
100
AcDbLine
 10
0.911485
 20
-0.565992
 30
0.0
 11
0.911037
 21
-0.56702
 31
0.0
210
0.0
220
0.0
230
1.0
  0
LINE
  5
631
100
AcDbEntity
  8
0
370
     5
390
0
 62
     7
 48
0.000028
100
AcDbLine
 10
0.911037
 20
-0.56702
 30
0.0
 11
0.910666
 21
-0.568079
 31
0.0
210
0.0
220
0.0
230
1.0
  0
LINE
  5
632
100
AcDbEntity
  8
0
370
     5
390
0
 62
     7
 48
0.000028
100
AcDbLine
 10
0.910666
 20
-0.568079
 30
0.0
 11
0.910376
 21
-0.569162
 31
0.0
210
0.0
220
0.0
230
1.0
  0
LINE
  5
633
100
AcDbEntity
  8
0
370
     5
390
0
 62
     7
 48
0.000028
100
AcDbLine
 10
0.910376
 20
-0.569162
 30
0.0
 11
0.910168
 21
-0.570264
 31
0.0
210
0.0
220
0.0
230
1.0
  0
LINE
  5
634
100
AcDbEntity
  8
0
370
     5
390
0
 62
     7
 48
0.000028
100
AcDbLine
 10
0.910168
 20
-0.570264
 30
0.0
 11
0.910042
 21
-0.571379
 31
0.0
210
0.0
220
0.0
230
1.0
  0
LINE
  5
635
100
AcDbEntity
  8
0
370
     5
390
0
 62
     7
 48
0.000028
100
AcDbLine
 10
0.910042
 20
-0.571379
 30
0.0
 11
0.91
 21
-0.5725
 31
0.0
210
0.0
220
0.0
230
1.0
  0
LINE
  5
636
100
AcDbEntity
  8
0
370
     5
390
0
 62
     7
 48
0.000028
100
AcDbLine
 10
0.91
 20
-0.5725
 30
0.0
 11
0.910042
 21
-0.573621
 31
0.0
210
0.0
220
0.0
230
1.0
  0
LINE
  5
637
100
AcDbEntity
  8
0
370
     5
390
0
 62
     7
 48
0.000028
100
AcDbLine
 10
0.910042
 20
-0.573621
 30
0.0
 11
0.910168
 21
-0.574736
 31
0.0
210
0.0
220
0.0
230
1.0
  0
LINE
  5
638
100
AcDbEntity
  8
0
370
     5
390
0
 62
     7
 48
0.000028
100
AcDbLine
 10
0.910168
 20
-0.574736
 30
0.0
 11
0.910376
 21
-0.575838
 31
0.0
210
0.0
220
0.0
230
1.0
  0
LINE
  5
639
100
AcDbEntity
  8
0
370
     5
390
0
 62
     7
 48
0.000028
100
AcDbLine
 10
0.910376
 20
-0.575838
 30
0.0
 11
0.910666
 21
-0.576921
 31
0.0
210
0.0
220
0.0
230
1.0
  0
LINE
  5
63A
100
AcDbEntity
  8
0
370
     5
390
0
 62
     7
 48
0.000028
100
AcDbLine
 10
0.910666
 20
-0.576921
 30
0.0
 11
0.911037
 21
-0.57798
 31
0.0
210
0.0
220
0.0
230
1.0
  0
LINE
  5
63B
100
AcDbEntity
  8
0
370
     5
390
0
 62
     7
 48
0.000028
100
AcDbLine
 10
0.911037
 20
-0.57798
 30
0.0
 11
0.911485
 21
-0.579008
 31
0.0
210
0.0
220
0.0
230
1.0
  0
LINE
  5
63C
100
AcDbEntity
  8
0
370
     5
390
0
 62
     7
 48
0.000028
100
AcDbLine
 10
0.911485
 20
-0.579008
 30
0.0
 11
0.91201
 21
-0.58
 31
0.0
210
0.0
220
0.0
230
1.0
  0
LINE
  5
63D
100
AcDbEntity
  8
0
370
     5
390
0
 62
     7
 48
0.000028
100
AcDbLine
 10
0.91201
 20
-0.58
 30
0.0
 11
0.912606
 21
-0.58095
 31
0.0
210
0.0
220
0.0
230
1.0
  0
LINE
  5
63E
100
AcDbEntity
  8
0
370
     5
390
0
 62
     7
 48
0.000028
100
AcDbLine
 10
0.912606
 20
-0.58095
 30
0.0
 11
0.913273
 21
-0.581852
 31
0.0
210
0.0
220
0.0
230
1.0
  0
LINE
  5
63F
100
AcDbEntity
  8
0
370
     5
390
0
 62
     7
 48
0.000028
100
AcDbLine
 10
0.913273
 20
-0.581852
 30
0.0
 11
0.914004
 21
-0.582703
 31
0.0
210
0.0
220
0.0
230
1.0
  0
LINE
  5
640
100
AcDbEntity
  8
0
370
     5
390
0
 62
     7
 48
0.000028
100
AcDbLine
 10
0.914004
 20
-0.582703
 30
0.0
 11
0.914797
 21
-0.583496
 31
0.0
210
0.0
220
0.0
230
1.0
  0
LINE
  5
641
100
AcDbEntity
  8
0
370
     5
390
0
 62
     7
 48
0.000028
100
AcDbLine
 10
0.914797
 20
-0.583496
 30
0.0
 11
0.915648
 21
-0.584227
 31
0.0
210
0.0
220
0.0
230
1.0
  0
LINE
  5
642
100
AcDbEntity
  8
0
370
     5
390
0
 62
     7
 48
0.000028
100
AcDbLine
 10
0.915648
 20
-0.584227
 30
0.0
 11
0.91655
 21
-0.584894
 31
0.0
210
0.0
220
0.0
230
1.0
  0
LINE
  5
643
100
AcDbEntity
  8
0
370
     5
390
0
 62
     7
 48
0.000028
100
AcDbLine
 10
0.91655
 20
-0.584894
 30
0.0
 11
0.9175
 21
-0.58549
 31
0.0
210
0.0
220
0.0
230
1.0
  0
LINE
  5
644
100
AcDbEntity
  8
0
370
     5
390
0
 62
     7
 48
0.00065
100
AcDbLine
 10
0.9175
 20
-0.58549
 30
0.0
 11
0.94
 21
-0.598481
 31
0.0
210
0.0
220
0.0
230
1.0
  0
LINE
  5
645
100
AcDbEntity
  8
0
370
     5
390
0
 62
     7
 48
0.03937
100
AcDbLine
 10
0.94
 20
-0.598481
 30
0.0
 11
0.94
 21
-1.4375
 31
0.0
210
0.0
220
0.0
230
1.0
  0
LINE
  5
646
100
AcDbEntity
  8
0
370
     5
390
0
 62
     7
 48
0.03937
100
AcDbLine
 10
0.94
 20
-1.4375
 30
0.0
 11
2.31
 21
-2.22847
 31
0.0
210
0.0
220
0.0
230
1.0
  0
LINE
  5
647
100
AcDbEntity
  8
0
370
     5
390
0
 62
     7
 48
0.03937
100
AcDbLine
 10
2.31
 20
-2.22847
 30
0.0
 11
2.31
 21
-8.9375
 31
0.0
210
0.0
220
0.0
230
1.0
  0
LINE
  5
648
100
AcDbEntity
  8
0
370
     5
390
0
 62
     7
 48
0.03937
100
AcDbLine
 10
2.31
 20
-8.9375
 30
0.0
 11
0.375
 21
-8.9375
 31
0.0
210
0.0
220
0.0
230
1.0
  0
LINE
  5
649
100
AcDbEntity
  8
0
370
     5
390
0
 62
     7
 48
0.03937
100
AcDbLine
 10
0.375
 20
-8.9375
 30
0.0
 11
0.375
 21
0.0
 31
0.0
210
0.0
220
0.0
230
1.0
  0
ENDBLK
  5
64A
100
AcDbEntity
  8
0
390
0
100
AcDbBlockEnd
  0
BLOCK
  5
64B
100
AcDbEntity
  8
0
370
     0
390
0
100
AcDbBlockBegin
  2
BLOCK23
 70
     0
 10
0.0
 20
0.0
 30
0.0
  3
BLOCK23
  1

  0
LINE
  5
64C
100
AcDbEntity
  8
0
370
     5
390
0
 62
     7
 48
0.03937
100
AcDbLine
 10
-0.375
 20
0.0
 30
0.0
 11
-0.375
 21
-8.9375
 31
0.0
210
0.0
220
0.0
230
1.0
  0
LINE
  5
64D
100
AcDbEntity
  8
0
370
     5
390
0
 62
     7
 48
0.03937
100
AcDbLine
 10
-0.375
 20
-8.9375
 30
0.0
 11
-2.31
 21
-8.9375
 31
0.0
210
0.0
220
0.0
230
1.0
  0
LINE
  5
64E
100
AcDbEntity
  8
0
370
     5
390
0
 62
     7
 48
0.03937
100
AcDbLine
 10
-2.31
 20
-8.9375
 30
0.0
 11
-2.31
 21
-2.22847
 31
0.0
210
0.0
220
0.0
230
1.0
  0
LINE
  5
64F
100
AcDbEntity
  8
0
370
     5
390
0
 62
     7
 48
0.03937
100
AcDbLine
 10
-2.31
 20
-2.22847
 30
0.0
 11
-0.94
 21
-1.4375
 31
0.0
210
0.0
220
0.0
230
1.0
  0
LINE
  5
650
100
AcDbEntity
  8
0
370
     5
390
0
 62
     7
 48
0.03937
100
AcDbLine
 10
-0.94
 20
-1.4375
 30
0.0
 11
-0.94
 21
-0.598481
 31
0.0
210
0.0
220
0.0
230
1.0
  0
LINE
  5
651
100
AcDbEntity
  8
0
370
     5
390
0
 62
     7
 48
0.00065
100
AcDbLine
 10
-0.94
 20
-0.598481
 30
0.0
 11
-0.9175
 21
-0.58549
 31
0.0
210
0.0
220
0.0
230
1.0
  0
LINE
  5
652
100
AcDbEntity
  8
0
370
     5
390
0
 62
     7
 48
0.000028
100
AcDbLine
 10
-0.9175
 20
-0.58549
 30
0.0
 11
-0.91655
 21
-0.584894
 31
0.0
210
0.0
220
0.0
230
1.0
  0
LINE
  5
653
100
AcDbEntity
  8
0
370
     5
390
0
 62
     7
 48
0.000028
100
AcDbLine
 10
-0.91655
 20
-0.584894
 30
0.0
 11
-0.915648
 21
-0.584227
 31
0.0
210
0.0
220
0.0
230
1.0
  0
LINE
  5
654
100
AcDbEntity
  8
0
370
     5
390
0
 62
     7
 48
0.000028
100
AcDbLine
 10
-0.915648
 20
-0.584227
 30
0.0
 11
-0.914797
 21
-0.583496
 31
0.0
210
0.0
220
0.0
230
1.0
  0
LINE
  5
655
100
AcDbEntity
  8
0
370
     5
390
0
 62
     7
 48
0.000028
100
AcDbLine
 10
-0.914797
 20
-0.583496
 30
0.0
 11
-0.914004
 21
-0.582703
 31
0.0
210
0.0
220
0.0
230
1.0
  0
LINE
  5
656
100
AcDbEntity
  8
0
370
     5
390
0
 62
     7
 48
0.000028
100
AcDbLine
 10
-0.914004
 20
-0.582703
 30
0.0
 11
-0.913273
 21
-0.581852
 31
0.0
210
0.0
220
0.0
230
1.0
  0
LINE
  5
657
100
AcDbEntity
  8
0
370
     5
390
0
 62
     7
 48
0.000028
100
AcDbLine
 10
-0.913273
 20
-0.581852
 30
0.0
 11
-0.912606
 21
-0.58095
 31
0.0
210
0.0
220
0.0
230
1.0
  0
LINE
  5
658
100
AcDbEntity
  8
0
370
     5
390
0
 62
     7
 48
0.000028
100
AcDbLine
 10
-0.912606
 20
-0.58095
 30
0.0
 11
-0.91201
 21
-0.58
 31
0.0
210
0.0
220
0.0
230
1.0
  0
LINE
  5
659
100
AcDbEntity
  8
0
370
     5
390
0
 62
     7
 48
0.000028
100
AcDbLine
 10
-0.91201
 20
-0.58
 30
0.0
 11
-0.911485
 21
-0.579008
 31
0.0
210
0.0
220
0.0
230
1.0
  0
LINE
  5
65A
100
AcDbEntity
  8
0
370
     5
390
0
 62
     7
 48
0.000028
100
AcDbLine
 10
-0.911485
 20
-0.579008
 30
0.0
 11
-0.911037
 21
-0.57798
 31
0.0
210
0.0
220
0.0
230
1.0
  0
LINE
  5
65B
100
AcDbEntity
  8
0
370
     5
390
0
 62
     7
 48
0.000028
100
AcDbLine
 10
-0.911037
 20
-0.57798
 30
0.0
 11
-0.910666
 21
-0.576921
 31
0.0
210
0.0
220
0.0
230
1.0
  0
LINE
  5
65C
100
AcDbEntity
  8
0
370
     5
390
0
 62
     7
 48
0.000028
100
AcDbLine
 10
-0.910666
 20
-0.576921
 30
0.0
 11
-0.910376
 21
-0.575838
 31
0.0
210
0.0
220
0.0
230
1.0
  0
LINE
  5
65D
100
AcDbEntity
  8
0
370
     5
390
0
 62
     7
 48
0.000028
100
AcDbLine
 10
-0.910376
 20
-0.575838
 30
0.0
 11
-0.910168
 21
-0.574736
 31
0.0
210
0.0
220
0.0
230
1.0
  0
LINE
  5
65E
100
AcDbEntity
  8
0
370
     5
390
0
 62
     7
 48
0.000028
100
AcDbLine
 10
-0.910168
 20
-0.574736
 30
0.0
 11
-0.910042
 21
-0.573621
 31
0.0
210
0.0
220
0.0
230
1.0
  0
LINE
  5
65F
100
AcDbEntity
  8
0
370
     5
390
0
 62
     7
 48
0.000028
100
AcDbLine
 10
-0.910042
 20
-0.573621
 30
0.0
 11
-0.91
 21
-0.5725
 31
0.0
210
0.0
220
0.0
230
1.0
  0
LINE
  5
660
100
AcDbEntity
  8
0
370
     5
390
0
 62
     7
 48
0.000028
100
AcDbLine
 10
-0.91
 20
-0.5725
 30
0.0
 11
-0.910042
 21
-0.571379
 31
0.0
210
0.0
220
0.0
230
1.0
  0
LINE
  5
661
100
AcDbEntity
  8
0
370
     5
390
0
 62
     7
 48
0.000028
100
AcDbLine
 10
-0.910042
 20
-0.571379
 30
0.0
 11
-0.910168
 21
-0.570264
 31
0.0
210
0.0
220
0.0
230
1.0
  0
LINE
  5
662
100
AcDbEntity
  8
0
370
     5
390
0
 62
     7
 48
0.000028
100
AcDbLine
 10
-0.910168
 20
-0.570264
 30
0.0
 11
-0.910376
 21
-0.569162
 31
0.0
210
0.0
220
0.0
230
1.0
  0
LINE
  5
663
100
AcDbEntity
  8
0
370
     5
390
0
 62
     7
 48
0.000028
100
AcDbLine
 10
-0.910376
 20
-0.569162
 30
0.0
 11
-0.910666
 21
-0.568079
 31
0.0
210
0.0
220
0.0
230
1.0
  0
LINE
  5
664
100
AcDbEntity
  8
0
370
     5
390
0
 62
     7
 48
0.000028
100
AcDbLine
 10
-0.910666
 20
-0.568079
 30
0.0
 11
-0.911037
 21
-0.56702
 31
0.0
210
0.0
220
0.0
230
1.0
  0
LINE
  5
665
100
AcDbEntity
  8
0
370
     5
390
0
 62
     7
 48
0.000028
100
AcDbLine
 10
-0.911037
 20
-0.56702
 30
0.0
 11
-0.911485
 21
-0.565992
 31
0.0
210
0.0
220
0.0
230
1.0
  0
LINE
  5
666
100
AcDbEntity
  8
0
370
     5
390
0
 62
     7
 48
0.000028
100
AcDbLine
 10
-0.911485
 20
-0.565992
 30
0.0
 11
-0.91201
 21
-0.565
 31
0.0
210
0.0
220
0.0
230
1.0
  0
LINE
  5
667
100
AcDbEntity
  8
0
370
     5
390
0
 62
     7
 48
0.000028
100
AcDbLine
 10
-0.91201
 20
-0.565
 30
0.0
 11
-0.912606
 21
-0.56405
 31
0.0
210
0.0
220
0.0
230
1.0
  0
LINE
  5
668
100
AcDbEntity
  8
0
370
     5
390
0
 62
     7
 48
0.000028
100
AcDbLine
 10
-0.912606
 20
-0.56405
 30
0.0
 11
-0.913273
 21
-0.563148
 31
0.0
210
0.0
220
0.0
230
1.0
  0
LINE
  5
669
100
AcDbEntity
  8
0
370
     5
390
0
 62
     7
 48
0.000028
100
AcDbLine
 10
-0.913273
 20
-0.563148
 30
0.0
 11
-0.914004
 21
-0.562297
 31
0.0
210
0.0
220
0.0
230
1.0
  0
LINE
  5
66A
100
AcDbEntity
  8
0
370
     5
390
0
 62
     7
 48
0.000028
100
AcDbLine
 10
-0.914004
 20
-0.562297
 30
0.0
 11
-0.914797
 21
-0.561504
 31
0.0
210
0.0
220
0.0
230
1.0
  0
LINE
  5
66B
100
AcDbEntity
  8
0
370
     5
390
0
 62
     7
 48
0.000028
100
AcDbLine
 10
-0.914797
 20
-0.561504
 30
0.0
 11
-0.915648
 21
-0.560773
 31
0.0
210
0.0
220
0.0
230
1.0
  0
LINE
  5
66C
100
AcDbEntity
  8
0
370
     5
390
0
 62
     7
 48
0.000028
100
AcDbLine
 10
-0.915648
 20
-0.560773
 30
0.0
 11
-0.91655
 21
-0.560106
 31
0.0
210
0.0
220
0.0
230
1.0
  0
LINE
  5
66D
100
AcDbEntity
  8
0
370
     5
390
0
 62
     7
 48
0.000028
100
AcDbLine
 10
-0.91655
 20
-0.560106
 30
0.0
 11
-0.9175
 21
-0.55951
 31
0.0
210
0.0
220
0.0
230
1.0
  0
LINE
  5
66E
100
AcDbEntity
  8
0
370
     5
390
0
 62
     7
 48
0.000028
100
AcDbLine
 10
-0.9175
 20
-0.55951
 30
0.0
 11
-0.918492
 21
-0.558985
 31
0.0
210
0.0
220
0.0
230
1.0
  0
LINE
  5
66F
100
AcDbEntity
  8
0
370
     5
390
0
 62
     7
 48
0.000028
100
AcDbLine
 10
-0.918492
 20
-0.558985
 30
0.0
 11
-0.91952
 21
-0.558537
 31
0.0
210
0.0
220
0.0
230
1.0
  0
LINE
  5
670
100
AcDbEntity
  8
0
370
     5
390
0
 62
     7
 48
0.000028
100
AcDbLine
 10
-0.91952
 20
-0.558537
 30
0.0
 11
-0.920579
 21
-0.558166
 31
0.0
210
0.0
220
0.0
230
1.0
  0
LINE
  5
671
100
AcDbEntity
  8
0
370
     5
390
0
 62
     7
 48
0.000028
100
AcDbLine
 10
-0.920579
 20
-0.558166
 30
0.0
 11
-0.921662
 21
-0.557876
 31
0.0
210
0.0
220
0.0
230
1.0
  0
LINE
  5
672
100
AcDbEntity
  8
0
370
     5
390
0
 62
     7
 48
0.000028
100
AcDbLine
 10
-0.921662
 20
-0.557876
 30
0.0
 11
-0.922764
 21
-0.557668
 31
0.0
210
0.0
220
0.0
230
1.0
  0
LINE
  5
673
100
AcDbEntity
  8
0
370
     5
390
0
 62
     7
 48
0.000028
100
AcDbLine
 10
-0.922764
 20
-0.557668
 30
0.0
 11
-0.923879
 21
-0.557542
 31
0.0
210
0.0
220
0.0
230
1.0
  0
LINE
  5
674
100
AcDbEntity
  8
0
370
     5
390
0
 62
     7
 48
0.000028
100
AcDbLine
 10
-0.923879
 20
-0.557542
 30
0.0
 11
-0.925
 21
-0.5575
 31
0.0
210
0.0
220
0.0
230
1.0
  0
LINE
  5
675
100
AcDbEntity
  8
0
370
     5
390
0
 62
     7
 48
0.008125
100
AcDbLine
 10
-0.925
 20
-0.5575
 30
0.0
 11
-1.25
 21
-0.5575
 31
0.0
210
0.0
220
0.0
230
1.0
  0
LINE
  5
676
100
AcDbEntity
  8
0
370
     5
390
0
 62
     7
 48
0.013937
100
AcDbLine
 10
-1.25
 20
-0.5575
 30
0.0
 11
-1.25
 21
0.0
 31
0.0
210
0.0
220
0.0
230
1.0
  0
LINE
  5
677
100
AcDbEntity
  8
0
370
     5
390
0
 62
     7
 48
0.03937
100
AcDbLine
 10
-1.25
 20
0.0
 30
0.0
 11
-0.375
 21
0.0
 31
0.0
210
0.0
220
0.0
230
1.0
  0
ENDBLK
  5
678
100
AcDbEntity
  8
0
390
0
100
AcDbBlockEnd
  0
BLOCK
  5
679
100
AcDbEntity
  8
0
370
     0
390
0
100
AcDbBlockBegin
  2
BLOCK24
 70
     0
 10
0.0
 20
0.0
 30
0.0
  3
BLOCK24
  1

  0
LINE
  5
67A
100
AcDbEntity
  8
0
370
     5
390
0
 62
     7
 48
0.013937
100
AcDbLine
 10
-2.0
 20
0.0
 30
0.0
 11
-2.0
 21
-0.5575
 31
0.0
210
0.0
220
0.0
230
1.0
  0
LINE
  5
67B
100
AcDbEntity
  8
0
370
     5
390
0
 62
     7
 48
0.00775
100
AcDbLine
 10
-2.0
 20
-0.5575
 30
0.0
 11
-2.31
 21
-0.5575
 31
0.0
210
0.0
220
0.0
230
1.0
  0
LINE
  5
67C
100
AcDbEntity
  8
0
370
     5
390
0
 62
     7
 48
0.013937
100
AcDbLine
 10
-2.31
 20
-0.5575
 30
0.0
 11
-2.31
 21
0.0
 31
0.0
210
0.0
220
0.0
230
1.0
  0
LINE
  5
67D
100
AcDbEntity
  8
0
370
     5
390
0
 62
     7
 48
0.00775
100
AcDbLine
 10
-2.31
 20
0.0
 30
0.0
 11
-2.0
 21
0.0
 31
0.0
210
0.0
220
0.0
230
1.0
  0
ENDBLK
  5
67E
100
AcDbEntity
  8
0
390
0
100
AcDbBlockEnd
  0
ENDSEC
  0
SECTION
  2
ENTITIES
  0
VIEWPORT
  5
430
100
AcDbEntity
 67
     1
  8
0
370
     0
390
0
 62
     0
 48
0.0
100
AcDbViewport
 10
0.0
 20
0.0
 30
0.0
 40
1000.0
 41
1000.0
 68
     1
 69
     1
 12
0.0
 22
0.0
 13
0.0
 23
0.0
 14
1.0
 24
1.0
 15
1.0
 25
1.0
 16
0.0
 26
0.0
 36
1.0
 17
0.0
 27
0.0
 37
0.0
 42
50.0
 43
0.0
 44
0.0
 45
1000.0
 50
0.0
 51
0.0
 72
   100
 90
        0
340
0
  1

281
     0
 71
     0
 74
     1
110
0.0
120
0.0
130
0.0
111
1.0
121
0.0
131
0.0
112
0.0
122
1.0
132
0.0
345
0
346
0
 79
     0
146
0.0
  0
TEXT
  5
27
100
AcDbEntity
  8
0
370
    13
390
0
 62
     7
 48
0.03937
100
AcDbText
 10
7.774762
 20
1.08216
 30
0.0
 40
0.06
  1
SIZE:
 72
     5
 11
8.064134
 21
1.08216
 31
0.0
100
AcDbText
  0
TEXT
  5
28
100
AcDbEntity
  8
0
370
    13
390
0
 62
     7
 48
0.03937
100
AcDbText
 10
7.774762
 20
0.894218
 30
0.0
 40
0.06
  1
TYPE:
 72
     5
 11
8.064134
 21
0.894218
 31
0.0
100
AcDbText
  0
POINT
  5
29
100
AcDbEntity
  8
0
370
     5
390
0
 62
     7
 48
0.03937
100
AcDbPoint
 10
0.0
 20
0.0
 30
0.0
210
0.0
220
0.0
230
1.0
  0
POINT
  5
2A
100
AcDbEntity
  8
0
370
     5
390
0
 62
     7
 48
0.03937
100
AcDbPoint
 10
8.029755
 20
0.53125
 30
0.0
210
0.0
220
0.0
230
1.0
  0
LINE
  5
2B
100
AcDbEntity
  8
1
370
    35
390
0
 62
     7
 48
0.000032
100
AcDbLine
 10
9.035676
 20
0.778761
 30
0.0
 11
9.036922
 21
0.778449
 31
0.0
210
0.0
220
0.0
230
1.0
  0
LINE
  5
2C
100
AcDbEntity
  8
1
370
    35
390
0
 62
     7
 48
0.03937
100
AcDbLine
 10
0.25
 20
0.25
 30
0.0
 11
0.25
 21
8.25
 31
0.0
210
0.0
220
0.0
230
1.0
  0
LINE
  5
2D
100
AcDbEntity
  8
1
370
    35
390
0
 62
     7
 48
0.03937
100
AcDbLine
 10
7.75
 20
1.1875
 30
0.0
 11
10.75
 21
1.1875
 31
0.0
210
0.0
220
0.0
230
1.0
  0
LINE
  5
2E
100
AcDbEntity
  8
1
370
    35
390
0
 62
     7
 48
0.03937
100
AcDbLine
 10
7.75
 20
1.0
 30
0.0
 11
10.75
 21
1.0
 31
0.0
210
0.0
220
0.0
230
1.0
  0
LINE
  5
2F
100
AcDbEntity
  8
1
370
    35
390
0
 62
     7
 48
0.03937
100
AcDbLine
 10
0.25
 20
8.25
 30
0.0
 11
10.75
 21
8.25
 31
0.0
210
0.0
220
0.0
230
1.0
  0
LINE
  5
30
100
AcDbEntity
  8
1
370
    35
390
0
 62
     7
 48
0.03937
100
AcDbLine
 10
7.75
 20
0.8125
 30
0.0
 11
10.75
 21
0.8125
 31
0.0
210
0.0
220
0.0
230
1.0
  0
LINE
  5
31
100
AcDbEntity
  8
1
370
    35
390
0
 62
     7
 48
0.03937
100
AcDbLine
 10
0.25
 20
0.25
 30
0.0
 11
10.75
 21
0.25
 31
0.0
210
0.0
220
0.0
230
1.0
  0
LINE
  5
32
100
AcDbEntity
  8
1
370
    35
390
0
 62
     7
 48
0.03937
100
AcDbLine
 10
10.75
 20
8.25
 30
0.0
 11
10.75
 21
0.25
 31
0.0
210
0.0
220
0.0
230
1.0
  0
LINE
  5
33
100
AcDbEntity
  8
1
370
    35
390
0
 62
     7
 48
0.03937
100
AcDbLine
 10
7.75
 20
1.1875
 30
0.0
 11
7.75
 21
0.25
 31
0.0
210
0.0
220
0.0
230
1.0
  0
CIRCLE
  5
34
100
AcDbEntity
  8
0
370
    70
390
0
 62
     7
 48
0.03937
100
AcDbCircle
 10
8.029755
 20
0.53125
 30
0.0
 40
0.2475
210
0.0
220
0.0
230
1.0
  0
CIRCLE
  5
35
100
AcDbEntity
  8
0
370
    70
390
0
 62
     7
 48
0.03937
100
AcDbCircle
 10
8.029755
 20
0.53125
 30
0.0
 40
0.195
210
0.0
220
0.0
230
1.0
  0
CIRCLE
  5
36
100
AcDbEntity
  8
0
370
    35
390
0
 62
     7
 48
0.03937
100
AcDbCircle
 10
8.029755
 20
0.7525
 30
0.0
 40
0.015
210
0.0
220
0.0
230
1.0
  0
CIRCLE
  5
37
100
AcDbEntity
  8
0
370
    35
390
0
 62
     7
 48
0.03937
100
AcDbCircle
 10
8.251005
 20
0.53125
 30
0.0
 40
0.015
210
0.0
220
0.0
230
1.0
  0
CIRCLE
  5
38
100
AcDbEntity
  8
0
370
    35
390
0
 62
     7
 48
0.03937
100
AcDbCircle
 10
8.186202
 20
0.687697
 30
0.0
 40
0.015
210
0.0
220
0.0
230
1.0
  0
CIRCLE
  5
39
100
AcDbEntity
  8
0
370
    35
390
0
 62
     7
 48
0.03937
100
AcDbCircle
 10
8.029755
 20
0.31
 30
0.0
 40
0.015
210
0.0
220
0.0
230
1.0
  0
CIRCLE
  5
3A
100
AcDbEntity
  8
0
370
    35
390
0
 62
     7
 48
0.03937
100
AcDbCircle
 10
8.186202
 20
0.374803
 30
0.0
 40
0.015
210
0.0
220
0.0
230
1.0
  0
CIRCLE
  5
3B
100
AcDbEntity
  8
0
370
    35
390
0
 62
     7
 48
0.03937
100
AcDbCircle
 10
7.808505
 20
0.53125
 30
0.0
 40
0.015
210
0.0
220
0.0
230
1.0
  0
CIRCLE
  5
3C
100
AcDbEntity
  8
0
370
    35
390
0
 62
     7
 48
0.03937
100
AcDbCircle
 10
7.873308
 20
0.687697
 30
0.0
 40
0.015
210
0.0
220
0.0
230
1.0
  0
CIRCLE
  5
3D
100
AcDbEntity
  8
0
370
    35
390
0
 62
     7
 48
0.03937
100
AcDbCircle
 10
7.873308
 20
0.374803
 30
0.0
 40
0.015
210
0.0
220
0.0
230
1.0
  0
POLYLINE
  5
3E
100
AcDbEntity
  8
0
370
    13
390
0
 62
     7
 48
0.03937
100
AcDb2dPolyline
 66
     1
 10
0.0
 20
0.0
 30
0.0
 70
     1
 71
   118
  0
VERTEX
  5
3F
100
AcDbEntity
  8
0
370
     0
390
0
100
AcDbVertex
100
AcDb2dVertex
 10
8.029831
 20
0.605292
 30
0.0
  0
VERTEX
  5
40
100
AcDbEntity
  8
0
370
     0
390
0
100
AcDbVertex
100
AcDb2dVertex
 10
8.029019
 20
0.60375
 30
0.0
  0
VERTEX
  5
41
100
AcDbEntity
  8
0
370
     0
390
0
100
AcDbVertex
100
AcDb2dVertex
 10
8.021177
 20
0.589826
 30
0.0
  0
VERTEX
  5
42
100
AcDbEntity
  8
0
370
     0
390
0
100
AcDbVertex
100
AcDb2dVertex
 10
8.020426
 20
0.588405
 30
0.0
  0
VERTEX
  5
43
100
AcDbEntity
  8
0
370
     0
390
0
100
AcDbVertex
100
AcDb2dVertex
 10
8.019684
 20
0.586917
 30
0.0
  0
VERTEX
  5
44
100
AcDbEntity
  8
0
370
     0
390
0
100
AcDbVertex
100
AcDb2dVertex
 10
8.018954
 20
0.58536
 30
0.0
  0
VERTEX
  5
45
100
AcDbEntity
  8
0
370
     0
390
0
100
AcDbVertex
100
AcDb2dVertex
 10
8.018235
 20
0.583734
 30
0.0
  0
VERTEX
  5
46
100
AcDbEntity
  8
0
370
     0
390
0
100
AcDbVertex
100
AcDb2dVertex
 10
8.017528
 20
0.582038
 30
0.0
  0
VERTEX
  5
47
100
AcDbEntity
  8
0
370
     0
390
0
100
AcDbVertex
100
AcDb2dVertex
 10
8.01683
 20
0.580272
 30
0.0
  0
VERTEX
  5
48
100
AcDbEntity
  8
0
370
     0
390
0
100
AcDbVertex
100
AcDb2dVertex
 10
8.016143
 20
0.578438
 30
0.0
  0
VERTEX
  5
49
100
AcDbEntity
  8
0
370
     0
390
0
100
AcDbVertex
100
AcDb2dVertex
 10
8.015467
 20
0.576534
 30
0.0
  0
VERTEX
  5
4A
100
AcDbEntity
  8
0
370
     0
390
0
100
AcDbVertex
100
AcDb2dVertex
 10
8.014802
 20
0.574562
 30
0.0
  0
VERTEX
  5
4B
100
AcDbEntity
  8
0
370
     0
390
0
100
AcDbVertex
100
AcDb2dVertex
 10
8.014147
 20
0.572519
 30
0.0
  0
VERTEX
  5
4C
100
AcDbEntity
  8
0
370
     0
390
0
100
AcDbVertex
100
AcDb2dVertex
 10
8.012525
 20
0.574142
 30
0.0
  0
VERTEX
  5
4D
100
AcDbEntity
  8
0
370
     0
390
0
100
AcDbVertex
100
AcDb2dVertex
 10
8.011871
 20
0.576531
 30
0.0
  0
VERTEX
  5
4E
100
AcDbEntity
  8
0
370
     0
390
0
100
AcDbVertex
100
AcDb2dVertex
 10
8.011163
 20
0.578771
 30
0.0
  0
VERTEX
  5
4F
100
AcDbEntity
  8
0
370
     0
390
0
100
AcDbVertex
100
AcDb2dVertex
 10
8.010404
 20
0.580859
 30
0.0
  0
VERTEX
  5
50
100
AcDbEntity
  8
0
370
     0
390
0
100
AcDbVertex
100
AcDb2dVertex
 10
8.009591
 20
0.582795
 30
0.0
  0
VERTEX
  5
51
100
AcDbEntity
  8
0
370
     0
390
0
100
AcDbVertex
100
AcDb2dVertex
 10
8.008726
 20
0.584579
 30
0.0
  0
VERTEX
  5
52
100
AcDbEntity
  8
0
370
     0
390
0
100
AcDbVertex
100
AcDb2dVertex
 10
8.007806
 20
0.586212
 30
0.0
  0
VERTEX
  5
53
100
AcDbEntity
  8
0
370
     0
390
0
100
AcDbVertex
100
AcDb2dVertex
 10
8.006836
 20
0.587694
 30
0.0
  0
VERTEX
  5
54
100
AcDbEntity
  8
0
370
     0
390
0
100
AcDbVertex
100
AcDb2dVertex
 10
8.00581
 20
0.589025
 30
0.0
  0
VERTEX
  5
55
100
AcDbEntity
  8
0
370
     0
390
0
100
AcDbVertex
100
AcDb2dVertex
 10
8.004733
 20
0.590204
 30
0.0
  0
VERTEX
  5
56
100
AcDbEntity
  8
0
370
     0
390
0
100
AcDbVertex
100
AcDb2dVertex
 10
8.003601
 20
0.591231
 30
0.0
  0
VERTEX
  5
57
100
AcDbEntity
  8
0
370
     0
390
0
100
AcDbVertex
100
AcDb2dVertex
 10
8.002384
 20
0.592136
 30
0.0
  0
VERTEX
  5
58
100
AcDbEntity
  8
0
370
     0
390
0
100
AcDbVertex
100
AcDb2dVertex
 10
8.001043
 20
0.592944
 30
0.0
  0
VERTEX
  5
59
100
AcDbEntity
  8
0
370
     0
390
0
100
AcDbVertex
100
AcDb2dVertex
 10
7.99958
 20
0.593658
 30
0.0
  0
VERTEX
  5
5A
100
AcDbEntity
  8
0
370
     0
390
0
100
AcDbVertex
100
AcDb2dVertex
 10
7.997995
 20
0.594276
 30
0.0
  0
VERTEX
  5
5B
100
AcDbEntity
  8
0
370
     0
390
0
100
AcDbVertex
100
AcDb2dVertex
 10
7.996287
 20
0.5948
 30
0.0
  0
VERTEX
  5
5C
100
AcDbEntity
  8
0
370
     0
390
0
100
AcDbVertex
100
AcDb2dVertex
 10
7.994457
 20
0.595229
 30
0.0
  0
VERTEX
  5
5D
100
AcDbEntity
  8
0
370
     0
390
0
100
AcDbVertex
100
AcDb2dVertex
 10
7.992506
 20
0.595562
 30
0.0
  0
VERTEX
  5
5E
100
AcDbEntity
  8
0
370
     0
390
0
100
AcDbVertex
100
AcDb2dVertex
 10
7.990431
 20
0.595799
 30
0.0
  0
VERTEX
  5
5F
100
AcDbEntity
  8
0
370
     0
390
0
100
AcDbVertex
100
AcDb2dVertex
 10
7.988236
 20
0.595943
 30
0.0
  0
VERTEX
  5
60
100
AcDbEntity
  8
0
370
     0
390
0
100
AcDbVertex
100
AcDb2dVertex
 10
7.985918
 20
0.595991
 30
0.0
  0
VERTEX
  5
61
100
AcDbEntity
  8
0
370
     0
390
0
100
AcDbVertex
100
AcDb2dVertex
 10
7.983971
 20
0.595973
 30
0.0
  0
VERTEX
  5
62
100
AcDbEntity
  8
0
370
     0
390
0
100
AcDbVertex
100
AcDb2dVertex
 10
7.982024
 20
0.59592
 30
0.0
  0
VERTEX
  5
63
100
AcDbEntity
  8
0
370
     0
390
0
100
AcDbVertex
100
AcDb2dVertex
 10
7.980077
 20
0.595835
 30
0.0
  0
VERTEX
  5
64
100
AcDbEntity
  8
0
370
     0
390
0
100
AcDbVertex
100
AcDb2dVertex
 10
7.97813
 20
0.595713
 30
0.0
  0
VERTEX
  5
65
100
AcDbEntity
  8
0
370
     0
390
0
100
AcDbVertex
100
AcDb2dVertex
 10
7.976183
 20
0.595557
 30
0.0
  0
VERTEX
  5
66
100
AcDbEntity
  8
0
370
     0
390
0
100
AcDbVertex
100
AcDb2dVertex
 10
7.974885
 20
0.478313
 30
0.0
  0
VERTEX
  5
67
100
AcDbEntity
  8
0
370
     0
390
0
100
AcDbVertex
100
AcDb2dVertex
 10
7.987647
 20
0.466523
 30
0.0
  0
VERTEX
  5
68
100
AcDbEntity
  8
0
370
     0
390
0
100
AcDbVertex
100
AcDb2dVertex
 10
7.93822
 20
0.466523
 30
0.0
  0
VERTEX
  5
69
100
AcDbEntity
  8
0
370
     0
390
0
100
AcDbVertex
100
AcDb2dVertex
 10
7.953361
 20
0.479178
 30
0.0
  0
VERTEX
  5
6A
100
AcDbEntity
  8
0
370
     0
390
0
100
AcDbVertex
100
AcDb2dVertex
 10
7.953361
 20
0.586796
 30
0.0
  0
VERTEX
  5
6B
100
AcDbEntity
  8
0
370
     0
390
0
100
AcDbVertex
100
AcDb2dVertex
 10
7.945682
 20
0.586905
 30
0.0
  0
VERTEX
  5
6C
100
AcDbEntity
  8
0
370
     0
390
0
100
AcDbVertex
100
AcDb2dVertex
 10
7.943519
 20
0.58686
 30
0.0
  0
VERTEX
  5
6D
100
AcDbEntity
  8
0
370
     0
390
0
100
AcDbVertex
100
AcDb2dVertex
 10
7.941484
 20
0.58673
 30
0.0
  0
VERTEX
  5
6E
100
AcDbEntity
  8
0
370
     0
390
0
100
AcDbVertex
100
AcDb2dVertex
 10
7.939577
 20
0.586511
 30
0.0
  0
VERTEX
  5
6F
100
AcDbEntity
  8
0
370
     0
390
0
100
AcDbVertex
100
AcDb2dVertex
 10
7.937799
 20
0.586203
 30
0.0
  0
VERTEX
  5
70
100
AcDbEntity
  8
0
370
     0
390
0
100
AcDbVertex
100
AcDb2dVertex
 10
7.936151
 20
0.585809
 30
0.0
  0
VERTEX
  5
71
100
AcDbEntity
  8
0
370
     0
390
0
100
AcDbVertex
100
AcDb2dVertex
 10
7.93463
 20
0.585327
 30
0.0
  0
VERTEX
  5
72
100
AcDbEntity
  8
0
370
     0
390
0
100
AcDbVertex
100
AcDb2dVertex
 10
7.93324
 20
0.584759
 30
0.0
  0
VERTEX
  5
73
100
AcDbEntity
  8
0
370
     0
390
0
100
AcDbVertex
100
AcDb2dVertex
 10
7.930843
 20
0.583356
 30
0.0
  0
VERTEX
  5
74
100
AcDbEntity
  8
0
370
     0
390
0
100
AcDbVertex
100
AcDb2dVertex
 10
7.928935
 20
0.581582
 30
0.0
  0
VERTEX
  5
75
100
AcDbEntity
  8
0
370
     0
390
0
100
AcDbVertex
100
AcDb2dVertex
 10
7.92736
 20
0.579297
 30
0.0
  0
VERTEX
  5
76
100
AcDbEntity
  8
0
370
     0
390
0
100
AcDbVertex
100
AcDb2dVertex
 10
7.926092
 20
0.57648
 30
0.0
  0
VERTEX
  5
77
100
AcDbEntity
  8
0
370
     0
390
0
100
AcDbVertex
100
AcDb2dVertex
 10
7.925573
 20
0.574872
 30
0.0
  0
VERTEX
  5
78
100
AcDbEntity
  8
0
370
     0
390
0
100
AcDbVertex
100
AcDb2dVertex
 10
7.92513
 20
0.573132
 30
0.0
  0
VERTEX
  5
79
100
AcDbEntity
  8
0
370
     0
390
0
100
AcDbVertex
100
AcDb2dVertex
 10
7.924766
 20
0.571259
 30
0.0
  0
VERTEX
  5
7A
100
AcDbEntity
  8
0
370
     0
390
0
100
AcDbVertex
100
AcDb2dVertex
 10
7.924478
 20
0.569252
 30
0.0
  0
VERTEX
  5
7B
100
AcDbEntity
  8
0
370
     0
390
0
100
AcDbVertex
100
AcDb2dVertex
 10
7.924266
 20
0.567111
 30
0.0
  0
VERTEX
  5
7C
100
AcDbEntity
  8
0
370
     0
390
0
100
AcDbVertex
100
AcDb2dVertex
 10
7.921454
 20
0.567111
 30
0.0
  0
VERTEX
  5
7D
100
AcDbEntity
  8
0
370
     0
390
0
100
AcDbVertex
100
AcDb2dVertex
 10
7.921734
 20
0.569565
 30
0.0
  0
VERTEX
  5
7E
100
AcDbEntity
  8
0
370
     0
390
0
100
AcDbVertex
100
AcDb2dVertex
 10
7.922096
 20
0.571866
 30
0.0
  0
VERTEX
  5
7F
100
AcDbEntity
  8
0
370
     0
390
0
100
AcDbVertex
100
AcDb2dVertex
 10
7.922543
 20
0.574013
 30
0.0
  0
VERTEX
  5
80
100
AcDbEntity
  8
0
370
     0
390
0
100
AcDbVertex
100
AcDb2dVertex
 10
7.923073
 20
0.576006
 30
0.0
  0
VERTEX
  5
81
100
AcDbEntity
  8
0
370
     0
390
0
100
AcDbVertex
100
AcDb2dVertex
 10
7.923684
 20
0.577847
 30
0.0
  0
VERTEX
  5
82
100
AcDbEntity
  8
0
370
     0
390
0
100
AcDbVertex
100
AcDb2dVertex
 10
7.924381
 20
0.579533
 30
0.0
  0
VERTEX
  5
83
100
AcDbEntity
  8
0
370
     0
390
0
100
AcDbVertex
100
AcDb2dVertex
 10
7.92516
 20
0.581064
 30
0.0
  0
VERTEX
  5
84
100
AcDbEntity
  8
0
370
     0
390
0
100
AcDbVertex
100
AcDb2dVertex
 10
7.926023
 20
0.582444
 30
0.0
  0
VERTEX
  5
85
100
AcDbEntity
  8
0
370
     0
390
0
100
AcDbVertex
100
AcDb2dVertex
 10
7.926968
 20
0.58367
 30
0.0
  0
VERTEX
  5
86
100
AcDbEntity
  8
0
370
     0
390
0
100
AcDbVertex
100
AcDb2dVertex
 10
7.929138
 20
0.585687
 30
0.0
  0
VERTEX
  5
87
100
AcDbEntity
  8
0
370
     0
390
0
100
AcDbVertex
100
AcDb2dVertex
 10
7.930418
 20
0.586532
 30
0.0
  0
VERTEX
  5
88
100
AcDbEntity
  8
0
370
     0
390
0
100
AcDbVertex
100
AcDb2dVertex
 10
7.931839
 20
0.587279
 30
0.0
  0
VERTEX
  5
89
100
AcDbEntity
  8
0
370
     0
390
0
100
AcDbVertex
100
AcDb2dVertex
 10
7.933397
 20
0.587925
 30
0.0
  0
VERTEX
  5
8A
100
AcDbEntity
  8
0
370
     0
390
0
100
AcDbVertex
100
AcDb2dVertex
 10
7.935095
 20
0.588473
 30
0.0
  0
VERTEX
  5
8B
100
AcDbEntity
  8
0
370
     0
390
0
100
AcDbVertex
100
AcDb2dVertex
 10
7.936934
 20
0.588921
 30
0.0
  0
VERTEX
  5
8C
100
AcDbEntity
  8
0
370
     0
390
0
100
AcDbVertex
100
AcDb2dVertex
 10
7.938912
 20
0.589269
 30
0.0
  0
VERTEX
  5
8D
100
AcDbEntity
  8
0
370
     0
390
0
100
AcDbVertex
100
AcDb2dVertex
 10
7.941029
 20
0.589518
 30
0.0
  0
VERTEX
  5
8E
100
AcDbEntity
  8
0
370
     0
390
0
100
AcDbVertex
100
AcDb2dVertex
 10
7.943286
 20
0.589667
 30
0.0
  0
VERTEX
  5
8F
100
AcDbEntity
  8
0
370
     0
390
0
100
AcDbVertex
100
AcDb2dVertex
 10
7.945682
 20
0.589716
 30
0.0
  0
VERTEX
  5
90
100
AcDbEntity
  8
0
370
     0
390
0
100
AcDbVertex
100
AcDb2dVertex
 10
7.952171
 20
0.589608
 30
0.0
  0
VERTEX
  5
91
100
AcDbEntity
  8
0
370
     0
390
0
100
AcDbVertex
100
AcDb2dVertex
 10
7.953361
 20
0.594908
 30
0.0
  0
VERTEX
  5
92
100
AcDbEntity
  8
0
370
     0
390
0
100
AcDbVertex
100
AcDb2dVertex
 10
7.951177
 20
0.595142
 30
0.0
  0
VERTEX
  5
93
100
AcDbEntity
  8
0
370
     0
390
0
100
AcDbVertex
100
AcDb2dVertex
 10
7.949034
 20
0.595323
 30
0.0
  0
VERTEX
  5
94
100
AcDbEntity
  8
0
370
     0
390
0
100
AcDbVertex
100
AcDb2dVertex
 10
7.946936
 20
0.595454
 30
0.0
  0
VERTEX
  5
95
100
AcDbEntity
  8
0
370
     0
390
0
100
AcDbVertex
100
AcDb2dVertex
 10
7.944881
 20
0.595532
 30
0.0
  0
VERTEX
  5
96
100
AcDbEntity
  8
0
370
     0
390
0
100
AcDbVertex
100
AcDb2dVertex
 10
7.94287
 20
0.595557
 30
0.0
  0
VERTEX
  5
97
100
AcDbEntity
  8
0
370
     0
390
0
100
AcDbVertex
100
AcDb2dVertex
 10
7.940158
 20
0.5955
 30
0.0
  0
VERTEX
  5
98
100
AcDbEntity
  8
0
370
     0
390
0
100
AcDbVertex
100
AcDb2dVertex
 10
7.9376
 20
0.595331
 30
0.0
  0
VERTEX
  5
99
100
AcDbEntity
  8
0
370
     0
390
0
100
AcDbVertex
100
AcDb2dVertex
 10
7.9352
 20
0.595046
 30
0.0
  0
VERTEX
  5
9A
100
AcDbEntity
  8
0
370
     0
390
0
100
AcDbVertex
100
AcDb2dVertex
 10
7.932953
 20
0.594648
 30
0.0
  0
VERTEX
  5
9B
100
AcDbEntity
  8
0
370
     0
390
0
100
AcDbVertex
100
AcDb2dVertex
 10
7.930864
 20
0.594138
 30
0.0
  0
VERTEX
  5
9C
100
AcDbEntity
  8
0
370
     0
390
0
100
AcDbVertex
100
AcDb2dVertex
 10
7.92893
 20
0.593513
 30
0.0
  0
VERTEX
  5
9D
100
AcDbEntity
  8
0
370
     0
390
0
100
AcDbVertex
100
AcDb2dVertex
 10
7.927152
 20
0.592775
 30
0.0
  0
VERTEX
  5
9E
100
AcDbEntity
  8
0
370
     0
390
0
100
AcDbVertex
100
AcDb2dVertex
 10
7.92553
 20
0.591923
 30
0.0
  0
VERTEX
  5
9F
100
AcDbEntity
  8
0
370
     0
390
0
100
AcDbVertex
100
AcDb2dVertex
 10
7.924063
 20
0.590958
 30
0.0
  0
VERTEX
  5
A0
100
AcDbEntity
  8
0
370
     0
390
0
100
AcDbVertex
100
AcDb2dVertex
 10
7.922751
 20
0.58988
 30
0.0
  0
VERTEX
  5
A1
100
AcDbEntity
  8
0
370
     0
390
0
100
AcDbVertex
100
AcDb2dVertex
 10
7.921574
 20
0.588665
 30
0.0
  0
VERTEX
  5
A2
100
AcDbEntity
  8
0
370
     0
390
0
100
AcDbVertex
100
AcDb2dVertex
 10
7.920506
 20
0.587294
 30
0.0
  0
VERTEX
  5
A3
100
AcDbEntity
  8
0
370
     0
390
0
100
AcDbVertex
100
AcDb2dVertex
 10
7.919549
 20
0.585767
 30
0.0
  0
VERTEX
  5
A4
100
AcDbEntity
  8
0
370
     0
390
0
100
AcDbVertex
100
AcDb2dVertex
 10
7.918703
 20
0.584081
 30
0.0
  0
VERTEX
  5
A5
100
AcDbEntity
  8
0
370
     0
390
0
100
AcDbVertex
100
AcDb2dVertex
 10
7.917966
 20
0.58224
 30
0.0
  0
VERTEX
  5
A6
100
AcDbEntity
  8
0
370
     0
390
0
100
AcDbVertex
100
AcDb2dVertex
 10
7.917339
 20
0.580242
 30
0.0
  0
VERTEX
  5
A7
100
AcDbEntity
  8
0
370
     0
390
0
100
AcDbVertex
100
AcDb2dVertex
 10
7.916824
 20
0.578087
 30
0.0
  0
VERTEX
  5
A8
100
AcDbEntity
  8
0
370
     0
390
0
100
AcDbVertex
100
AcDb2dVertex
 10
7.916418
 20
0.575775
 30
0.0
  0
VERTEX
  5
A9
100
AcDbEntity
  8
0
370
     0
390
0
100
AcDbVertex
100
AcDb2dVertex
 10
7.916123
 20
0.573306
 30
0.0
  0
VERTEX
  5
AA
100
AcDbEntity
  8
0
370
     0
390
0
100
AcDbVertex
100
AcDb2dVertex
 10
7.915938
 20
0.570681
 30
0.0
  0
VERTEX
  5
AB
100
AcDbEntity
  8
0
370
     0
390
0
100
AcDbVertex
100
AcDb2dVertex
 10
7.913659
 20
0.573722
 30
0.0
  0
VERTEX
  5
AC
100
AcDbEntity
  8
0
370
     0
390
0
100
AcDbVertex
100
AcDb2dVertex
 10
7.912577
 20
0.576833
 30
0.0
  0
VERTEX
  5
AD
100
AcDbEntity
  8
0
370
     0
390
0
100
AcDbVertex
100
AcDb2dVertex
 10
7.911392
 20
0.580013
 30
0.0
  0
VERTEX
  5
AE
100
AcDbEntity
  8
0
370
     0
390
0
100
AcDbVertex
100
AcDb2dVertex
 10
7.910106
 20
0.583262
 30
0.0
  0
VERTEX
  5
AF
100
AcDbEntity
  8
0
370
     0
390
0
100
AcDbVertex
100
AcDb2dVertex
 10
7.908719
 20
0.58658
 30
0.0
  0
VERTEX
  5
B0
100
AcDbEntity
  8
0
370
     0
390
0
100
AcDbVertex
100
AcDb2dVertex
 10
7.907229
 20
0.589967
 30
0.0
  0
VERTEX
  5
B1
100
AcDbEntity
  8
0
370
     0
390
0
100
AcDbVertex
100
AcDb2dVertex
 10
7.905638
 20
0.593424
 30
0.0
  0
VERTEX
  5
B2
100
AcDbEntity
  8
0
370
     0
390
0
100
AcDbVertex
100
AcDb2dVertex
 10
7.903945
 20
0.596951
 30
0.0
  0
VERTEX
  5
B3
100
AcDbEntity
  8
0
370
     0
390
0
100
AcDbVertex
100
AcDb2dVertex
 10
7.902151
 20
0.600546
 30
0.0
  0
VERTEX
  5
B4
100
AcDbEntity
  8
0
370
     0
390
0
100
AcDbVertex
100
AcDb2dVertex
 10
7.900255
 20
0.604209
 30
0.0
  0
SEQEND
  5
B5
100
AcDbEntity
  8
0
370
     0
390
0
  0
POLYLINE
  5
B6
100
AcDbEntity
  8
0
370
    13
390
0
 62
     7
 48
0.03937
100
AcDb2dPolyline
 66
     1
 10
0.0
 20
0.0
 30
0.0
 70
     1
 71
    22
  0
VERTEX
  5
B7
100
AcDbEntity
  8
0
370
     0
390
0
100
AcDbVertex
100
AcDb2dVertex
 10
8.036644
 20
0.598478
 30
0.0
  0
VERTEX
  5
B8
100
AcDbEntity
  8
0
370
     0
390
0
100
AcDbVertex
100
AcDb2dVertex
 10
8.035144
 20
0.596448
 30
0.0
  0
VERTEX
  5
B9
100
AcDbEntity
  8
0
370
     0
390
0
100
AcDbVertex
100
AcDb2dVertex
 10
8.033629
 20
0.594168
 30
0.0
  0
VERTEX
  5
BA
100
AcDbEntity
  8
0
370
     0
390
0
100
AcDbVertex
100
AcDb2dVertex
 10
8.032099
 20
0.591638
 30
0.0
  0
VERTEX
  5
BB
100
AcDbEntity
  8
0
370
     0
390
0
100
AcDbVertex
100
AcDb2dVertex
 10
8.030552
 20
0.588855
 30
0.0
  0
VERTEX
  5
BC
100
AcDbEntity
  8
0
370
     0
390
0
100
AcDbVertex
100
AcDb2dVertex
 10
8.028992
 20
0.585822
 30
0.0
  0
VERTEX
  5
BD
100
AcDbEntity
  8
0
370
     0
390
0
100
AcDbVertex
100
AcDb2dVertex
 10
8.027416
 20
0.582539
 30
0.0
  0
VERTEX
  5
BE
100
AcDbEntity
  8
0
370
     0
390
0
100
AcDbVertex
100
AcDb2dVertex
 10
8.025824
 20
0.579005
 30
0.0
  0
VERTEX
  5
BF
100
AcDbEntity
  8
0
370
     0
390
0
100
AcDbVertex
100
AcDb2dVertex
 10
8.024219
 20
0.575219
 30
0.0
  0
VERTEX
  5
C0
100
AcDbEntity
  8
0
370
     0
390
0
100
AcDbVertex
100
AcDb2dVertex
 10
8.022597
 20
0.571182
 30
0.0
  0
VERTEX
  5
C1
100
AcDbEntity
  8
0
370
     0
390
0
100
AcDbVertex
100
AcDb2dVertex
 10
8.020961
 20
0.566895
 30
0.0
  0
VERTEX
  5
C2
100
AcDbEntity
  8
0
370
     0
390
0
100
AcDbVertex
100
AcDb2dVertex
 10
8.018149
 20
0.567869
 30
0.0
  0
VERTEX
  5
C3
100
AcDbEntity
  8
0
370
     0
390
0
100
AcDbVertex
100
AcDb2dVertex
 10
8.020069
 20
0.573183
 30
0.0
  0
VERTEX
  5
C4
100
AcDbEntity
  8
0
370
     0
390
0
100
AcDbVertex
100
AcDb2dVertex
 10
8.021652
 20
0.577253
 30
0.0
  0
VERTEX
  5
C5
100
AcDbEntity
  8
0
370
     0
390
0
100
AcDbVertex
100
AcDb2dVertex
 10
8.023227
 20
0.581049
 30
0.0
  0
VERTEX
  5
C6
100
AcDbEntity
  8
0
370
     0
390
0
100
AcDbVertex
100
AcDb2dVertex
 10
8.024791
 20
0.584573
 30
0.0
  0
VERTEX
  5
C7
100
AcDbEntity
  8
0
370
     0
390
0
100
AcDbVertex
100
AcDb2dVertex
 10
8.026342
 20
0.587825
 30
0.0
  0
VERTEX
  5
C8
100
AcDbEntity
  8
0
370
     0
390
0
100
AcDbVertex
100
AcDb2dVertex
 10
8.027884
 20
0.590802
 30
0.0
  0
VERTEX
  5
C9
100
AcDbEntity
  8
0
370
     0
390
0
100
AcDbVertex
100
AcDb2dVertex
 10
8.029413
 20
0.593508
 30
0.0
  0
VERTEX
  5
CA
100
AcDbEntity
  8
0
370
     0
390
0
100
AcDbVertex
100
AcDb2dVertex
 10
8.030933
 20
0.595943
 30
0.0
  0
VERTEX
  5
CB
100
AcDbEntity
  8
0
370
     0
390
0
100
AcDbVertex
100
AcDb2dVertex
 10
8.032442
 20
0.598104
 30
0.0
  0
VERTEX
  5
CC
100
AcDbEntity
  8
0
370
     0
390
0
100
AcDbVertex
100
AcDb2dVertex
 10
8.03394
 20
0.599991
 30
0.0
  0
SEQEND
  5
CD
100
AcDbEntity
  8
0
370
     0
390
0
  0
POLYLINE
  5
CE
100
AcDbEntity
  8
0
370
    13
390
0
 62
     7
 48
0.03937
100
AcDb2dPolyline
 66
     1
 10
0.0
 20
0.0
 30
0.0
 70
     1
 71
    34
  0
VERTEX
  5
CF
100
AcDbEntity
  8
0
370
     0
390
0
100
AcDbVertex
100
AcDb2dVertex
 10
8.007766
 20
0.581604
 30
0.0
  0
VERTEX
  5
D0
100
AcDbEntity
  8
0
370
     0
390
0
100
AcDbVertex
100
AcDb2dVertex
 10
8.006072
 20
0.582632
 30
0.0
  0
VERTEX
  5
D1
100
AcDbEntity
  8
0
370
     0
390
0
100
AcDbVertex
100
AcDb2dVertex
 10
8.004322
 20
0.583551
 30
0.0
  0
VERTEX
  5
D2
100
AcDbEntity
  8
0
370
     0
390
0
100
AcDbVertex
100
AcDb2dVertex
 10
8.002516
 20
0.584363
 30
0.0
  0
VERTEX
  5
D3
100
AcDbEntity
  8
0
370
     0
390
0
100
AcDbVertex
100
AcDb2dVertex
 10
8.000652
 20
0.585066
 30
0.0
  0
VERTEX
  5
D4
100
AcDbEntity
  8
0
370
     0
390
0
100
AcDbVertex
100
AcDb2dVertex
 10
7.998734
 20
0.58566
 30
0.0
  0
VERTEX
  5
D5
100
AcDbEntity
  8
0
370
     0
390
0
100
AcDbVertex
100
AcDb2dVertex
 10
7.996758
 20
0.586148
 30
0.0
  0
VERTEX
  5
D6
100
AcDbEntity
  8
0
370
     0
390
0
100
AcDbVertex
100
AcDb2dVertex
 10
7.994728
 20
0.586526
 30
0.0
  0
VERTEX
  5
D7
100
AcDbEntity
  8
0
370
     0
390
0
100
AcDbVertex
100
AcDb2dVertex
 10
7.992641
 20
0.586796
 30
0.0
  0
VERTEX
  5
D8
100
AcDbEntity
  8
0
370
     0
390
0
100
AcDbVertex
100
AcDb2dVertex
 10
7.990496
 20
0.586959
 30
0.0
  0
VERTEX
  5
D9
100
AcDbEntity
  8
0
370
     0
390
0
100
AcDbVertex
100
AcDb2dVertex
 10
7.988297
 20
0.587013
 30
0.0
  0
VERTEX
  5
DA
100
AcDbEntity
  8
0
370
     0
390
0
100
AcDbVertex
100
AcDb2dVertex
 10
7.986785
 20
0.586983
 30
0.0
  0
VERTEX
  5
DB
100
AcDbEntity
  8
0
370
     0
390
0
100
AcDbVertex
100
AcDb2dVertex
 10
7.985234
 20
0.586896
 30
0.0
  0
VERTEX
  5
DC
100
AcDbEntity
  8
0
370
     0
390
0
100
AcDbVertex
100
AcDb2dVertex
 10
7.983644
 20
0.586751
 30
0.0
  0
VERTEX
  5
DD
100
AcDbEntity
  8
0
370
     0
390
0
100
AcDbVertex
100
AcDb2dVertex
 10
7.983538
 20
0.477987
 30
0.0
  0
VERTEX
  5
DE
100
AcDbEntity
  8
0
370
     0
390
0
100
AcDbVertex
100
AcDb2dVertex
 10
8.000735
 20
0.457653
 30
0.0
  0
VERTEX
  5
DF
100
AcDbEntity
  8
0
370
     0
390
0
100
AcDbVertex
100
AcDb2dVertex
 10
7.945466
 20
0.457653
 30
0.0
  0
VERTEX
  5
E0
100
AcDbEntity
  8
0
370
     0
390
0
100
AcDbVertex
100
AcDb2dVertex
 10
7.942978
 20
0.460574
 30
0.0
  0
VERTEX
  5
E1
100
AcDbEntity
  8
0
370
     0
390
0
100
AcDbVertex
100
AcDb2dVertex
 10
7.994786
 20
0.460574
 30
0.0
  0
VERTEX
  5
E2
100
AcDbEntity
  8
0
370
     0
390
0
100
AcDbVertex
100
AcDb2dVertex
 10
7.980293
 20
0.477123
 30
0.0
  0
VERTEX
  5
E3
100
AcDbEntity
  8
0
370
     0
390
0
100
AcDbVertex
100
AcDb2dVertex
 10
7.980293
 20
0.589826
 30
0.0
  0
VERTEX
  5
E4
100
AcDbEntity
  8
0
370
     0
390
0
100
AcDbVertex
100
AcDb2dVertex
 10
7.986134
 20
0.589934
 30
0.0
  0
VERTEX
  5
E5
100
AcDbEntity
  8
0
370
     0
390
0
100
AcDbVertex
100
AcDb2dVertex
 10
7.988171
 20
0.589916
 30
0.0
  0
VERTEX
  5
E6
100
AcDbEntity
  8
0
370
     0
390
0
100
AcDbVertex
100
AcDb2dVertex
 10
7.990086
 20
0.589866
 30
0.0
  0
VERTEX
  5
E7
100
AcDbEntity
  8
0
370
     0
390
0
100
AcDbVertex
100
AcDb2dVertex
 10
7.991879
 20
0.589782
 30
0.0
  0
VERTEX
  5
E8
100
AcDbEntity
  8
0
370
     0
390
0
100
AcDbVertex
100
AcDb2dVertex
 10
7.993549
 20
0.589665
 30
0.0
  0
VERTEX
  5
E9
100
AcDbEntity
  8
0
370
     0
390
0
100
AcDbVertex
100
AcDb2dVertex
 10
7.995098
 20
0.589514
 30
0.0
  0
VERTEX
  5
EA
100
AcDbEntity
  8
0
370
     0
390
0
100
AcDbVertex
100
AcDb2dVertex
 10
7.997828
 20
0.589112
 30
0.0
  0
VERTEX
  5
EB
100
AcDbEntity
  8
0
370
     0
390
0
100
AcDbVertex
100
AcDb2dVertex
 10
8.000069
 20
0.588575
 30
0.0
  0
VERTEX
  5
EC
100
AcDbEntity
  8
0
370
     0
390
0
100
AcDbVertex
100
AcDb2dVertex
 10
8.001862
 20
0.587888
 30
0.0
  0
VERTEX
  5
ED
100
AcDbEntity
  8
0
370
     0
390
0
100
AcDbVertex
100
AcDb2dVertex
 10
8.003455
 20
0.586953
 30
0.0
  0
VERTEX
  5
EE
100
AcDbEntity
  8
0
370
     0
390
0
100
AcDbVertex
100
AcDb2dVertex
 10
8.004886
 20
0.585755
 30
0.0
  0
VERTEX
  5
EF
100
AcDbEntity
  8
0
370
     0
390
0
100
AcDbVertex
100
AcDb2dVertex
 10
8.006157
 20
0.584294
 30
0.0
  0
VERTEX
  5
F0
100
AcDbEntity
  8
0
370
     0
390
0
100
AcDbVertex
100
AcDb2dVertex
 10
8.007269
 20
0.582567
 30
0.0
  0
SEQEND
  5
F1
100
AcDbEntity
  8
0
370
     0
390
0
  0
POLYLINE
  5
F2
100
AcDbEntity
  8
0
370
    13
390
0
 62
     7
 48
0.03937
100
AcDb2dPolyline
 66
     1
 10
0.0
 20
0.0
 30
0.0
 70
     1
 71
   138
  0
VERTEX
  5
F3
100
AcDbEntity
  8
0
370
     0
390
0
100
AcDbVertex
100
AcDb2dVertex
 10
8.03978
 20
0.605292
 30
0.0
  0
VERTEX
  5
F4
100
AcDbEntity
  8
0
370
     0
390
0
100
AcDbVertex
100
AcDb2dVertex
 10
8.152051
 20
0.605292
 30
0.0
  0
VERTEX
  5
F5
100
AcDbEntity
  8
0
370
     0
390
0
100
AcDbVertex
100
AcDb2dVertex
 10
8.150747
 20
0.603555
 30
0.0
  0
VERTEX
  5
F6
100
AcDbEntity
  8
0
370
     0
390
0
100
AcDbVertex
100
AcDb2dVertex
 10
8.149522
 20
0.601895
 30
0.0
  0
VERTEX
  5
F7
100
AcDbEntity
  8
0
370
     0
390
0
100
AcDbVertex
100
AcDb2dVertex
 10
8.148372
 20
0.600311
 30
0.0
  0
VERTEX
  5
F8
100
AcDbEntity
  8
0
370
     0
390
0
100
AcDbVertex
100
AcDb2dVertex
 10
8.1473
 20
0.598802
 30
0.0
  0
VERTEX
  5
F9
100
AcDbEntity
  8
0
370
     0
390
0
100
AcDbVertex
100
AcDb2dVertex
 10
8.146304
 20
0.597369
 30
0.0
  0
VERTEX
  5
FA
100
AcDbEntity
  8
0
370
     0
390
0
100
AcDbVertex
100
AcDb2dVertex
 10
8.145386
 20
0.596012
 30
0.0
  0
VERTEX
  5
FB
100
AcDbEntity
  8
0
370
     0
390
0
100
AcDbVertex
100
AcDb2dVertex
 10
8.144543
 20
0.594729
 30
0.0
  0
VERTEX
  5
FC
100
AcDbEntity
  8
0
370
     0
390
0
100
AcDbVertex
100
AcDb2dVertex
 10
8.143089
 20
0.592394
 30
0.0
  0
VERTEX
  5
FD
100
AcDbEntity
  8
0
370
     0
390
0
100
AcDbVertex
100
AcDb2dVertex
 10
8.14189
 20
0.590261
 30
0.0
  0
VERTEX
  5
FE
100
AcDbEntity
  8
0
370
     0
390
0
100
AcDbVertex
100
AcDb2dVertex
 10
8.140617
 20
0.587735
 30
0.0
  0
VERTEX
  5
FF
100
AcDbEntity
  8
0
370
     0
390
0
100
AcDbVertex
100
AcDb2dVertex
 10
8.139935
 20
0.586286
 30
0.0
  0
VERTEX
  5
100
100
AcDbEntity
  8
0
370
     0
390
0
100
AcDbVertex
100
AcDb2dVertex
 10
8.13922
 20
0.584714
 30
0.0
  0
VERTEX
  5
101
100
AcDbEntity
  8
0
370
     0
390
0
100
AcDbVertex
100
AcDb2dVertex
 10
8.138474
 20
0.583019
 30
0.0
  0
VERTEX
  5
102
100
AcDbEntity
  8
0
370
     0
390
0
100
AcDbVertex
100
AcDb2dVertex
 10
8.137697
 20
0.581201
 30
0.0
  0
VERTEX
  5
103
100
AcDbEntity
  8
0
370
     0
390
0
100
AcDbVertex
100
AcDb2dVertex
 10
8.136889
 20
0.57926
 30
0.0
  0
VERTEX
  5
104
100
AcDbEntity
  8
0
370
     0
390
0
100
AcDbVertex
100
AcDb2dVertex
 10
8.136049
 20
0.577196
 30
0.0
  0
VERTEX
  5
105
100
AcDbEntity
  8
0
370
     0
390
0
100
AcDbVertex
100
AcDb2dVertex
 10
8.135177
 20
0.575007
 30
0.0
  0
VERTEX
  5
106
100
AcDbEntity
  8
0
370
     0
390
0
100
AcDbVertex
100
AcDb2dVertex
 10
8.134311
 20
0.572844
 30
0.0
  0
VERTEX
  5
107
100
AcDbEntity
  8
0
370
     0
390
0
100
AcDbVertex
100
AcDb2dVertex
 10
8.132887
 20
0.575682
 30
0.0
  0
VERTEX
  5
108
100
AcDbEntity
  8
0
370
     0
390
0
100
AcDbVertex
100
AcDb2dVertex
 10
8.131463
 20
0.578313
 30
0.0
  0
VERTEX
  5
109
100
AcDbEntity
  8
0
370
     0
390
0
100
AcDbVertex
100
AcDb2dVertex
 10
8.130044
 20
0.580736
 30
0.0
  0
VERTEX
  5
10A
100
AcDbEntity
  8
0
370
     0
390
0
100
AcDbVertex
100
AcDb2dVertex
 10
8.128628
 20
0.582951
 30
0.0
  0
VERTEX
  5
10B
100
AcDbEntity
  8
0
370
     0
390
0
100
AcDbVertex
100
AcDb2dVertex
 10
8.127215
 20
0.584958
 30
0.0
  0
VERTEX
  5
10C
100
AcDbEntity
  8
0
370
     0
390
0
100
AcDbVertex
100
AcDb2dVertex
 10
8.125804
 20
0.586758
 30
0.0
  0
VERTEX
  5
10D
100
AcDbEntity
  8
0
370
     0
390
0
100
AcDbVertex
100
AcDb2dVertex
 10
8.124398
 20
0.58835
 30
0.0
  0
VERTEX
  5
10E
100
AcDbEntity
  8
0
370
     0
390
0
100
AcDbVertex
100
AcDb2dVertex
 10
8.122994
 20
0.589734
 30
0.0
  0
VERTEX
  5
10F
100
AcDbEntity
  8
0
370
     0
390
0
100
AcDbVertex
100
AcDb2dVertex
 10
8.121594
 20
0.59091
 30
0.0
  0
VERTEX
  5
110
100
AcDbEntity
  8
0
370
     0
390
0
100
AcDbVertex
100
AcDb2dVertex
 10
8.120198
 20
0.591881
 30
0.0
  0
VERTEX
  5
111
100
AcDbEntity
  8
0
370
     0
390
0
100
AcDbVertex
100
AcDb2dVertex
 10
8.118707
 20
0.592701
 30
0.0
  0
VERTEX
  5
112
100
AcDbEntity
  8
0
370
     0
390
0
100
AcDbVertex
100
AcDb2dVertex
 10
8.117024
 20
0.593438
 30
0.0
  0
VERTEX
  5
113
100
AcDbEntity
  8
0
370
     0
390
0
100
AcDbVertex
100
AcDb2dVertex
 10
8.11515
 20
0.594086
 30
0.0
  0
VERTEX
  5
114
100
AcDbEntity
  8
0
370
     0
390
0
100
AcDbVertex
100
AcDb2dVertex
 10
8.113085
 20
0.594648
 30
0.0
  0
VERTEX
  5
115
100
AcDbEntity
  8
0
370
     0
390
0
100
AcDbVertex
100
AcDb2dVertex
 10
8.110827
 20
0.595125
 30
0.0
  0
VERTEX
  5
116
100
AcDbEntity
  8
0
370
     0
390
0
100
AcDbVertex
100
AcDb2dVertex
 10
8.108379
 20
0.595514
 30
0.0
  0
VERTEX
  5
117
100
AcDbEntity
  8
0
370
     0
390
0
100
AcDbVertex
100
AcDb2dVertex
 10
8.10574
 20
0.595817
 30
0.0
  0
VERTEX
  5
118
100
AcDbEntity
  8
0
370
     0
390
0
100
AcDbVertex
100
AcDb2dVertex
 10
8.102909
 20
0.596033
 30
0.0
  0
VERTEX
  5
119
100
AcDbEntity
  8
0
370
     0
390
0
100
AcDbVertex
100
AcDb2dVertex
 10
8.099887
 20
0.596163
 30
0.0
  0
VERTEX
  5
11A
100
AcDbEntity
  8
0
370
     0
390
0
100
AcDbVertex
100
AcDb2dVertex
 10
8.096672
 20
0.596207
 30
0.0
  0
VERTEX
  5
11B
100
AcDbEntity
  8
0
370
     0
390
0
100
AcDbVertex
100
AcDb2dVertex
 10
8.090507
 20
0.596099
 30
0.0
  0
VERTEX
  5
11C
100
AcDbEntity
  8
0
370
     0
390
0
100
AcDbVertex
100
AcDb2dVertex
 10
8.080016
 20
0.596207
 30
0.0
  0
VERTEX
  5
11D
100
AcDbEntity
  8
0
370
     0
390
0
100
AcDbVertex
100
AcDb2dVertex
 10
8.076014
 20
0.596315
 30
0.0
  0
VERTEX
  5
11E
100
AcDbEntity
  8
0
370
     0
390
0
100
AcDbVertex
100
AcDb2dVertex
 10
8.076014
 20
0.545696
 30
0.0
  0
VERTEX
  5
11F
100
AcDbEntity
  8
0
370
     0
390
0
100
AcDbVertex
100
AcDb2dVertex
 10
8.082612
 20
0.545696
 30
0.0
  0
VERTEX
  5
120
100
AcDbEntity
  8
0
370
     0
390
0
100
AcDbVertex
100
AcDb2dVertex
 10
8.082612
 20
0.590366
 30
0.0
  0
VERTEX
  5
121
100
AcDbEntity
  8
0
370
     0
390
0
100
AcDbVertex
100
AcDb2dVertex
 10
8.085749
 20
0.590474
 30
0.0
  0
VERTEX
  5
122
100
AcDbEntity
  8
0
370
     0
390
0
100
AcDbVertex
100
AcDb2dVertex
 10
8.088465
 20
0.590591
 30
0.0
  0
VERTEX
  5
123
100
AcDbEntity
  8
0
370
     0
390
0
100
AcDbVertex
100
AcDb2dVertex
 10
8.091251
 20
0.590682
 30
0.0
  0
VERTEX
  5
124
100
AcDbEntity
  8
0
370
     0
390
0
100
AcDbVertex
100
AcDb2dVertex
 10
8.094107
 20
0.590747
 30
0.0
  0
VERTEX
  5
125
100
AcDbEntity
  8
0
370
     0
390
0
100
AcDbVertex
100
AcDb2dVertex
 10
8.097032
 20
0.590786
 30
0.0
  0
VERTEX
  5
126
100
AcDbEntity
  8
0
370
     0
390
0
100
AcDbVertex
100
AcDb2dVertex
 10
8.100026
 20
0.590798
 30
0.0
  0
VERTEX
  5
127
100
AcDbEntity
  8
0
370
     0
390
0
100
AcDbVertex
100
AcDb2dVertex
 10
8.104273
 20
0.590684
 30
0.0
  0
VERTEX
  5
128
100
AcDbEntity
  8
0
370
     0
390
0
100
AcDbVertex
100
AcDb2dVertex
 10
8.108189
 20
0.59034
 30
0.0
  0
VERTEX
  5
129
100
AcDbEntity
  8
0
370
     0
390
0
100
AcDbVertex
100
AcDb2dVertex
 10
8.111775
 20
0.589767
 30
0.0
  0
VERTEX
  5
12A
100
AcDbEntity
  8
0
370
     0
390
0
100
AcDbVertex
100
AcDb2dVertex
 10
8.115029
 20
0.588965
 30
0.0
  0
VERTEX
  5
12B
100
AcDbEntity
  8
0
370
     0
390
0
100
AcDbVertex
100
AcDb2dVertex
 10
8.117954
 20
0.587933
 30
0.0
  0
VERTEX
  5
12C
100
AcDbEntity
  8
0
370
     0
390
0
100
AcDbVertex
100
AcDb2dVertex
 10
8.120546
 20
0.586671
 30
0.0
  0
VERTEX
  5
12D
100
AcDbEntity
  8
0
370
     0
390
0
100
AcDbVertex
100
AcDb2dVertex
 10
8.122807
 20
0.58518
 30
0.0
  0
VERTEX
  5
12E
100
AcDbEntity
  8
0
370
     0
390
0
100
AcDbVertex
100
AcDb2dVertex
 10
8.124737
 20
0.583461
 30
0.0
  0
VERTEX
  5
12F
100
AcDbEntity
  8
0
370
     0
390
0
100
AcDbVertex
100
AcDb2dVertex
 10
8.126338
 20
0.581511
 30
0.0
  0
VERTEX
  5
130
100
AcDbEntity
  8
0
370
     0
390
0
100
AcDbVertex
100
AcDb2dVertex
 10
8.127607
 20
0.579333
 30
0.0
  0
VERTEX
  5
131
100
AcDbEntity
  8
0
370
     0
390
0
100
AcDbVertex
100
AcDb2dVertex
 10
8.125449
 20
0.581235
 30
0.0
  0
VERTEX
  5
132
100
AcDbEntity
  8
0
370
     0
390
0
100
AcDbVertex
100
AcDb2dVertex
 10
8.123219
 20
0.582873
 30
0.0
  0
VERTEX
  5
133
100
AcDbEntity
  8
0
370
     0
390
0
100
AcDbVertex
100
AcDb2dVertex
 10
8.120915
 20
0.584246
 30
0.0
  0
VERTEX
  5
134
100
AcDbEntity
  8
0
370
     0
390
0
100
AcDbVertex
100
AcDb2dVertex
 10
8.118538
 20
0.585356
 30
0.0
  0
VERTEX
  5
135
100
AcDbEntity
  8
0
370
     0
390
0
100
AcDbVertex
100
AcDb2dVertex
 10
8.116087
 20
0.586202
 30
0.0
  0
VERTEX
  5
136
100
AcDbEntity
  8
0
370
     0
390
0
100
AcDbVertex
100
AcDb2dVertex
 10
8.113329
 20
0.586844
 30
0.0
  0
VERTEX
  5
137
100
AcDbEntity
  8
0
370
     0
390
0
100
AcDbVertex
100
AcDb2dVertex
 10
8.111747
 20
0.587112
 30
0.0
  0
VERTEX
  5
138
100
AcDbEntity
  8
0
370
     0
390
0
100
AcDbVertex
100
AcDb2dVertex
 10
8.110031
 20
0.587343
 30
0.0
  0
VERTEX
  5
139
100
AcDbEntity
  8
0
370
     0
390
0
100
AcDbVertex
100
AcDb2dVertex
 10
8.108179
 20
0.58754
 30
0.0
  0
VERTEX
  5
13A
100
AcDbEntity
  8
0
370
     0
390
0
100
AcDbVertex
100
AcDb2dVertex
 10
8.106191
 20
0.5877
 30
0.0
  0
VERTEX
  5
13B
100
AcDbEntity
  8
0
370
     0
390
0
100
AcDbVertex
100
AcDb2dVertex
 10
8.104068
 20
0.587826
 30
0.0
  0
VERTEX
  5
13C
100
AcDbEntity
  8
0
370
     0
390
0
100
AcDbVertex
100
AcDb2dVertex
 10
8.101811
 20
0.587915
 30
0.0
  0
VERTEX
  5
13D
100
AcDbEntity
  8
0
370
     0
390
0
100
AcDbVertex
100
AcDb2dVertex
 10
8.099417
 20
0.587969
 30
0.0
  0
VERTEX
  5
13E
100
AcDbEntity
  8
0
370
     0
390
0
100
AcDbVertex
100
AcDb2dVertex
 10
8.09689
 20
0.587987
 30
0.0
  0
VERTEX
  5
13F
100
AcDbEntity
  8
0
370
     0
390
0
100
AcDbVertex
100
AcDb2dVertex
 10
8.094938
 20
0.587964
 30
0.0
  0
VERTEX
  5
140
100
AcDbEntity
  8
0
370
     0
390
0
100
AcDbVertex
100
AcDb2dVertex
 10
8.092805
 20
0.5879
 30
0.0
  0
VERTEX
  5
141
100
AcDbEntity
  8
0
370
     0
390
0
100
AcDbVertex
100
AcDb2dVertex
 10
8.090491
 20
0.587792
 30
0.0
  0
VERTEX
  5
142
100
AcDbEntity
  8
0
370
     0
390
0
100
AcDbVertex
100
AcDb2dVertex
 10
8.087994
 20
0.58764
 30
0.0
  0
VERTEX
  5
143
100
AcDbEntity
  8
0
370
     0
390
0
100
AcDbVertex
100
AcDb2dVertex
 10
8.085316
 20
0.587445
 30
0.0
  0
VERTEX
  5
144
100
AcDbEntity
  8
0
370
     0
390
0
100
AcDbVertex
100
AcDb2dVertex
 10
8.085316
 20
0.545696
 30
0.0
  0
VERTEX
  5
145
100
AcDbEntity
  8
0
370
     0
390
0
100
AcDbVertex
100
AcDb2dVertex
 10
8.101647
 20
0.545696
 30
0.0
  0
VERTEX
  5
146
100
AcDbEntity
  8
0
370
     0
390
0
100
AcDbVertex
100
AcDb2dVertex
 10
8.118953
 20
0.563975
 30
0.0
  0
VERTEX
  5
147
100
AcDbEntity
  8
0
370
     0
390
0
100
AcDbVertex
100
AcDb2dVertex
 10
8.118953
 20
0.518655
 30
0.0
  0
VERTEX
  5
148
100
AcDbEntity
  8
0
370
     0
390
0
100
AcDbVertex
100
AcDb2dVertex
 10
8.100782
 20
0.53661
 30
0.0
  0
VERTEX
  5
149
100
AcDbEntity
  8
0
370
     0
390
0
100
AcDbVertex
100
AcDb2dVertex
 10
8.076014
 20
0.53661
 30
0.0
  0
VERTEX
  5
14A
100
AcDbEntity
  8
0
370
     0
390
0
100
AcDbVertex
100
AcDb2dVertex
 10
8.076014
 20
0.482097
 30
0.0
  0
VERTEX
  5
14B
100
AcDbEntity
  8
0
370
     0
390
0
100
AcDbVertex
100
AcDb2dVertex
 10
8.089859
 20
0.468038
 30
0.0
  0
VERTEX
  5
14C
100
AcDbEntity
  8
0
370
     0
390
0
100
AcDbVertex
100
AcDb2dVertex
 10
8.036753
 20
0.468038
 30
0.0
  0
VERTEX
  5
14D
100
AcDbEntity
  8
0
370
     0
390
0
100
AcDbVertex
100
AcDb2dVertex
 10
8.054382
 20
0.482097
 30
0.0
  0
VERTEX
  5
14E
100
AcDbEntity
  8
0
370
     0
390
0
100
AcDbVertex
100
AcDb2dVertex
 10
8.054382
 20
0.528606
 30
0.0
  0
VERTEX
  5
14F
100
AcDbEntity
  8
0
370
     0
390
0
100
AcDbVertex
100
AcDb2dVertex
 10
8.052737
 20
0.528543
 30
0.0
  0
VERTEX
  5
150
100
AcDbEntity
  8
0
370
     0
390
0
100
AcDbVertex
100
AcDb2dVertex
 10
8.051134
 20
0.528356
 30
0.0
  0
VERTEX
  5
151
100
AcDbEntity
  8
0
370
     0
390
0
100
AcDbVertex
100
AcDb2dVertex
 10
8.049571
 20
0.528042
 30
0.0
  0
VERTEX
  5
152
100
AcDbEntity
  8
0
370
     0
390
0
100
AcDbVertex
100
AcDb2dVertex
 10
8.048048
 20
0.527603
 30
0.0
  0
VERTEX
  5
153
100
AcDbEntity
  8
0
370
     0
390
0
100
AcDbVertex
100
AcDb2dVertex
 10
8.046567
 20
0.527039
 30
0.0
  0
VERTEX
  5
154
100
AcDbEntity
  8
0
370
     0
390
0
100
AcDbVertex
100
AcDb2dVertex
 10
8.045129
 20
0.526349
 30
0.0
  0
VERTEX
  5
155
100
AcDbEntity
  8
0
370
     0
390
0
100
AcDbVertex
100
AcDb2dVertex
 10
8.04373
 20
0.525533
 30
0.0
  0
VERTEX
  5
156
100
AcDbEntity
  8
0
370
     0
390
0
100
AcDbVertex
100
AcDb2dVertex
 10
8.042372
 20
0.524592
 30
0.0
  0
VERTEX
  5
157
100
AcDbEntity
  8
0
370
     0
390
0
100
AcDbVertex
100
AcDb2dVertex
 10
8.041057
 20
0.523526
 30
0.0
  0
VERTEX
  5
158
100
AcDbEntity
  8
0
370
     0
390
0
100
AcDbVertex
100
AcDb2dVertex
 10
8.03978
 20
0.522333
 30
0.0
  0
VERTEX
  5
159
100
AcDbEntity
  8
0
370
     0
390
0
100
AcDbVertex
100
AcDb2dVertex
 10
8.037725
 20
0.524604
 30
0.0
  0
VERTEX
  5
15A
100
AcDbEntity
  8
0
370
     0
390
0
100
AcDbVertex
100
AcDb2dVertex
 10
8.039021
 20
0.52592
 30
0.0
  0
VERTEX
  5
15B
100
AcDbEntity
  8
0
370
     0
390
0
100
AcDbVertex
100
AcDb2dVertex
 10
8.0404
 20
0.527097
 30
0.0
  0
VERTEX
  5
15C
100
AcDbEntity
  8
0
370
     0
390
0
100
AcDbVertex
100
AcDb2dVertex
 10
8.041859
 20
0.528135
 30
0.0
  0
VERTEX
  5
15D
100
AcDbEntity
  8
0
370
     0
390
0
100
AcDbVertex
100
AcDb2dVertex
 10
8.043403
 20
0.529035
 30
0.0
  0
VERTEX
  5
15E
100
AcDbEntity
  8
0
370
     0
390
0
100
AcDbVertex
100
AcDb2dVertex
 10
8.045027
 20
0.529796
 30
0.0
  0
VERTEX
  5
15F
100
AcDbEntity
  8
0
370
     0
390
0
100
AcDbVertex
100
AcDb2dVertex
 10
8.046733
 20
0.53042
 30
0.0
  0
VERTEX
  5
160
100
AcDbEntity
  8
0
370
     0
390
0
100
AcDbVertex
100
AcDb2dVertex
 10
8.048522
 20
0.530904
 30
0.0
  0
VERTEX
  5
161
100
AcDbEntity
  8
0
370
     0
390
0
100
AcDbVertex
100
AcDb2dVertex
 10
8.050394
 20
0.531249
 30
0.0
  0
VERTEX
  5
162
100
AcDbEntity
  8
0
370
     0
390
0
100
AcDbVertex
100
AcDb2dVertex
 10
8.052347
 20
0.531458
 30
0.0
  0
VERTEX
  5
163
100
AcDbEntity
  8
0
370
     0
390
0
100
AcDbVertex
100
AcDb2dVertex
 10
8.054382
 20
0.531527
 30
0.0
  0
VERTEX
  5
164
100
AcDbEntity
  8
0
370
     0
390
0
100
AcDbVertex
100
AcDb2dVertex
 10
8.054382
 20
0.53661
 30
0.0
  0
VERTEX
  5
165
100
AcDbEntity
  8
0
370
     0
390
0
100
AcDbVertex
100
AcDb2dVertex
 10
8.052773
 20
0.536748
 30
0.0
  0
VERTEX
  5
166
100
AcDbEntity
  8
0
370
     0
390
0
100
AcDbVertex
100
AcDb2dVertex
 10
8.051138
 20
0.536826
 30
0.0
  0
VERTEX
  5
167
100
AcDbEntity
  8
0
370
     0
390
0
100
AcDbVertex
100
AcDb2dVertex
 10
8.049152
 20
0.536744
 30
0.0
  0
VERTEX
  5
168
100
AcDbEntity
  8
0
370
     0
390
0
100
AcDbVertex
100
AcDb2dVertex
 10
8.047222
 20
0.536498
 30
0.0
  0
VERTEX
  5
169
100
AcDbEntity
  8
0
370
     0
390
0
100
AcDbVertex
100
AcDb2dVertex
 10
8.045345
 20
0.536087
 30
0.0
  0
VERTEX
  5
16A
100
AcDbEntity
  8
0
370
     0
390
0
100
AcDbVertex
100
AcDb2dVertex
 10
8.043522
 20
0.535512
 30
0.0
  0
VERTEX
  5
16B
100
AcDbEntity
  8
0
370
     0
390
0
100
AcDbVertex
100
AcDb2dVertex
 10
8.041754
 20
0.534771
 30
0.0
  0
VERTEX
  5
16C
100
AcDbEntity
  8
0
370
     0
390
0
100
AcDbVertex
100
AcDb2dVertex
 10
8.04004
 20
0.533868
 30
0.0
  0
VERTEX
  5
16D
100
AcDbEntity
  8
0
370
     0
390
0
100
AcDbVertex
100
AcDb2dVertex
 10
8.038381
 20
0.532799
 30
0.0
  0
VERTEX
  5
16E
100
AcDbEntity
  8
0
370
     0
390
0
100
AcDbVertex
100
AcDb2dVertex
 10
8.036774
 20
0.531566
 30
0.0
  0
VERTEX
  5
16F
100
AcDbEntity
  8
0
370
     0
390
0
100
AcDbVertex
100
AcDb2dVertex
 10
8.035222
 20
0.530168
 30
0.0
  0
VERTEX
  5
170
100
AcDbEntity
  8
0
370
     0
390
0
100
AcDbVertex
100
AcDb2dVertex
 10
8.033725
 20
0.528606
 30
0.0
  0
VERTEX
  5
171
100
AcDbEntity
  8
0
370
     0
390
0
100
AcDbVertex
100
AcDb2dVertex
 10
8.032967
 20
0.530337
 30
0.0
  0
VERTEX
  5
172
100
AcDbEntity
  8
0
370
     0
390
0
100
AcDbVertex
100
AcDb2dVertex
 10
8.034058
 20
0.533022
 30
0.0
  0
VERTEX
  5
173
100
AcDbEntity
  8
0
370
     0
390
0
100
AcDbVertex
100
AcDb2dVertex
 10
8.03538
 20
0.535451
 30
0.0
  0
VERTEX
  5
174
100
AcDbEntity
  8
0
370
     0
390
0
100
AcDbVertex
100
AcDb2dVertex
 10
8.036938
 20
0.537626
 30
0.0
  0
VERTEX
  5
175
100
AcDbEntity
  8
0
370
     0
390
0
100
AcDbVertex
100
AcDb2dVertex
 10
8.03873
 20
0.539544
 30
0.0
  0
VERTEX
  5
176
100
AcDbEntity
  8
0
370
     0
390
0
100
AcDbVertex
100
AcDb2dVertex
 10
8.040755
 20
0.541208
 30
0.0
  0
VERTEX
  5
177
100
AcDbEntity
  8
0
370
     0
390
0
100
AcDbVertex
100
AcDb2dVertex
 10
8.043013
 20
0.542615
 30
0.0
  0
VERTEX
  5
178
100
AcDbEntity
  8
0
370
     0
390
0
100
AcDbVertex
100
AcDb2dVertex
 10
8.045504
 20
0.543768
 30
0.0
  0
VERTEX
  5
179
100
AcDbEntity
  8
0
370
     0
390
0
100
AcDbVertex
100
AcDb2dVertex
 10
8.048231
 20
0.544665
 30
0.0
  0
VERTEX
  5
17A
100
AcDbEntity
  8
0
370
     0
390
0
100
AcDbVertex
100
AcDb2dVertex
 10
8.051189
 20
0.545309
 30
0.0
  0
VERTEX
  5
17B
100
AcDbEntity
  8
0
370
     0
390
0
100
AcDbVertex
100
AcDb2dVertex
 10
8.054382
 20
0.545696
 30
0.0
  0
VERTEX
  5
17C
100
AcDbEntity
  8
0
370
     0
390
0
100
AcDbVertex
100
AcDb2dVertex
 10
8.054382
 20
0.591339
 30
0.0
  0
SEQEND
  5
17D
100
AcDbEntity
  8
0
370
     0
390
0
  0
POLYLINE
  5
17E
100
AcDbEntity
  8
0
370
    13
390
0
 62
     7
 48
0.03937
100
AcDb2dPolyline
 66
     1
 10
0.0
 20
0.0
 30
0.0
 70
     1
 71
    22
  0
VERTEX
  5
17F
100
AcDbEntity
  8
0
370
     0
390
0
100
AcDbVertex
100
AcDb2dVertex
 10
8.160271
 20
0.598694
 30
0.0
  0
VERTEX
  5
180
100
AcDbEntity
  8
0
370
     0
390
0
100
AcDbVertex
100
AcDb2dVertex
 10
8.157292
 20
0.595112
 30
0.0
  0
VERTEX
  5
181
100
AcDbEntity
  8
0
370
     0
390
0
100
AcDbVertex
100
AcDb2dVertex
 10
8.154542
 20
0.59159
 30
0.0
  0
VERTEX
  5
182
100
AcDbEntity
  8
0
370
     0
390
0
100
AcDbVertex
100
AcDb2dVertex
 10
8.152022
 20
0.588129
 30
0.0
  0
VERTEX
  5
183
100
AcDbEntity
  8
0
370
     0
390
0
100
AcDbVertex
100
AcDb2dVertex
 10
8.149732
 20
0.584729
 30
0.0
  0
VERTEX
  5
184
100
AcDbEntity
  8
0
370
     0
390
0
100
AcDbVertex
100
AcDb2dVertex
 10
8.147671
 20
0.581388
 30
0.0
  0
VERTEX
  5
185
100
AcDbEntity
  8
0
370
     0
390
0
100
AcDbVertex
100
AcDb2dVertex
 10
8.145838
 20
0.578109
 30
0.0
  0
VERTEX
  5
186
100
AcDbEntity
  8
0
370
     0
390
0
100
AcDbVertex
100
AcDb2dVertex
 10
8.144234
 20
0.57489
 30
0.0
  0
VERTEX
  5
187
100
AcDbEntity
  8
0
370
     0
390
0
100
AcDbVertex
100
AcDb2dVertex
 10
8.142862
 20
0.571733
 30
0.0
  0
VERTEX
  5
188
100
AcDbEntity
  8
0
370
     0
390
0
100
AcDbVertex
100
AcDb2dVertex
 10
8.141717
 20
0.568634
 30
0.0
  0
VERTEX
  5
189
100
AcDbEntity
  8
0
370
     0
390
0
100
AcDbVertex
100
AcDb2dVertex
 10
8.140802
 20
0.565596
 30
0.0
  0
VERTEX
  5
18A
100
AcDbEntity
  8
0
370
     0
390
0
100
AcDbVertex
100
AcDb2dVertex
 10
8.138531
 20
0.567111
 30
0.0
  0
VERTEX
  5
18B
100
AcDbEntity
  8
0
370
     0
390
0
100
AcDbVertex
100
AcDb2dVertex
 10
8.139469
 20
0.570503
 30
0.0
  0
VERTEX
  5
18C
100
AcDbEntity
  8
0
370
     0
390
0
100
AcDbVertex
100
AcDb2dVertex
 10
8.140637
 20
0.573882
 30
0.0
  0
VERTEX
  5
18D
100
AcDbEntity
  8
0
370
     0
390
0
100
AcDbVertex
100
AcDb2dVertex
 10
8.142038
 20
0.577251
 30
0.0
  0
VERTEX
  5
18E
100
AcDbEntity
  8
0
370
     0
390
0
100
AcDbVertex
100
AcDb2dVertex
 10
8.14367
 20
0.58061
 30
0.0
  0
VERTEX
  5
18F
100
AcDbEntity
  8
0
370
     0
390
0
100
AcDbVertex
100
AcDb2dVertex
 10
8.145533
 20
0.583958
 30
0.0
  0
VERTEX
  5
190
100
AcDbEntity
  8
0
370
     0
390
0
100
AcDbVertex
100
AcDb2dVertex
 10
8.147629
 20
0.587294
 30
0.0
  0
VERTEX
  5
191
100
AcDbEntity
  8
0
370
     0
390
0
100
AcDbVertex
100
AcDb2dVertex
 10
8.149955
 20
0.590619
 30
0.0
  0
VERTEX
  5
192
100
AcDbEntity
  8
0
370
     0
390
0
100
AcDbVertex
100
AcDb2dVertex
 10
8.152513
 20
0.593936
 30
0.0
  0
VERTEX
  5
193
100
AcDbEntity
  8
0
370
     0
390
0
100
AcDbVertex
100
AcDb2dVertex
 10
8.155303
 20
0.597239
 30
0.0
  0
VERTEX
  5
194
100
AcDbEntity
  8
0
370
     0
390
0
100
AcDbVertex
100
AcDb2dVertex
 10
8.158324
 20
0.600533
 30
0.0
  0
SEQEND
  5
195
100
AcDbEntity
  8
0
370
     0
390
0
  0
POLYLINE
  5
196
100
AcDbEntity
  8
0
370
    13
390
0
 62
     7
 48
0.03937
100
AcDb2dPolyline
 66
     1
 10
0.0
 20
0.0
 30
0.0
 70
     1
 71
     4
  0
VERTEX
  5
197
100
AcDbEntity
  8
0
370
     0
390
0
100
AcDbVertex
100
AcDb2dVertex
 10
8.126849
 20
0.560189
 30
0.0
  0
VERTEX
  5
198
100
AcDbEntity
  8
0
370
     0
390
0
100
AcDbVertex
100
AcDb2dVertex
 10
8.126849
 20
0.513464
 30
0.0
  0
VERTEX
  5
199
100
AcDbEntity
  8
0
370
     0
390
0
100
AcDbVertex
100
AcDb2dVertex
 10
8.124036
 20
0.515087
 30
0.0
  0
VERTEX
  5
19A
100
AcDbEntity
  8
0
370
     0
390
0
100
AcDbVertex
100
AcDb2dVertex
 10
8.124036
 20
0.561812
 30
0.0
  0
SEQEND
  5
19B
100
AcDbEntity
  8
0
370
     0
390
0
  0
POLYLINE
  5
19C
100
AcDbEntity
  8
0
370
    13
390
0
 62
     7
 48
0.03937
100
AcDb2dPolyline
 66
     1
 10
0.0
 20
0.0
 30
0.0
 70
     1
 71
    10
  0
VERTEX
  5
19D
100
AcDbEntity
  8
0
370
     0
390
0
100
AcDbVertex
100
AcDb2dVertex
 10
8.107488
 20
0.527525
 30
0.0
  0
VERTEX
  5
19E
100
AcDbEntity
  8
0
370
     0
390
0
100
AcDbVertex
100
AcDb2dVertex
 10
8.085316
 20
0.527525
 30
0.0
  0
VERTEX
  5
19F
100
AcDbEntity
  8
0
370
     0
390
0
100
AcDbVertex
100
AcDb2dVertex
 10
8.085316
 20
0.481233
 30
0.0
  0
VERTEX
  5
1A0
100
AcDbEntity
  8
0
370
     0
390
0
100
AcDbVertex
100
AcDb2dVertex
 10
8.104352
 20
0.457653
 30
0.0
  0
VERTEX
  5
1A1
100
AcDbEntity
  8
0
370
     0
390
0
100
AcDbVertex
100
AcDb2dVertex
 10
8.041727
 20
0.457653
 30
0.0
  0
VERTEX
  5
1A2
100
AcDbEntity
  8
0
370
     0
390
0
100
AcDbVertex
100
AcDb2dVertex
 10
8.039024
 20
0.460574
 30
0.0
  0
VERTEX
  5
1A3
100
AcDbEntity
  8
0
370
     0
390
0
100
AcDbVertex
100
AcDb2dVertex
 10
8.098295
 20
0.460574
 30
0.0
  0
VERTEX
  5
1A4
100
AcDbEntity
  8
0
370
     0
390
0
100
AcDbVertex
100
AcDb2dVertex
 10
8.082612
 20
0.479934
 30
0.0
  0
VERTEX
  5
1A5
100
AcDbEntity
  8
0
370
     0
390
0
100
AcDbVertex
100
AcDb2dVertex
 10
8.082612
 20
0.530445
 30
0.0
  0
VERTEX
  5
1A6
100
AcDbEntity
  8
0
370
     0
390
0
100
AcDbVertex
100
AcDb2dVertex
 10
8.104352
 20
0.530445
 30
0.0
  0
SEQEND
  5
1A7
100
AcDbEntity
  8
0
370
     0
390
0
  0
CIRCLE
  5
1A8
100
AcDbEntity
  8
0
370
    35
390
0
 62
     7
 48
0.03937
100
AcDbCircle
 10
3.755851
 20
6.835168
 30
0.0
 40
0.144164
210
0.0
220
0.0
230
1.0
  0
CIRCLE
  5
1A9
100
AcDbEntity
  8
0
370
    35
390
0
 62
     7
 48
0.03937
100
AcDbCircle
 10
3.131141
 20
6.835168
 30
0.0
 40
0.888049
210
0.0
220
0.0
230
1.0
  0
CIRCLE
  5
1AA
100
AcDbEntity
  8
0
370
    35
390
0
 62
     7
 48
0.03937
100
AcDbCircle
 10
3.131141
 20
7.459878
 30
0.0
 40
0.144164
210
0.0
220
0.0
230
1.0
  0
CIRCLE
  5
1AB
100
AcDbEntity
  8
0
370
    35
390
0
 62
     7
 48
0.03937
100
AcDbCircle
 10
2.506431
 20
6.835168
 30
0.0
 40
0.144164
210
0.0
220
0.0
230
1.0
  0
CIRCLE
  5
1AC
100
AcDbEntity
  8
0
370
    35
390
0
 62
     7
 48
0.03937
100
AcDbCircle
 10
3.131141
 20
6.210458
 30
0.0
 40
0.144164
210
0.0
220
0.0
230
1.0
  0
CIRCLE
  5
1AD
100
AcDbEntity
  8
0
370
    35
390
0
 62
     7
 48
0.03937
100
AcDbCircle
 10
3.131141
 20
6.835168
 30
0.0
 40
0.144164
210
0.0
220
0.0
230
1.0
  0
ELLIPSE
  5
1AE
100
AcDbEntity
  8
0
370
    35
390
0
 62
     7
 48
0.03937
100
AcDbEllipse
 10
7.943764
 20
3.556721
 30
0.0
 11
-0.1441627366293996
 21
-0.0005633918840717
 31
0.0
210
0.0
220
0.0
230
1.0
 40
0.364583
 41
6.2831852818557685
 42
9.424777935445567
  0
ELLIPSE
  5
1AF
100
AcDbEntity
  8
0
370
    35
390
0
 62
     7
 48
0.03937
100
AcDbEllipse
 10
7.943764
 20
3.556721
 30
0.0
 11
-0.1441627366293996
 21
-0.0005633918840717
 31
0.0
210
0.0
220
0.0
230
1.0
 40
0.364583
 41
4.2840029521786205
 42
6.2831852818557685
  0
ELLIPSE
  5
1B0
100
AcDbEntity
  8
0
370
    35
390
0
 62
     7
 48
0.03937
100
AcDbEllipse
 10
8.443404
 20
3.695131
 30
0.0
 11
-0.8880424576371019
 21
-0.0034704940058817
 31
0.0
210
0.0
220
0.0
230
1.0
 40
0.364583
 41
6.2831814476296497
 42
9.424774101219441
  0
ELLIPSE
  5
1B1
100
AcDbEntity
  8
0
370
    35
390
0
 62
     7
 48
0.03937
100
AcDbEllipse
 10
8.443404
 20
3.695131
 30
0.0
 11
-0.8880424576371019
 21
-0.0034704940058817
 31
0.0
210
0.0
220
0.0
230
1.0
 40
0.364583
 41
5.201957689184141
 42
6.2831814476296506
  0
ELLIPSE
  5
1B2
100
AcDbEntity
  8
0
370
    35
390
0
 62
     7
 48
0.03937
100
AcDbEllipse
 10
8.443404
 20
3.695131
 30
0.0
 11
-0.8880424576371019
 21
-0.0034704940058817
 31
0.0
210
0.0
220
0.0
230
1.0
 40
0.364583
 41
3.1415887940398561
 42
4.2228202712495779
  0
ELLIPSE
  5
1B3
100
AcDbEntity
  8
0
370
    35
390
0
 62
     7
 48
0.03937
100
AcDbEllipse
 10
7.943764
 20
3.556721
 30
0.0
 11
-0.1441627366293996
 21
-0.0005633918840717
 31
0.0
210
0.0
220
0.0
230
1.0
 40
0.364583
 41
3.1415926282659767
 42
4.2840029521786231
  0
ELLIPSE
  5
1B4
100
AcDbEntity
  8
0
370
    13
390
0
 62
     7
 48
0.03937
100
AcDbEllipse
 10
8.443404
 20
3.695131
 30
0.0
 11
-0.3556014170191857
 21
-0.0013896999807102
 31
0.0
210
0.0
220
0.0
230
1.0
 40
0.364583
 41
0.0880087672402876
 42
3.0535839525354356
  0
ELLIPSE
  5
1B5
100
AcDbEntity
  8
0
370
    35
390
0
 62
     7
 48
0.03937
100
AcDbEllipse
 10
8.068413
 20
3.876023
 30
0.0
 11
-0.1441627366293996
 21
-0.0005633918840725
 31
0.0
210
0.0
220
0.0
230
1.0
 40
0.364583
 41
6.2831852818557685
 42
7.9436520668571706
  0
ELLIPSE
  5
1B6
100
AcDbEntity
  8
0
370
    35
390
0
 62
     7
 48
0.03937
100
AcDbEllipse
 10
8.068413
 20
3.876023
 30
0.0
 11
-0.1441627366293996
 21
-0.0005633918840725
 31
0.0
210
0.0
220
0.0
230
1.0
 40
0.364583
 41
5.8547992789735197
 42
6.2831852818557685
  0
ELLIPSE
  5
1B7
100
AcDbEntity
  8
0
370
    35
390
0
 62
     7
 48
0.03937
100
AcDbEllipse
 10
8.068413
 20
3.876023
 30
0.0
 11
-0.1441627366293996
 21
-0.0005633918840725
 31
0.0
210
0.0
220
0.0
230
1.0
 40
0.364583
 41
4.6227185484118936
 42
5.8547992789735197
  0
ELLIPSE
  5
1B8
100
AcDbEntity
  8
0
370
    35
390
0
 62
     7
 48
0.03937
100
AcDbEllipse
 10
8.943043
 20
3.833541
 30
0.0
 11
-0.1441627366293997
 21
-0.0005633918840714
 31
0.0
210
0.0
220
0.0
230
1.0
 40
0.364583
 41
0.2735014097523936
 42
3.1415926282659781
  0
ELLIPSE
  5
1B9
100
AcDbEntity
  8
0
370
    35
390
0
 62
     7
 48
0.03937
100
AcDbEllipse
 10
8.943043
 20
3.833541
 30
0.0
 11
-0.1441627366293997
 21
-0.000563391884072
 31
0.0
210
0.0
220
0.0
230
1.0
 40
0.364583
 41
4.2840029521786214
 42
6.009685504956412
  0
ELLIPSE
  5
1BA
100
AcDbEntity
  8
0
370
    35
390
0
 62
     7
 48
0.03937
100
AcDbEllipse
 10
8.943043
 20
3.833541
 30
0.0
 11
-0.1441627366293997
 21
-0.0005633918840714
 31
0.0
210
0.0
220
0.0
230
1.0
 40
0.364583
 41
3.1415926282659776
 42
4.2840029521786196
  0
ELLIPSE
  5
1BB
100
AcDbEntity
  8
0
370
    35
390
0
 62
     7
 48
0.03937
100
AcDbEllipse
 10
8.818394
 20
3.514239
 30
0.0
 11
-0.1441627366293996
 21
-0.0005633918840722
 31
0.0
210
0.0
220
0.0
230
1.0
 40
0.364583
 41
3.1415926282659754
 42
6.2831852818557685
  0
ELLIPSE
  5
1BC
100
AcDbEntity
  8
0
370
    35
390
0
 62
     7
 48
0.03937
100
AcDbEllipse
 10
8.818394
 20
3.514239
 30
0.0
 11
-0.1441627366293996
 21
-0.000563391884072
 31
0.0
210
0.0
220
0.0
230
1.0
 40
0.364583
 41
2.7132066253837261
 42
3.1415926282659754
  0
ELLIPSE
  5
1BD
100
AcDbEntity
  8
0
370
    35
390
0
 62
     7
 48
0.03937
100
AcDbEllipse
 10
8.818394
 20
3.514239
 30
0.0
 11
-0.1441627366293995
 21
-0.0005633918840722
 31
0.0
210
0.0
220
0.0
230
1.0
 40
0.364583
 41
6.2831852818557694
 42
8.9963919325633128
  0
ELLIPSE
  5
1BE
100
AcDbEntity
  8
0
370
    35
390
0
 62
     7
 48
0.03937
100
AcDbEllipse
 10
8.355263
 20
3.46935
 30
0.0
 11
0.1633844332128085
 21
0.0006385107955629
 31
0.0
210
0.0
220
0.0
230
1.0
 40
0.364583
 41
0.0000000540707186
 42
3.1415927076605121
  0
ELLIPSE
  5
1BF
100
AcDbEntity
  8
0
370
    35
390
0
 62
     7
 48
0.03937
100
AcDbEllipse
 10
8.355263
 20
3.46935
 30
0.0
 11
0.1633844332128085
 21
0.0006385107955629
 31
0.0
210
0.0
220
0.0
230
1.0
 40
0.364583
 41
3.1415927076605121
 42
6.1401974423709733
  0
ELLIPSE
  5
1C0
100
AcDbEntity
  8
0
370
    35
390
0
 62
     7
 48
0.03937
100
AcDbEllipse
 10
8.355263
 20
3.46935
 30
0.0
 11
0.1633844332128085
 21
0.0006385107955629
 31
0.0
210
0.0
220
0.0
230
1.0
 40
0.364583
 41
6.1401974423709769
 42
6.2831853612503066
  0
ELLIPSE
  5
1C1
100
AcDbEntity
  8
0
370
    35
390
0
 62
     7
 48
0.03937
100
AcDbEllipse
 10
8.444184
 20
3.49556
 30
0.0
 11
0.8880424576371019
 21
0.003470494005883
 31
0.0
210
0.0
220
0.0
230
1.0
 40
0.364583
 41
4.854799278973517
 42
6.2831814476296488
  0
ELLIPSE
  5
1C2
100
AcDbEntity
  8
0
370
    35
390
0
 62
     7
 48
0.03937
100
AcDbEllipse
 10
8.444184
 20
3.49556
 30
0.0
 11
0.8880424576371019
 21
0.003470494005883
 31
0.0
210
0.0
220
0.0
230
1.0
 40
0.364583
 41
3.1415887940398552
 42
4.8547992789735162
  0
ELLIPSE
  5
1C3
100
AcDbEntity
  8
0
370
    13
390
0
 62
     7
 48
0.03937
100
AcDbEllipse
 10
8.443364
 20
3.705151
 30
0.0
 11
-0.3527181622865983
 21
-0.0013784321430288
 31
0.0
210
0.0
220
0.0
230
1.0
 40
0.364583
 41
0.7452513643515025
 42
2.3963030850784293
  0
ELLIPSE
  5
1C4
100
AcDbEntity
  8
0
370
    35
390
0
 62
     7
 48
0.03937
100
AcDbEllipse
 10
8.35527
 20
3.46756
 30
0.0
 11
0.1633844332128085
 21
0.0006385107955629
 31
0.0
210
0.0
220
0.0
230
1.0
 40
0.364583
 41
0.015015949256215
 42
2.9986047887811824
  0
ELLIPSE
  5
1C5
100
AcDbEntity
  8
0
370
    35
390
0
 62
     7
 48
0.03937
100
AcDbEllipse
 10
8.35527
 20
3.46756
 30
0.0
 11
0.1633844332128085
 21
0.0006385107955629
 31
0.0
210
0.0
220
0.0
230
1.0
 40
0.364583
 41
2.9986047887811824
 42
3.1265596290168065
  0
ELLIPSE
  5
1C6
100
AcDbEntity
  8
0
370
    35
390
0
 62
     7
 48
0.03937
100
AcDbEllipse
 10
8.443346
 20
3.709801
 30
0.0
 11
-0.3613679264843642
 21
-0.0014122356560731
 31
0.0
210
0.0
220
0.0
230
1.0
 40
0.364583
 41
0.7452513643512675
 42
2.3963030850784262
  0
ELLIPSE
  5
1C7
100
AcDbEntity
  8
0
370
    35
390
0
 62
     7
 48
0.03937
100
AcDbEllipse
 10
8.443346
 20
3.709801
 30
0.0
 11
-0.3613679264843642
 21
-0.0014122356560731
 31
0.0
210
0.0
220
0.0
230
1.0
 40
0.364583
 41
6.2831814476296497
 42
7.0284366715308533
  0
ELLIPSE
  5
1C8
100
AcDbEntity
  8
0
370
    35
390
0
 62
     7
 48
0.03937
100
AcDbEllipse
 10
8.443346
 20
3.709801
 30
0.0
 11
-0.3613679264843642
 21
-0.0014122356560731
 31
0.0
210
0.0
220
0.0
230
1.0
 40
0.364583
 41
2.3963030850784284
 42
3.1415887940398584
  0
ELLIPSE
  5
1C9
100
AcDbEntity
  8
0
370
    35
390
0
 62
     7
 48
0.03937
100
AcDbEllipse
 10
8.35527
 20
3.46756
 30
0.0
 11
0.1287271291979704
 21
0.0005030691116556
 31
0.0
210
0.0
220
0.0
230
1.0
 40
0.364583
 41
3.1415927076605121
 42
6.1401974423709715
  0
ELLIPSE
  5
1CA
100
AcDbEntity
  8
0
370
    35
390
0
 62
     7
 48
0.03937
100
AcDbEllipse
 10
8.35527
 20
3.46756
 30
0.0
 11
0.1287271291979704
 21
0.0005030691116556
 31
0.0
210
0.0
220
0.0
230
1.0
 40
0.364583
 41
6.1401974423709751
 42
6.2831853612503048
  0
ELLIPSE
  5
1CB
100
AcDbEntity
  8
0
370
    35
390
0
 62
     7
 48
0.03937
100
AcDbEllipse
 10
8.375878
 20
3.520348
 30
0.0
 11
0.0099020868613823
 21
0.0000386976239735
 31
0.0
210
0.0
220
0.0
230
1.0
 40
0.364583
 41
3.1415927076605121
 42
6.1401974423709635
  0
ELLIPSE
  5
1CC
100
AcDbEntity
  8
0
370
    35
390
0
 62
     7
 48
0.03937
100
AcDbEllipse
 10
8.375878
 20
3.520348
 30
0.0
 11
0.0099020868613823
 21
0.0000386976239735
 31
0.0
210
0.0
220
0.0
230
1.0
 40
0.364583
 41
6.1401974423709751
 42
6.2831853612503057
  0
ELLIPSE
  5
1CD
100
AcDbEntity
  8
0
370
    35
390
0
 62
     7
 48
0.03937
100
AcDbEllipse
 10
8.499865
 20
3.460537
 30
0.0
 11
0.0099020868613823
 21
0.0000386976239735
 31
0.0
210
0.0
220
0.0
230
1.0
 40
0.364583
 41
3.1415927076605117
 42
6.1401974423709751
  0
ELLIPSE
  5
1CE
100
AcDbEntity
  8
0
370
    35
390
0
 62
     7
 48
0.03937
100
AcDbEllipse
 10
8.499865
 20
3.460537
 30
0.0
 11
0.0099020868613823
 21
0.0000386976239735
 31
0.0
210
0.0
220
0.0
230
1.0
 40
0.364583
 41
6.1401974423709751
 42
6.2831853612503057
  0
ELLIPSE
  5
1CF
100
AcDbEntity
  8
0
370
    35
390
0
 62
     7
 48
0.03937
100
AcDbEllipse
 10
8.472086
 20
3.49992
 30
0.0
 11
0.0099020868613823
 21
0.0000386976239735
 31
0.0
210
0.0
220
0.0
230
1.0
 40
0.364583
 41
3.1415927076605117
 42
6.1401974423709751
  0
ELLIPSE
  5
1D0
100
AcDbEntity
  8
0
370
    35
390
0
 62
     7
 48
0.03937
100
AcDbEllipse
 10
8.472086
 20
3.49992
 30
0.0
 11
0.0099020868613823
 21
0.0000386976239735
 31
0.0
210
0.0
220
0.0
230
1.0
 40
0.364583
 41
6.1401974423709751
 42
6.2831853612503057
  0
ELLIPSE
  5
1D1
100
AcDbEntity
  8
0
370
    35
390
0
 62
     7
 48
0.03937
100
AcDbEllipse
 10
8.334663
 20
3.414773
 30
0.0
 11
0.0099020868613823
 21
0.0000386976239735
 31
0.0
210
0.0
220
0.0
230
1.0
 40
0.364583
 41
3.1415927076605157
 42
6.1401974423709751
  0
ELLIPSE
  5
1D2
100
AcDbEntity
  8
0
370
    35
390
0
 62
     7
 48
0.03937
100
AcDbEllipse
 10
8.334663
 20
3.414773
 30
0.0
 11
0.0099020868613823
 21
0.0000386976239735
 31
0.0
210
0.0
220
0.0
230
1.0
 40
0.364583
 41
6.1401974423709751
 42
6.2831853612503084
  0
ELLIPSE
  5
1D3
100
AcDbEntity
  8
0
370
    35
390
0
 62
     7
 48
0.03937
100
AcDbEllipse
 10
8.442943
 20
3.425268
 30
0.0
 11
0.0099020868613823
 21
0.0000386976239735
 31
0.0
210
0.0
220
0.0
230
1.0
 40
0.364583
 41
3.1415927076605117
 42
6.1401974423709751
  0
ELLIPSE
  5
1D4
100
AcDbEntity
  8
0
370
    35
390
0
 62
     7
 48
0.03937
100
AcDbEllipse
 10
8.442943
 20
3.425268
 30
0.0
 11
0.0099020868613823
 21
0.0000386976239735
 31
0.0
210
0.0
220
0.0
230
1.0
 40
0.364583
 41
6.1401974423709751
 42
6.2831853612503057
  0
ELLIPSE
  5
1D5
100
AcDbEntity
  8
0
370
    35
390
0
 62
     7
 48
0.03937
100
AcDbEllipse
 10
8.210676
 20
3.474583
 30
0.0
 11
0.0099020868613823
 21
0.0000386976239735
 31
0.0
210
0.0
220
0.0
230
1.0
 40
0.364583
 41
3.1415927076605157
 42
6.2831853612503084
  0
ELLIPSE
  5
1D6
100
AcDbEntity
  8
0
370
    35
390
0
 62
     7
 48
0.03937
100
AcDbEllipse
 10
8.267598
 20
3.509853
 30
0.0
 11
0.0099020868613823
 21
0.0000386976239735
 31
0.0
210
0.0
220
0.0
230
1.0
 40
0.364583
 41
3.1415927076605117
 42
6.2831853612503039
  0
ELLIPSE
  5
1D7
100
AcDbEntity
  8
0
370
    35
390
0
 62
     7
 48
0.03937
100
AcDbEllipse
 10
8.238455
 20
3.4352
 30
0.0
 11
0.0099020868613823
 21
0.0000386976239735
 31
0.0
210
0.0
220
0.0
230
1.0
 40
0.364583
 41
3.1415927076605157
 42
6.2831853612503084
  0
ELLIPSE
  5
1D8
100
AcDbEntity
  8
0
370
    35
390
0
 62
     7
 48
0.03937
100
AcDbEllipse
 10
8.442173
 20
4.010148
 30
0.0
 11
-0.3613679264843617
 21
-0.0014122356560723
 31
0.0
210
0.0
220
0.0
230
1.0
 40
0.364583
 41
0.7452897328809653
 42
2.3963030850784293
  0
ELLIPSE
  5
1D9
100
AcDbEntity
  8
0
370
    35
390
0
 62
     7
 48
0.03937
100
AcDbEllipse
 10
8.355263
 20
3.46935
 30
0.0
 11
0.1287271291979704
 21
0.0005030691116556
 31
0.0
210
0.0
220
0.0
230
1.0
 40
0.364583
 41
0.0000000540707187
 42
3.1415927076605117
  0
ELLIPSE
  5
1DA
100
AcDbEntity
  8
0
370
    35
390
0
 62
     7
 48
0.03937
100
AcDbEllipse
 10
8.355263
 20
3.46935
 30
0.0
 11
0.1287271291979704
 21
0.0005030691116556
 31
0.0
210
0.0
220
0.0
230
1.0
 40
0.364583
 41
3.1415927076605121
 42
6.1401974423709733
  0
ELLIPSE
  5
1DB
100
AcDbEntity
  8
0
370
    35
390
0
 62
     7
 48
0.03937
100
AcDbEllipse
 10
8.355263
 20
3.46935
 30
0.0
 11
0.1287271291979704
 21
0.0005030691116556
 31
0.0
210
0.0
220
0.0
230
1.0
 40
0.364583
 41
6.1401974423709751
 42
6.2831853612503048
  0
ELLIPSE
  5
1DC
100
AcDbEntity
  8
0
370
    35
390
0
 62
     7
 48
0.03937
100
AcDbEllipse
 10
8.375871
 20
3.522137
 30
0.0
 11
0.0099020868613823
 21
0.0000386976239735
 31
0.0
210
0.0
220
0.0
230
1.0
 40
0.364583
 41
0.0000000540707193
 42
3.1415927076605112
  0
ELLIPSE
  5
1DD
100
AcDbEntity
  8
0
370
    35
390
0
 62
     7
 48
0.03937
100
AcDbEllipse
 10
8.375871
 20
3.522137
 30
0.0
 11
0.0099020868613823
 21
0.0000386976239735
 31
0.0
210
0.0
220
0.0
230
1.0
 40
0.364583
 41
3.1415927076605121
 42
6.1401974423709635
  0
ELLIPSE
  5
1DE
100
AcDbEntity
  8
0
370
    35
390
0
 62
     7
 48
0.03937
100
AcDbEllipse
 10
8.375871
 20
3.522137
 30
0.0
 11
0.0099020868613823
 21
0.0000386976239735
 31
0.0
210
0.0
220
0.0
230
1.0
 40
0.364583
 41
6.1401974423709751
 42
6.2831853612503057
  0
ELLIPSE
  5
1DF
100
AcDbEntity
  8
0
370
    35
390
0
 62
     7
 48
0.03937
100
AcDbEllipse
 10
8.499858
 20
3.462327
 30
0.0
 11
0.0099020868613823
 21
0.0000386976239735
 31
0.0
210
0.0
220
0.0
230
1.0
 40
0.364583
 41
0.0000000540707193
 42
3.1415927076605112
  0
ELLIPSE
  5
1E0
100
AcDbEntity
  8
0
370
    35
390
0
 62
     7
 48
0.03937
100
AcDbEllipse
 10
8.499858
 20
3.462327
 30
0.0
 11
0.0099020868613823
 21
0.0000386976239735
 31
0.0
210
0.0
220
0.0
230
1.0
 40
0.364583
 41
3.1415927076605117
 42
6.1401974423709751
  0
ELLIPSE
  5
1E1
100
AcDbEntity
  8
0
370
    35
390
0
 62
     7
 48
0.03937
100
AcDbEllipse
 10
8.499858
 20
3.462327
 30
0.0
 11
0.0099020868613823
 21
0.0000386976239735
 31
0.0
210
0.0
220
0.0
230
1.0
 40
0.364583
 41
6.1401974423709751
 42
6.2831853612503057
  0
ELLIPSE
  5
1E2
100
AcDbEntity
  8
0
370
    35
390
0
 62
     7
 48
0.03937
100
AcDbEllipse
 10
8.472079
 20
3.50171
 30
0.0
 11
0.0099020868613823
 21
0.0000386976239735
 31
0.0
210
0.0
220
0.0
230
1.0
 40
0.364583
 41
0.0000000540707193
 42
3.1415927076605112
  0
ELLIPSE
  5
1E3
100
AcDbEntity
  8
0
370
    35
390
0
 62
     7
 48
0.03937
100
AcDbEllipse
 10
8.472079
 20
3.50171
 30
0.0
 11
0.0099020868613823
 21
0.0000386976239735
 31
0.0
210
0.0
220
0.0
230
1.0
 40
0.364583
 41
3.1415927076605117
 42
6.1401974423709751
  0
ELLIPSE
  5
1E4
100
AcDbEntity
  8
0
370
    35
390
0
 62
     7
 48
0.03937
100
AcDbEllipse
 10
8.472079
 20
3.50171
 30
0.0
 11
0.0099020868613823
 21
0.0000386976239735
 31
0.0
210
0.0
220
0.0
230
1.0
 40
0.364583
 41
6.1401974423709751
 42
6.2831853612503057
  0
ELLIPSE
  5
1E5
100
AcDbEntity
  8
0
370
    35
390
0
 62
     7
 48
0.03937
100
AcDbEllipse
 10
8.334656
 20
3.416563
 30
0.0
 11
0.0099020868613823
 21
0.0000386976239735
 31
0.0
210
0.0
220
0.0
230
1.0
 40
0.364583
 41
0.0000000540707226
 42
3.1415927076605152
  0
ELLIPSE
  5
1E6
100
AcDbEntity
  8
0
370
    35
390
0
 62
     7
 48
0.03937
100
AcDbEllipse
 10
8.334656
 20
3.416563
 30
0.0
 11
0.0099020868613823
 21
0.0000386976239735
 31
0.0
210
0.0
220
0.0
230
1.0
 40
0.364583
 41
3.1415927076605157
 42
6.1401974423709751
  0
ELLIPSE
  5
1E7
100
AcDbEntity
  8
0
370
    35
390
0
 62
     7
 48
0.03937
100
AcDbEllipse
 10
8.334656
 20
3.416563
 30
0.0
 11
0.0099020868613823
 21
0.0000386976239735
 31
0.0
210
0.0
220
0.0
230
1.0
 40
0.364583
 41
6.1401974423709751
 42
6.2831853612503084
  0
ELLIPSE
  5
1E8
100
AcDbEntity
  8
0
370
    35
390
0
 62
     7
 48
0.03937
100
AcDbEllipse
 10
8.442936
 20
3.427058
 30
0.0
 11
0.0099020868613823
 21
0.0000386976239735
 31
0.0
210
0.0
220
0.0
230
1.0
 40
0.364583
 41
0.0000000540707193
 42
3.1415927076605112
  0
ELLIPSE
  5
1E9
100
AcDbEntity
  8
0
370
    35
390
0
 62
     7
 48
0.03937
100
AcDbEllipse
 10
8.442936
 20
3.427058
 30
0.0
 11
0.0099020868613823
 21
0.0000386976239735
 31
0.0
210
0.0
220
0.0
230
1.0
 40
0.364583
 41
3.1415927076605117
 42
6.1401974423709751
  0
ELLIPSE
  5
1EA
100
AcDbEntity
  8
0
370
    35
390
0
 62
     7
 48
0.03937
100
AcDbEllipse
 10
8.442936
 20
3.427058
 30
0.0
 11
0.0099020868613823
 21
0.0000386976239735
 31
0.0
210
0.0
220
0.0
230
1.0
 40
0.364583
 41
6.1401974423709751
 42
6.2831853612503057
  0
ELLIPSE
  5
1EB
100
AcDbEntity
  8
0
370
    35
390
0
 62
     7
 48
0.03937
100
AcDbEllipse
 10
8.210669
 20
3.476373
 30
0.0
 11
0.0099020868613823
 21
0.0000386976239735
 31
0.0
210
0.0
220
0.0
230
1.0
 40
0.364583
 41
3.1415927076605157
 42
6.2831853612503084
  0
ELLIPSE
  5
1EC
100
AcDbEntity
  8
0
370
    35
390
0
 62
     7
 48
0.03937
100
AcDbEllipse
 10
8.210669
 20
3.476373
 30
0.0
 11
0.0099020868613823
 21
0.0000386976239735
 31
0.0
210
0.0
220
0.0
230
1.0
 40
0.364583
 41
0.0000000540707226
 42
2.9986047887811824
  0
ELLIPSE
  5
1ED
100
AcDbEntity
  8
0
370
    35
390
0
 62
     7
 48
0.03937
100
AcDbEllipse
 10
8.210669
 20
3.476373
 30
0.0
 11
0.0099020868613823
 21
0.0000386976239735
 31
0.0
210
0.0
220
0.0
230
1.0
 40
0.364583
 41
2.9986047887811824
 42
3.1415927076605157
  0
ELLIPSE
  5
1EE
100
AcDbEntity
  8
0
370
    35
390
0
 62
     7
 48
0.03937
100
AcDbEllipse
 10
8.267591
 20
3.511642
 30
0.0
 11
0.0099020868613823
 21
0.0000386976239735
 31
0.0
210
0.0
220
0.0
230
1.0
 40
0.364583
 41
3.1415927076605117
 42
6.2831853612503039
  0
ELLIPSE
  5
1EF
100
AcDbEntity
  8
0
370
    35
390
0
 62
     7
 48
0.03937
100
AcDbEllipse
 10
8.267591
 20
3.511642
 30
0.0
 11
0.0099020868613823
 21
0.0000386976239735
 31
0.0
210
0.0
220
0.0
230
1.0
 40
0.364583
 41
0.0000000540707193
 42
2.9986047887811824
  0
ELLIPSE
  5
1F0
100
AcDbEntity
  8
0
370
    35
390
0
 62
     7
 48
0.03937
100
AcDbEllipse
 10
8.267591
 20
3.511642
 30
0.0
 11
0.0099020868613823
 21
0.0000386976239735
 31
0.0
210
0.0
220
0.0
230
1.0
 40
0.364583
 41
2.9986047887811824
 42
3.1415927076605117
  0
ELLIPSE
  5
1F1
100
AcDbEntity
  8
0
370
    35
390
0
 62
     7
 48
0.03937
100
AcDbEllipse
 10
8.238448
 20
3.43699
 30
0.0
 11
0.0099020868613823
 21
0.0000386976239735
 31
0.0
210
0.0
220
0.0
230
1.0
 40
0.364583
 41
3.1415927076605157
 42
6.2831853612503084
  0
ELLIPSE
  5
1F2
100
AcDbEntity
  8
0
370
    35
390
0
 62
     7
 48
0.03937
100
AcDbEllipse
 10
8.238448
 20
3.43699
 30
0.0
 11
0.0099020868613823
 21
0.0000386976239735
 31
0.0
210
0.0
220
0.0
230
1.0
 40
0.364583
 41
0.0000000540707226
 42
2.9986047887811824
  0
ELLIPSE
  5
1F3
100
AcDbEntity
  8
0
370
    35
390
0
 62
     7
 48
0.03937
100
AcDbEllipse
 10
8.238448
 20
3.43699
 30
0.0
 11
0.0099020868613823
 21
0.0000386976239735
 31
0.0
210
0.0
220
0.0
230
1.0
 40
0.364583
 41
2.9986047887811824
 42
3.1415927076605157
  0
ELLIPSE
  5
1F4
100
AcDbEntity
  8
0
370
    35
390
0
 62
     7
 48
0.03937
100
AcDbEllipse
 10
8.441066
 20
4.293294
 30
0.0
 11
-0.8880424576371019
 21
-0.0034704940058798
 31
0.0
210
0.0
220
0.0
230
1.0
 40
0.364583
 41
0.745289732880964
 42
2.396303085078431
  0
ELLIPSE
  5
1F5
100
AcDbEntity
  8
0
370
    35
390
0
 62
     7
 48
0.03937
100
AcDbEllipse
 10
8.441066
 20
4.293294
 30
0.0
 11
-0.8880424576371019
 21
-0.0034704940058798
 31
0.0
210
0.0
220
0.0
230
1.0
 40
0.364583
 41
6.2831814476296515
 42
7.0284750400605507
  0
ELLIPSE
  5
1F6
100
AcDbEntity
  8
0
370
    35
390
0
 62
     7
 48
0.03937
100
AcDbEllipse
 10
8.441066
 20
4.293294
 30
0.0
 11
-0.8880424576371019
 21
-0.0034704940058798
 31
0.0
210
0.0
220
0.0
230
1.0
 40
0.364583
 41
2.3963030850784315
 42
3.1415887940398552
  0
LINE
  5
1F7
100
AcDbEntity
  8
0
370
    35
390
0
 62
     7
 48
0.000178
100
AcDbLine
 10
8.361535
 20
3.486671
 30
0.0
 11
8.355113
 21
3.483598
 31
0.0
210
0.0
220
0.0
230
1.0
  0
LINE
  5
1F8
100
AcDbEntity
  8
0
370
    35
390
0
 62
     7
 48
0.000017
100
AcDbLine
 10
8.355113
 20
3.483598
 30
0.0
 11
8.35449
 21
3.483283
 31
0.0
210
0.0
220
0.0
230
1.0
  0
LINE
  5
1F9
100
AcDbEntity
  8
0
370
    35
390
0
 62
     7
 48
0.000018
100
AcDbLine
 10
8.35449
 20
3.483283
 30
0.0
 11
8.353867
 21
3.482951
 31
0.0
210
0.0
220
0.0
230
1.0
  0
LINE
  5
1FA
100
AcDbEntity
  8
0
370
    35
390
0
 62
     7
 48
0.000018
100
AcDbLine
 10
8.353867
 20
3.482951
 30
0.0
 11
8.353244
 21
3.482603
 31
0.0
210
0.0
220
0.0
230
1.0
  0
LINE
  5
1FB
100
AcDbEntity
  8
0
370
    35
390
0
 62
     7
 48
0.000018
100
AcDbLine
 10
8.353244
 20
3.482603
 30
0.0
 11
8.352623
 21
3.482238
 31
0.0
210
0.0
220
0.0
230
1.0
  0
LINE
  5
1FC
100
AcDbEntity
  8
0
370
    35
390
0
 62
     7
 48
0.000018
100
AcDbLine
 10
8.352623
 20
3.482238
 30
0.0
 11
8.352003
 21
3.481855
 31
0.0
210
0.0
220
0.0
230
1.0
  0
LINE
  5
1FD
100
AcDbEntity
  8
0
370
    35
390
0
 62
     7
 48
0.000018
100
AcDbLine
 10
8.352003
 20
3.481855
 30
0.0
 11
8.351382
 21
3.481456
 31
0.0
210
0.0
220
0.0
230
1.0
  0
LINE
  5
1FE
100
AcDbEntity
  8
0
370
    35
390
0
 62
     7
 48
0.000019
100
AcDbLine
 10
8.351382
 20
3.481456
 30
0.0
 11
8.350763
 21
3.481041
 31
0.0
210
0.0
220
0.0
230
1.0
  0
LINE
  5
1FF
100
AcDbEntity
  8
0
370
    35
390
0
 62
     7
 48
0.000019
100
AcDbLine
 10
8.350763
 20
3.481041
 30
0.0
 11
8.350143
 21
3.480608
 31
0.0
210
0.0
220
0.0
230
1.0
  0
LINE
  5
200
100
AcDbEntity
  8
0
370
    35
390
0
 62
     7
 48
0.000019
100
AcDbLine
 10
8.350143
 20
3.480608
 30
0.0
 11
8.349525
 21
3.480158
 31
0.0
210
0.0
220
0.0
230
1.0
  0
LINE
  5
201
100
AcDbEntity
  8
0
370
    35
390
0
 62
     7
 48
0.000019
100
AcDbLine
 10
8.349525
 20
3.480158
 30
0.0
 11
8.348907
 21
3.479692
 31
0.0
210
0.0
220
0.0
230
1.0
  0
LINE
  5
202
100
AcDbEntity
  8
0
370
    35
390
0
 62
     7
 48
0.000025
100
AcDbLine
 10
8.348907
 20
3.479692
 30
0.0
 11
8.347998
 21
3.48013
 31
0.0
210
0.0
220
0.0
230
1.0
  0
LINE
  5
203
100
AcDbEntity
  8
0
370
    35
390
0
 62
     7
 48
0.000016
100
AcDbLine
 10
8.347998
 20
3.48013
 30
0.0
 11
8.347793
 21
3.480721
 31
0.0
210
0.0
220
0.0
230
1.0
  0
LINE
  5
204
100
AcDbEntity
  8
0
370
    35
390
0
 62
     7
 48
0.000015
100
AcDbLine
 10
8.347793
 20
3.480721
 30
0.0
 11
8.347539
 21
3.481278
 31
0.0
210
0.0
220
0.0
230
1.0
  0
LINE
  5
205
100
AcDbEntity
  8
0
370
    35
390
0
 62
     7
 48
0.000015
100
AcDbLine
 10
8.347539
 20
3.481278
 30
0.0
 11
8.347237
 21
3.4818
 31
0.0
210
0.0
220
0.0
230
1.0
  0
LINE
  5
206
100
AcDbEntity
  8
0
370
    35
390
0
 62
     7
 48
0.000015
100
AcDbLine
 10
8.347237
 20
3.4818
 30
0.0
 11
8.346886
 21
3.482288
 31
0.0
210
0.0
220
0.0
230
1.0
  0
LINE
  5
207
100
AcDbEntity
  8
0
370
    35
390
0
 62
     7
 48
0.000015
100
AcDbLine
 10
8.346886
 20
3.482288
 30
0.0
 11
8.346487
 21
3.482741
 31
0.0
210
0.0
220
0.0
230
1.0
  0
LINE
  5
208
100
AcDbEntity
  8
0
370
    35
390
0
 62
     7
 48
0.000015
100
AcDbLine
 10
8.346487
 20
3.482741
 30
0.0
 11
8.346038
 21
3.48316
 31
0.0
210
0.0
220
0.0
230
1.0
  0
LINE
  5
209
100
AcDbEntity
  8
0
370
    35
390
0
 62
     7
 48
0.000016
100
AcDbLine
 10
8.346038
 20
3.48316
 30
0.0
 11
8.345542
 21
3.483544
 31
0.0
210
0.0
220
0.0
230
1.0
  0
LINE
  5
20A
100
AcDbEntity
  8
0
370
    35
390
0
 62
     7
 48
0.000016
100
AcDbLine
 10
8.345542
 20
3.483544
 30
0.0
 11
8.344995
 21
3.483894
 31
0.0
210
0.0
220
0.0
230
1.0
  0
LINE
  5
20B
100
AcDbEntity
  8
0
370
    35
390
0
 62
     7
 48
0.000017
100
AcDbLine
 10
8.344995
 20
3.483894
 30
0.0
 11
8.344401
 21
3.48421
 31
0.0
210
0.0
220
0.0
230
1.0
  0
LINE
  5
20C
100
AcDbEntity
  8
0
370
    35
390
0
 62
     7
 48
0.000018
100
AcDbLine
 10
8.344401
 20
3.48421
 30
0.0
 11
8.343758
 21
3.484491
 31
0.0
210
0.0
220
0.0
230
1.0
  0
LINE
  5
20D
100
AcDbEntity
  8
0
370
    35
390
0
 62
     7
 48
0.000019
100
AcDbLine
 10
8.343758
 20
3.484491
 30
0.0
 11
8.343046
 21
3.484745
 31
0.0
210
0.0
220
0.0
230
1.0
  0
LINE
  5
20E
100
AcDbEntity
  8
0
370
    35
390
0
 62
     7
 48
0.000021
100
AcDbLine
 10
8.343046
 20
3.484745
 30
0.0
 11
8.342245
 21
3.484981
 31
0.0
210
0.0
220
0.0
230
1.0
  0
LINE
  5
20F
100
AcDbEntity
  8
0
370
    35
390
0
 62
     7
 48
0.000023
100
AcDbLine
 10
8.342245
 20
3.484981
 30
0.0
 11
8.341356
 21
3.485198
 31
0.0
210
0.0
220
0.0
230
1.0
  0
LINE
  5
210
100
AcDbEntity
  8
0
370
    35
390
0
 62
     7
 48
0.000025
100
AcDbLine
 10
8.341356
 20
3.485198
 30
0.0
 11
8.340377
 21
3.485395
 31
0.0
210
0.0
220
0.0
230
1.0
  0
LINE
  5
211
100
AcDbEntity
  8
0
370
    35
390
0
 62
     7
 48
0.000027
100
AcDbLine
 10
8.340377
 20
3.485395
 30
0.0
 11
8.33931
 21
3.485575
 31
0.0
210
0.0
220
0.0
230
1.0
  0
LINE
  5
212
100
AcDbEntity
  8
0
370
    35
390
0
 62
     7
 48
0.000029
100
AcDbLine
 10
8.33931
 20
3.485575
 30
0.0
 11
8.338154
 21
3.485735
 31
0.0
210
0.0
220
0.0
230
1.0
  0
LINE
  5
213
100
AcDbEntity
  8
0
370
    35
390
0
 62
     7
 48
0.000031
100
AcDbLine
 10
8.338154
 20
3.485735
 30
0.0
 11
8.33691
 21
3.485876
 31
0.0
210
0.0
220
0.0
230
1.0
  0
LINE
  5
214
100
AcDbEntity
  8
0
370
    35
390
0
 62
     7
 48
0.000033
100
AcDbLine
 10
8.33691
 20
3.485876
 30
0.0
 11
8.335576
 21
3.485999
 31
0.0
210
0.0
220
0.0
230
1.0
  0
LINE
  5
215
100
AcDbEntity
  8
0
370
    35
390
0
 62
     7
 48
0.000036
100
AcDbLine
 10
8.335576
 20
3.485999
 30
0.0
 11
8.334154
 21
3.486103
 31
0.0
210
0.0
220
0.0
230
1.0
  0
LINE
  5
216
100
AcDbEntity
  8
0
370
    35
390
0
 62
     7
 48
0.000038
100
AcDbLine
 10
8.334154
 20
3.486103
 30
0.0
 11
8.332644
 21
3.486188
 31
0.0
210
0.0
220
0.0
230
1.0
  0
LINE
  5
217
100
AcDbEntity
  8
0
370
    35
390
0
 62
     7
 48
0.000032
100
AcDbLine
 10
8.332644
 20
3.486188
 30
0.0
 11
8.33137
 21
3.486245
 31
0.0
210
0.0
220
0.0
230
1.0
  0
LINE
  5
218
100
AcDbEntity
  8
0
370
    35
390
0
 62
     7
 48
0.000032
100
AcDbLine
 10
8.33137
 20
3.486245
 30
0.0
 11
8.330093
 21
3.486295
 31
0.0
210
0.0
220
0.0
230
1.0
  0
LINE
  5
219
100
AcDbEntity
  8
0
370
    35
390
0
 62
     7
 48
0.000032
100
AcDbLine
 10
8.330093
 20
3.486295
 30
0.0
 11
8.328812
 21
3.486336
 31
0.0
210
0.0
220
0.0
230
1.0
  0
LINE
  5
21A
100
AcDbEntity
  8
0
370
    35
390
0
 62
     7
 48
0.000032
100
AcDbLine
 10
8.328812
 20
3.486336
 30
0.0
 11
8.327529
 21
3.486369
 31
0.0
210
0.0
220
0.0
230
1.0
  0
LINE
  5
21B
100
AcDbEntity
  8
0
370
    35
390
0
 62
     7
 48
0.000032
100
AcDbLine
 10
8.327529
 20
3.486369
 30
0.0
 11
8.326242
 21
3.486393
 31
0.0
210
0.0
220
0.0
230
1.0
  0
LINE
  5
21C
100
AcDbEntity
  8
0
370
    35
390
0
 62
     7
 48
0.000758
100
AcDbLine
 10
8.326242
 20
3.486393
 30
0.0
 11
8.314474
 21
3.458462
 31
0.0
210
0.0
220
0.0
230
1.0
  0
LINE
  5
21D
100
AcDbEntity
  8
0
370
    35
390
0
 62
     7
 48
0.000198
100
AcDbLine
 10
8.314474
 20
3.458462
 30
0.0
 11
8.321716
 21
3.455244
 31
0.0
210
0.0
220
0.0
230
1.0
  0
LINE
  5
21E
100
AcDbEntity
  8
0
370
    35
390
0
 62
     7
 48
0.000809
100
AcDbLine
 10
8.321716
 20
3.455244
 30
0.0
 11
8.289413
 21
3.456813
 31
0.0
210
0.0
220
0.0
230
1.0
  0
LINE
  5
21F
100
AcDbEntity
  8
0
370
    35
390
0
 62
     7
 48
0.000284
100
AcDbLine
 10
8.289413
 20
3.456813
 30
0.0
 11
8.300487
 21
3.459351
 31
0.0
210
0.0
220
0.0
230
1.0
  0
LINE
  5
220
100
AcDbEntity
  8
0
370
    35
390
0
 62
     7
 48
0.000689
100
AcDbLine
 10
8.300487
 20
3.459351
 30
0.0
 11
8.31051
 21
3.485028
 31
0.0
210
0.0
220
0.0
230
1.0
  0
LINE
  5
221
100
AcDbEntity
  8
0
370
    35
390
0
 62
     7
 48
0.000125
100
AcDbLine
 10
8.31051
 20
3.485028
 30
0.0
 11
8.305502
 21
3.485297
 31
0.0
210
0.0
220
0.0
230
1.0
  0
LINE
  5
222
100
AcDbEntity
  8
0
370
    35
390
0
 62
     7
 48
0.000035
100
AcDbLine
 10
8.305502
 20
3.485297
 30
0.0
 11
8.304085
 21
3.485355
 31
0.0
210
0.0
220
0.0
230
1.0
  0
LINE
  5
223
100
AcDbEntity
  8
0
370
    35
390
0
 62
     7
 48
0.000034
100
AcDbLine
 10
8.304085
 20
3.485355
 30
0.0
 11
8.302742
 21
3.485389
 31
0.0
210
0.0
220
0.0
230
1.0
  0
LINE
  5
224
100
AcDbEntity
  8
0
370
    35
390
0
 62
     7
 48
0.000032
100
AcDbLine
 10
8.302742
 20
3.485389
 30
0.0
 11
8.301476
 21
3.485397
 31
0.0
210
0.0
220
0.0
230
1.0
  0
LINE
  5
225
100
AcDbEntity
  8
0
370
    35
390
0
 62
     7
 48
0.00003
100
AcDbLine
 10
8.301476
 20
3.485397
 30
0.0
 11
8.300286
 21
3.48538
 31
0.0
210
0.0
220
0.0
230
1.0
  0
LINE
  5
226
100
AcDbEntity
  8
0
370
    35
390
0
 62
     7
 48
0.000028
100
AcDbLine
 10
8.300286
 20
3.48538
 30
0.0
 11
8.299171
 21
3.485338
 31
0.0
210
0.0
220
0.0
230
1.0
  0
LINE
  5
227
100
AcDbEntity
  8
0
370
    35
390
0
 62
     7
 48
0.000026
100
AcDbLine
 10
8.299171
 20
3.485338
 30
0.0
 11
8.298133
 21
3.485272
 31
0.0
210
0.0
220
0.0
230
1.0
  0
LINE
  5
228
100
AcDbEntity
  8
0
370
    35
390
0
 62
     7
 48
0.000024
100
AcDbLine
 10
8.298133
 20
3.485272
 30
0.0
 11
8.297171
 21
3.48518
 31
0.0
210
0.0
220
0.0
230
1.0
  0
LINE
  5
229
100
AcDbEntity
  8
0
370
    35
390
0
 62
     7
 48
0.000043
100
AcDbLine
 10
8.297171
 20
3.48518
 30
0.0
 11
8.295474
 21
3.484922
 31
0.0
210
0.0
220
0.0
230
1.0
  0
LINE
  5
22A
100
AcDbEntity
  8
0
370
    35
390
0
 62
     7
 48
0.000036
100
AcDbLine
 10
8.295474
 20
3.484922
 30
0.0
 11
8.294062
 21
3.484559
 31
0.0
210
0.0
220
0.0
230
1.0
  0
LINE
  5
22B
100
AcDbEntity
  8
0
370
    35
390
0
 62
     7
 48
0.000033
100
AcDbLine
 10
8.294062
 20
3.484559
 30
0.0
 11
8.292819
 21
3.484064
 31
0.0
210
0.0
220
0.0
230
1.0
  0
LINE
  5
22C
100
AcDbEntity
  8
0
370
    35
390
0
 62
     7
 48
0.000032
100
AcDbLine
 10
8.292819
 20
3.484064
 30
0.0
 11
8.291729
 21
3.483432
 31
0.0
210
0.0
220
0.0
230
1.0
  0
LINE
  5
22D
100
AcDbEntity
  8
0
370
    35
390
0
 62
     7
 48
0.000015
100
AcDbLine
 10
8.291729
 20
3.483432
 30
0.0
 11
8.29124
 21
3.483065
 31
0.0
210
0.0
220
0.0
230
1.0
  0
LINE
  5
22E
100
AcDbEntity
  8
0
370
    35
390
0
 62
     7
 48
0.000015
100
AcDbLine
 10
8.29124
 20
3.483065
 30
0.0
 11
8.290788
 21
3.482664
 31
0.0
210
0.0
220
0.0
230
1.0
  0
LINE
  5
22F
100
AcDbEntity
  8
0
370
    35
390
0
 62
     7
 48
0.000015
100
AcDbLine
 10
8.290788
 20
3.482664
 30
0.0
 11
8.290376
 21
3.482228
 31
0.0
210
0.0
220
0.0
230
1.0
  0
LINE
  5
230
100
AcDbEntity
  8
0
370
    35
390
0
 62
     7
 48
0.000015
100
AcDbLine
 10
8.290376
 20
3.482228
 30
0.0
 11
8.290001
 21
3.481759
 31
0.0
210
0.0
220
0.0
230
1.0
  0
LINE
  5
231
100
AcDbEntity
  8
0
370
    35
390
0
 62
     7
 48
0.000015
100
AcDbLine
 10
8.290001
 20
3.481759
 30
0.0
 11
8.289663
 21
3.481255
 31
0.0
210
0.0
220
0.0
230
1.0
  0
LINE
  5
232
100
AcDbEntity
  8
0
370
    35
390
0
 62
     7
 48
0.000046
100
AcDbLine
 10
8.289663
 20
3.481255
 30
0.0
 11
8.287825
 21
3.481344
 31
0.0
210
0.0
220
0.0
230
1.0
  0
LINE
  5
233
100
AcDbEntity
  8
0
370
    35
390
0
 62
     7
 48
0.000018
100
AcDbLine
 10
8.287825
 20
3.481344
 30
0.0
 11
8.288237
 21
3.48192
 31
0.0
210
0.0
220
0.0
230
1.0
  0
LINE
  5
234
100
AcDbEntity
  8
0
370
    35
390
0
 62
     7
 48
0.000018
100
AcDbLine
 10
8.288237
 20
3.48192
 30
0.0
 11
8.288687
 21
3.482458
 31
0.0
210
0.0
220
0.0
230
1.0
  0
LINE
  5
235
100
AcDbEntity
  8
0
370
    35
390
0
 62
     7
 48
0.000018
100
AcDbLine
 10
8.288687
 20
3.482458
 30
0.0
 11
8.289179
 21
3.482956
 31
0.0
210
0.0
220
0.0
230
1.0
  0
LINE
  5
236
100
AcDbEntity
  8
0
370
    35
390
0
 62
     7
 48
0.000018
100
AcDbLine
 10
8.289179
 20
3.482956
 30
0.0
 11
8.289711
 21
3.483415
 31
0.0
210
0.0
220
0.0
230
1.0
  0
LINE
  5
237
100
AcDbEntity
  8
0
370
    35
390
0
 62
     7
 48
0.000018
100
AcDbLine
 10
8.289711
 20
3.483415
 30
0.0
 11
8.290283
 21
3.483834
 31
0.0
210
0.0
220
0.0
230
1.0
  0
LINE
  5
238
100
AcDbEntity
  8
0
370
    35
390
0
 62
     7
 48
0.000018
100
AcDbLine
 10
8.290283
 20
3.483834
 30
0.0
 11
8.290894
 21
3.484215
 31
0.0
210
0.0
220
0.0
230
1.0
  0
LINE
  5
239
100
AcDbEntity
  8
0
370
    35
390
0
 62
     7
 48
0.000018
100
AcDbLine
 10
8.290894
 20
3.484215
 30
0.0
 11
8.291547
 21
3.484555
 31
0.0
210
0.0
220
0.0
230
1.0
  0
LINE
  5
23A
100
AcDbEntity
  8
0
370
    35
390
0
 62
     7
 48
0.000019
100
AcDbLine
 10
8.291547
 20
3.484555
 30
0.0
 11
8.292239
 21
3.484857
 31
0.0
210
0.0
220
0.0
230
1.0
  0
LINE
  5
23B
100
AcDbEntity
  8
0
370
    35
390
0
 62
     7
 48
0.000019
100
AcDbLine
 10
8.292239
 20
3.484857
 30
0.0
 11
8.292971
 21
3.485119
 31
0.0
210
0.0
220
0.0
230
1.0
  0
LINE
  5
23C
100
AcDbEntity
  8
0
370
    35
390
0
 62
     7
 48
0.000041
100
AcDbLine
 10
8.292971
 20
3.485119
 30
0.0
 11
8.294577
 21
3.485532
 31
0.0
210
0.0
220
0.0
230
1.0
  0
LINE
  5
23D
100
AcDbEntity
  8
0
370
    35
390
0
 62
     7
 48
0.000023
100
AcDbLine
 10
8.294577
 20
3.485532
 30
0.0
 11
8.295492
 21
3.485693
 31
0.0
210
0.0
220
0.0
230
1.0
  0
LINE
  5
23E
100
AcDbEntity
  8
0
370
    35
390
0
 62
     7
 48
0.000025
100
AcDbLine
 10
8.295492
 20
3.485693
 30
0.0
 11
8.29649
 21
3.485826
 31
0.0
210
0.0
220
0.0
230
1.0
  0
LINE
  5
23F
100
AcDbEntity
  8
0
370
    35
390
0
 62
     7
 48
0.000027
100
AcDbLine
 10
8.29649
 20
3.485826
 30
0.0
 11
8.297569
 21
3.485931
 31
0.0
210
0.0
220
0.0
230
1.0
  0
LINE
  5
240
100
AcDbEntity
  8
0
370
    35
390
0
 62
     7
 48
0.000029
100
AcDbLine
 10
8.297569
 20
3.485931
 30
0.0
 11
8.298729
 21
3.486007
 31
0.0
210
0.0
220
0.0
230
1.0
  0
LINE
  5
241
100
AcDbEntity
  8
0
370
    35
390
0
 62
     7
 48
0.000031
100
AcDbLine
 10
8.298729
 20
3.486007
 30
0.0
 11
8.299973
 21
3.486056
 31
0.0
210
0.0
220
0.0
230
1.0
  0
LINE
  5
242
100
AcDbEntity
  8
0
370
    35
390
0
 62
     7
 48
0.000033
100
AcDbLine
 10
8.299973
 20
3.486056
 30
0.0
 11
8.301299
 21
3.486076
 31
0.0
210
0.0
220
0.0
230
1.0
  0
LINE
  5
243
100
AcDbEntity
  8
0
370
    35
390
0
 62
     7
 48
0.000035
100
AcDbLine
 10
8.301299
 20
3.486076
 30
0.0
 11
8.302705
 21
3.486069
 31
0.0
210
0.0
220
0.0
230
1.0
  0
LINE
  5
244
100
AcDbEntity
  8
0
370
    35
390
0
 62
     7
 48
0.000037
100
AcDbLine
 10
8.302705
 20
3.486069
 30
0.0
 11
8.304194
 21
3.486032
 31
0.0
210
0.0
220
0.0
230
1.0
  0
LINE
  5
245
100
AcDbEntity
  8
0
370
    35
390
0
 62
     7
 48
0.000039
100
AcDbLine
 10
8.304194
 20
3.486032
 30
0.0
 11
8.305764
 21
3.485968
 31
0.0
210
0.0
220
0.0
230
1.0
  0
LINE
  5
246
100
AcDbEntity
  8
0
370
    35
390
0
 62
     7
 48
0.000106
100
AcDbLine
 10
8.305764
 20
3.485968
 30
0.0
 11
8.309995
 21
3.485736
 31
0.0
210
0.0
220
0.0
230
1.0
  0
LINE
  5
247
100
AcDbEntity
  8
0
370
    35
390
0
 62
     7
 48
0.000044
100
AcDbLine
 10
8.309995
 20
3.485736
 30
0.0
 11
8.311266
 21
3.486963
 31
0.0
210
0.0
220
0.0
230
1.0
  0
LINE
  5
248
100
AcDbEntity
  8
0
370
    35
390
0
 62
     7
 48
0.000035
100
AcDbLine
 10
8.311266
 20
3.486963
 30
0.0
 11
8.30986
 21
3.487088
 31
0.0
210
0.0
220
0.0
230
1.0
  0
LINE
  5
249
100
AcDbEntity
  8
0
370
    35
390
0
 62
     7
 48
0.000035
100
AcDbLine
 10
8.30986
 20
3.487088
 30
0.0
 11
8.308477
 21
3.487199
 31
0.0
210
0.0
220
0.0
230
1.0
  0
LINE
  5
24A
100
AcDbEntity
  8
0
370
    35
390
0
 62
     7
 48
0.000034
100
AcDbLine
 10
8.308477
 20
3.487199
 30
0.0
 11
8.307118
 21
3.487297
 31
0.0
210
0.0
220
0.0
230
1.0
  0
LINE
  5
24B
100
AcDbEntity
  8
0
370
    35
390
0
 62
     7
 48
0.000033
100
AcDbLine
 10
8.307118
 20
3.487297
 30
0.0
 11
8.305782
 21
3.487381
 31
0.0
210
0.0
220
0.0
230
1.0
  0
LINE
  5
24C
100
AcDbEntity
  8
0
370
    35
390
0
 62
     7
 48
0.000033
100
AcDbLine
 10
8.305782
 20
3.487381
 30
0.0
 11
8.30447
 21
3.487451
 31
0.0
210
0.0
220
0.0
230
1.0
  0
LINE
  5
24D
100
AcDbEntity
  8
0
370
    35
390
0
 62
     7
 48
0.000044
100
AcDbLine
 10
8.30447
 20
3.487451
 30
0.0
 11
8.302693
 21
3.487523
 31
0.0
210
0.0
220
0.0
230
1.0
  0
LINE
  5
24E
100
AcDbEntity
  8
0
370
    35
390
0
 62
     7
 48
0.000042
100
AcDbLine
 10
8.302693
 20
3.487523
 30
0.0
 11
8.301005
 21
3.487564
 31
0.0
210
0.0
220
0.0
230
1.0
  0
LINE
  5
24F
100
AcDbEntity
  8
0
370
    35
390
0
 62
     7
 48
0.00004
100
AcDbLine
 10
8.301005
 20
3.487564
 30
0.0
 11
8.29941
 21
3.487572
 31
0.0
210
0.0
220
0.0
230
1.0
  0
LINE
  5
250
100
AcDbEntity
  8
0
370
    35
390
0
 62
     7
 48
0.000038
100
AcDbLine
 10
8.29941
 20
3.487572
 30
0.0
 11
8.297905
 21
3.487549
 31
0.0
210
0.0
220
0.0
230
1.0
  0
LINE
  5
251
100
AcDbEntity
  8
0
370
    35
390
0
 62
     7
 48
0.000035
100
AcDbLine
 10
8.297905
 20
3.487549
 30
0.0
 11
8.296492
 21
3.487493
 31
0.0
210
0.0
220
0.0
230
1.0
  0
LINE
  5
252
100
AcDbEntity
  8
0
370
    35
390
0
 62
     7
 48
0.000033
100
AcDbLine
 10
8.296492
 20
3.487493
 30
0.0
 11
8.29517
 21
3.487406
 31
0.0
210
0.0
220
0.0
230
1.0
  0
LINE
  5
253
100
AcDbEntity
  8
0
370
    35
390
0
 62
     7
 48
0.000031
100
AcDbLine
 10
8.29517
 20
3.487406
 30
0.0
 11
8.293939
 21
3.487286
 31
0.0
210
0.0
220
0.0
230
1.0
  0
LINE
  5
254
100
AcDbEntity
  8
0
370
    35
390
0
 62
     7
 48
0.000029
100
AcDbLine
 10
8.293939
 20
3.487286
 30
0.0
 11
8.292799
 21
3.487134
 31
0.0
210
0.0
220
0.0
230
1.0
  0
LINE
  5
255
100
AcDbEntity
  8
0
370
    35
390
0
 62
     7
 48
0.000027
100
AcDbLine
 10
8.292799
 20
3.487134
 30
0.0
 11
8.291751
 21
3.486951
 31
0.0
210
0.0
220
0.0
230
1.0
  0
LINE
  5
256
100
AcDbEntity
  8
0
370
    35
390
0
 62
     7
 48
0.000025
100
AcDbLine
 10
8.291751
 20
3.486951
 30
0.0
 11
8.290794
 21
3.486735
 31
0.0
210
0.0
220
0.0
230
1.0
  0
LINE
  5
257
100
AcDbEntity
  8
0
370
    35
390
0
 62
     7
 48
0.000023
100
AcDbLine
 10
8.290794
 20
3.486735
 30
0.0
 11
8.289911
 21
3.486482
 31
0.0
210
0.0
220
0.0
230
1.0
  0
LINE
  5
258
100
AcDbEntity
  8
0
370
    35
390
0
 62
     7
 48
0.000022
100
AcDbLine
 10
8.289911
 20
3.486482
 30
0.0
 11
8.289085
 21
3.486189
 31
0.0
210
0.0
220
0.0
230
1.0
  0
LINE
  5
259
100
AcDbEntity
  8
0
370
    35
390
0
 62
     7
 48
0.000021
100
AcDbLine
 10
8.289085
 20
3.486189
 30
0.0
 11
8.288318
 21
3.485855
 31
0.0
210
0.0
220
0.0
230
1.0
  0
LINE
  5
25A
100
AcDbEntity
  8
0
370
    35
390
0
 62
     7
 48
0.00002
100
AcDbLine
 10
8.288318
 20
3.485855
 30
0.0
 11
8.287608
 21
3.48548
 31
0.0
210
0.0
220
0.0
230
1.0
  0
LINE
  5
25B
100
AcDbEntity
  8
0
370
    35
390
0
 62
     7
 48
0.000019
100
AcDbLine
 10
8.287608
 20
3.48548
 30
0.0
 11
8.286955
 21
3.485064
 31
0.0
210
0.0
220
0.0
230
1.0
  0
LINE
  5
25C
100
AcDbEntity
  8
0
370
    35
390
0
 62
     7
 48
0.000019
100
AcDbLine
 10
8.286955
 20
3.485064
 30
0.0
 11
8.286359
 21
3.484607
 31
0.0
210
0.0
220
0.0
230
1.0
  0
LINE
  5
25D
100
AcDbEntity
  8
0
370
    35
390
0
 62
     7
 48
0.000018
100
AcDbLine
 10
8.286359
 20
3.484607
 30
0.0
 11
8.285821
 21
3.484109
 31
0.0
210
0.0
220
0.0
230
1.0
  0
LINE
  5
25E
100
AcDbEntity
  8
0
370
    35
390
0
 62
     7
 48
0.000018
100
AcDbLine
 10
8.285821
 20
3.484109
 30
0.0
 11
8.285341
 21
3.483571
 31
0.0
210
0.0
220
0.0
230
1.0
  0
LINE
  5
25F
100
AcDbEntity
  8
0
370
    35
390
0
 62
     7
 48
0.000018
100
AcDbLine
 10
8.285341
 20
3.483571
 30
0.0
 11
8.284918
 21
3.482991
 31
0.0
210
0.0
220
0.0
230
1.0
  0
LINE
  5
260
100
AcDbEntity
  8
0
370
    35
390
0
 62
     7
 48
0.000018
100
AcDbLine
 10
8.284918
 20
3.482991
 30
0.0
 11
8.284553
 21
3.482371
 31
0.0
210
0.0
220
0.0
230
1.0
  0
LINE
  5
261
100
AcDbEntity
  8
0
370
    35
390
0
 62
     7
 48
0.000036
100
AcDbLine
 10
8.284553
 20
3.482371
 30
0.0
 11
8.283346
 21
3.483169
 31
0.0
210
0.0
220
0.0
230
1.0
  0
LINE
  5
262
100
AcDbEntity
  8
0
370
    35
390
0
 62
     7
 48
0.000022
100
AcDbLine
 10
8.283346
 20
3.483169
 30
0.0
 11
8.282929
 21
3.483945
 31
0.0
210
0.0
220
0.0
230
1.0
  0
LINE
  5
263
100
AcDbEntity
  8
0
370
    35
390
0
 62
     7
 48
0.000023
100
AcDbLine
 10
8.282929
 20
3.483945
 30
0.0
 11
8.282451
 21
3.484741
 31
0.0
210
0.0
220
0.0
230
1.0
  0
LINE
  5
264
100
AcDbEntity
  8
0
370
    35
390
0
 62
     7
 48
0.000024
100
AcDbLine
 10
8.282451
 20
3.484741
 30
0.0
 11
8.281913
 21
3.485557
 31
0.0
210
0.0
220
0.0
230
1.0
  0
LINE
  5
265
100
AcDbEntity
  8
0
370
    35
390
0
 62
     7
 48
0.000026
100
AcDbLine
 10
8.281913
 20
3.485557
 30
0.0
 11
8.281315
 21
3.486393
 31
0.0
210
0.0
220
0.0
230
1.0
  0
LINE
  5
266
100
AcDbEntity
  8
0
370
    35
390
0
 62
     7
 48
0.000027
100
AcDbLine
 10
8.281315
 20
3.486393
 30
0.0
 11
8.280657
 21
3.487248
 31
0.0
210
0.0
220
0.0
230
1.0
  0
LINE
  5
267
100
AcDbEntity
  8
0
370
    35
390
0
 62
     7
 48
0.000028
100
AcDbLine
 10
8.280657
 20
3.487248
 30
0.0
 11
8.279939
 21
3.488124
 31
0.0
210
0.0
220
0.0
230
1.0
  0
LINE
  5
268
100
AcDbEntity
  8
0
370
    35
390
0
 62
     7
 48
0.00003
100
AcDbLine
 10
8.279939
 20
3.488124
 30
0.0
 11
8.279161
 21
3.489019
 31
0.0
210
0.0
220
0.0
230
1.0
  0
LINE
  5
269
100
AcDbEntity
  8
0
370
    35
390
0
 62
     7
 48
0.000031
100
AcDbLine
 10
8.279161
 20
3.489019
 30
0.0
 11
8.278324
 21
3.489934
 31
0.0
210
0.0
220
0.0
230
1.0
  0
LINE
  5
26A
100
AcDbEntity
  8
0
370
    35
390
0
 62
     7
 48
0.000032
100
AcDbLine
 10
8.278324
 20
3.489934
 30
0.0
 11
8.277426
 21
3.490868
 31
0.0
210
0.0
220
0.0
230
1.0
  0
LINE
  5
26B
100
AcDbEntity
  8
0
370
    35
390
0
 62
     7
 48
0.002122
100
AcDbLine
 10
8.277426
 20
3.490868
 30
0.0
 11
8.362209
 21
3.487013
 31
0.0
210
0.0
220
0.0
230
1.0
  0
LINE
  5
26C
100
AcDbEntity
  8
0
370
    35
390
0
 62
     7
 48
0.000019
100
AcDbLine
 10
8.362209
 20
3.487013
 30
0.0
 11
8.361535
 21
3.486671
 31
0.0
210
0.0
220
0.0
230
1.0
  0
LINE
  5
26D
100
AcDbEntity
  8
0
370
    35
390
0
 62
     7
 48
0.000033
100
AcDbLine
 10
8.364858
 20
3.484734
 30
0.0
 11
8.363655
 21
3.484239
 31
0.0
210
0.0
220
0.0
230
1.0
  0
LINE
  5
26E
100
AcDbEntity
  8
0
370
    35
390
0
 62
     7
 48
0.000034
100
AcDbLine
 10
8.363655
 20
3.484239
 30
0.0
 11
8.36242
 21
3.483683
 31
0.0
210
0.0
220
0.0
230
1.0
  0
LINE
  5
26F
100
AcDbEntity
  8
0
370
    35
390
0
 62
     7
 48
0.000035
100
AcDbLine
 10
8.36242
 20
3.483683
 30
0.0
 11
8.36115
 21
3.483069
 31
0.0
210
0.0
220
0.0
230
1.0
  0
LINE
  5
270
100
AcDbEntity
  8
0
370
    35
390
0
 62
     7
 48
0.000037
100
AcDbLine
 10
8.36115
 20
3.483069
 30
0.0
 11
8.359848
 21
3.482394
 31
0.0
210
0.0
220
0.0
230
1.0
  0
LINE
  5
271
100
AcDbEntity
  8
0
370
    35
390
0
 62
     7
 48
0.000038
100
AcDbLine
 10
8.359848
 20
3.482394
 30
0.0
 11
8.358512
 21
3.481661
 31
0.0
210
0.0
220
0.0
230
1.0
  0
LINE
  5
272
100
AcDbEntity
  8
0
370
    35
390
0
 62
     7
 48
0.00004
100
AcDbLine
 10
8.358512
 20
3.481661
 30
0.0
 11
8.357142
 21
3.480868
 31
0.0
210
0.0
220
0.0
230
1.0
  0
LINE
  5
273
100
AcDbEntity
  8
0
370
    35
390
0
 62
     7
 48
0.000041
100
AcDbLine
 10
8.357142
 20
3.480868
 30
0.0
 11
8.355741
 21
3.480016
 31
0.0
210
0.0
220
0.0
230
1.0
  0
LINE
  5
274
100
AcDbEntity
  8
0
370
    35
390
0
 62
     7
 48
0.000043
100
AcDbLine
 10
8.355741
 20
3.480016
 30
0.0
 11
8.354305
 21
3.479105
 31
0.0
210
0.0
220
0.0
230
1.0
  0
LINE
  5
275
100
AcDbEntity
  8
0
370
    35
390
0
 62
     7
 48
0.000044
100
AcDbLine
 10
8.354305
 20
3.479105
 30
0.0
 11
8.352836
 21
3.478134
 31
0.0
210
0.0
220
0.0
230
1.0
  0
LINE
  5
276
100
AcDbEntity
  8
0
370
    35
390
0
 62
     7
 48
0.000044
100
AcDbLine
 10
8.352836
 20
3.478134
 30
0.0
 11
8.351089
 21
3.478455
 31
0.0
210
0.0
220
0.0
230
1.0
  0
LINE
  5
277
100
AcDbEntity
  8
0
370
    35
390
0
 62
     7
 48
0.000053
100
AcDbLine
 10
8.351089
 20
3.478455
 30
0.0
 11
8.352839
 21
3.479662
 31
0.0
210
0.0
220
0.0
230
1.0
  0
LINE
  5
278
100
AcDbEntity
  8
0
370
    35
390
0
 62
     7
 48
0.000042
100
AcDbLine
 10
8.352839
 20
3.479662
 30
0.0
 11
8.354253
 21
3.480583
 31
0.0
210
0.0
220
0.0
230
1.0
  0
LINE
  5
279
100
AcDbEntity
  8
0
370
    35
390
0
 62
     7
 48
0.000041
100
AcDbLine
 10
8.354253
 20
3.480583
 30
0.0
 11
8.355636
 21
3.481439
 31
0.0
210
0.0
220
0.0
230
1.0
  0
LINE
  5
27A
100
AcDbEntity
  8
0
370
    35
390
0
 62
     7
 48
0.000039
100
AcDbLine
 10
8.355636
 20
3.481439
 30
0.0
 11
8.356985
 21
3.48223
 31
0.0
210
0.0
220
0.0
230
1.0
  0
LINE
  5
27B
100
AcDbEntity
  8
0
370
    35
390
0
 62
     7
 48
0.000038
100
AcDbLine
 10
8.356985
 20
3.48223
 30
0.0
 11
8.358302
 21
3.482956
 31
0.0
210
0.0
220
0.0
230
1.0
  0
LINE
  5
27C
100
AcDbEntity
  8
0
370
    35
390
0
 62
     7
 48
0.000036
100
AcDbLine
 10
8.358302
 20
3.482956
 30
0.0
 11
8.359587
 21
3.483618
 31
0.0
210
0.0
220
0.0
230
1.0
  0
LINE
  5
27D
100
AcDbEntity
  8
0
370
    35
390
0
 62
     7
 48
0.000035
100
AcDbLine
 10
8.359587
 20
3.483618
 30
0.0
 11
8.360839
 21
3.484215
 31
0.0
210
0.0
220
0.0
230
1.0
  0
LINE
  5
27E
100
AcDbEntity
  8
0
370
    35
390
0
 62
     7
 48
0.000033
100
AcDbLine
 10
8.360839
 20
3.484215
 30
0.0
 11
8.362059
 21
3.484748
 31
0.0
210
0.0
220
0.0
230
1.0
  0
LINE
  5
27F
100
AcDbEntity
  8
0
370
    35
390
0
 62
     7
 48
0.000032
100
AcDbLine
 10
8.362059
 20
3.484748
 30
0.0
 11
8.363246
 21
3.485215
 31
0.0
210
0.0
220
0.0
230
1.0
  0
LINE
  5
280
100
AcDbEntity
  8
0
370
    35
390
0
 62
     7
 48
0.000031
100
AcDbLine
 10
8.363246
 20
3.485215
 30
0.0
 11
8.364401
 21
3.485618
 31
0.0
210
0.0
220
0.0
230
1.0
  0
LINE
  5
281
100
AcDbEntity
  8
0
370
    35
390
0
 62
     7
 48
0.000042
100
AcDbLine
 10
8.364401
 20
3.485618
 30
0.0
 11
8.366027
 21
3.485171
 31
0.0
210
0.0
220
0.0
230
1.0
  0
LINE
  5
282
100
AcDbEntity
  8
0
370
    35
390
0
 62
     7
 48
0.000031
100
AcDbLine
 10
8.366027
 20
3.485171
 30
0.0
 11
8.364858
 21
3.484734
 31
0.0
210
0.0
220
0.0
230
1.0
  0
LINE
  5
283
100
AcDbEntity
  8
0
370
    35
390
0
 62
     7
 48
0.000027
100
AcDbLine
 10
8.344571
 20
3.482361
 30
0.0
 11
8.343513
 21
3.482636
 31
0.0
210
0.0
220
0.0
230
1.0
  0
LINE
  5
284
100
AcDbEntity
  8
0
370
    35
390
0
 62
     7
 48
0.000028
100
AcDbLine
 10
8.343513
 20
3.482636
 30
0.0
 11
8.342408
 21
3.482887
 31
0.0
210
0.0
220
0.0
230
1.0
  0
LINE
  5
285
100
AcDbEntity
  8
0
370
    35
390
0
 62
     7
 48
0.000029
100
AcDbLine
 10
8.342408
 20
3.482887
 30
0.0
 11
8.341256
 21
3.483114
 31
0.0
210
0.0
220
0.0
230
1.0
  0
LINE
  5
286
100
AcDbEntity
  8
0
370
    35
390
0
 62
     7
 48
0.00003
100
AcDbLine
 10
8.341256
 20
3.483114
 30
0.0
 11
8.340058
 21
3.483316
 31
0.0
210
0.0
220
0.0
230
1.0
  0
LINE
  5
287
100
AcDbEntity
  8
0
370
    35
390
0
 62
     7
 48
0.000031
100
AcDbLine
 10
8.340058
 20
3.483316
 30
0.0
 11
8.338812
 21
3.483495
 31
0.0
210
0.0
220
0.0
230
1.0
  0
LINE
  5
288
100
AcDbEntity
  8
0
370
    35
390
0
 62
     7
 48
0.000033
100
AcDbLine
 10
8.338812
 20
3.483495
 30
0.0
 11
8.33752
 21
3.48365
 31
0.0
210
0.0
220
0.0
230
1.0
  0
LINE
  5
289
100
AcDbEntity
  8
0
370
    35
390
0
 62
     7
 48
0.000034
100
AcDbLine
 10
8.33752
 20
3.48365
 30
0.0
 11
8.336182
 21
3.483781
 31
0.0
210
0.0
220
0.0
230
1.0
  0
LINE
  5
28A
100
AcDbEntity
  8
0
370
    35
390
0
 62
     7
 48
0.000035
100
AcDbLine
 10
8.336182
 20
3.483781
 30
0.0
 11
8.334795
 21
3.483888
 31
0.0
210
0.0
220
0.0
230
1.0
  0
LINE
  5
28B
100
AcDbEntity
  8
0
370
    35
390
0
 62
     7
 48
0.000036
100
AcDbLine
 10
8.334795
 20
3.483888
 30
0.0
 11
8.333363
 21
3.48397
 31
0.0
210
0.0
220
0.0
230
1.0
  0
LINE
  5
28C
100
AcDbEntity
  8
0
370
    35
390
0
 62
     7
 48
0.000025
100
AcDbLine
 10
8.333363
 20
3.48397
 30
0.0
 11
8.332372
 21
3.484011
 31
0.0
210
0.0
220
0.0
230
1.0
  0
LINE
  5
28D
100
AcDbEntity
  8
0
370
    35
390
0
 62
     7
 48
0.000026
100
AcDbLine
 10
8.332372
 20
3.484011
 30
0.0
 11
8.33135
 21
3.48404
 31
0.0
210
0.0
220
0.0
230
1.0
  0
LINE
  5
28E
100
AcDbEntity
  8
0
370
    35
390
0
 62
     7
 48
0.000026
100
AcDbLine
 10
8.33135
 20
3.48404
 30
0.0
 11
8.330298
 21
3.484056
 31
0.0
210
0.0
220
0.0
230
1.0
  0
LINE
  5
28F
100
AcDbEntity
  8
0
370
    35
390
0
 62
     7
 48
0.000697
100
AcDbLine
 10
8.330298
 20
3.484056
 30
0.0
 11
8.320098
 21
3.458109
 31
0.0
210
0.0
220
0.0
230
1.0
  0
LINE
  5
290
100
AcDbEntity
  8
0
370
    35
390
0
 62
     7
 48
0.00027
100
AcDbLine
 10
8.320098
 20
3.458109
 30
0.0
 11
8.329443
 21
3.452712
 31
0.0
210
0.0
220
0.0
230
1.0
  0
LINE
  5
291
100
AcDbEntity
  8
0
370
    35
390
0
 62
     7
 48
0.000904
100
AcDbLine
 10
8.329443
 20
3.452712
 30
0.0
 11
8.293323
 21
3.454466
 31
0.0
210
0.0
220
0.0
230
1.0
  0
LINE
  5
292
100
AcDbEntity
  8
0
370
    35
390
0
 62
     7
 48
0.000039
100
AcDbLine
 10
8.293323
 20
3.454466
 30
0.0
 11
8.291968
 21
3.455242
 31
0.0
210
0.0
220
0.0
230
1.0
  0
LINE
  5
293
100
AcDbEntity
  8
0
370
    35
390
0
 62
     7
 48
0.000847
100
AcDbLine
 10
8.291968
 20
3.455242
 30
0.0
 11
8.325827
 21
3.453598
 31
0.0
210
0.0
220
0.0
230
1.0
  0
LINE
  5
294
100
AcDbEntity
  8
0
370
    35
390
0
 62
     7
 48
0.000227
100
AcDbLine
 10
8.325827
 20
3.453598
 30
0.0
 11
8.317897
 21
3.458006
 31
0.0
210
0.0
220
0.0
230
1.0
  0
LINE
  5
295
100
AcDbEntity
  8
0
370
    35
390
0
 62
     7
 48
0.000722
100
AcDbLine
 10
8.317897
 20
3.458006
 30
0.0
 11
8.328394
 21
3.484896
 31
0.0
210
0.0
220
0.0
230
1.0
  0
LINE
  5
296
100
AcDbEntity
  8
0
370
    35
390
0
 62
     7
 48
0.000096
100
AcDbLine
 10
8.328394
 20
3.484896
 30
0.0
 11
8.332221
 21
3.484736
 31
0.0
210
0.0
220
0.0
230
1.0
  0
LINE
  5
297
100
AcDbEntity
  8
0
370
    35
390
0
 62
     7
 48
0.000033
100
AcDbLine
 10
8.332221
 20
3.484736
 30
0.0
 11
8.333551
 21
3.484667
 31
0.0
210
0.0
220
0.0
230
1.0
  0
LINE
  5
298
100
AcDbEntity
  8
0
370
    35
390
0
 62
     7
 48
0.000031
100
AcDbLine
 10
8.333551
 20
3.484667
 30
0.0
 11
8.334798
 21
3.484594
 31
0.0
210
0.0
220
0.0
230
1.0
  0
LINE
  5
299
100
AcDbEntity
  8
0
370
    35
390
0
 62
     7
 48
0.000029
100
AcDbLine
 10
8.334798
 20
3.484594
 30
0.0
 11
8.335962
 21
3.484517
 31
0.0
210
0.0
220
0.0
230
1.0
  0
LINE
  5
29A
100
AcDbEntity
  8
0
370
    35
390
0
 62
     7
 48
0.000027
100
AcDbLine
 10
8.335962
 20
3.484517
 30
0.0
 11
8.337042
 21
3.484436
 31
0.0
210
0.0
220
0.0
230
1.0
  0
LINE
  5
29B
100
AcDbEntity
  8
0
370
    35
390
0
 62
     7
 48
0.000025
100
AcDbLine
 10
8.337042
 20
3.484436
 30
0.0
 11
8.338041
 21
3.484351
 31
0.0
210
0.0
220
0.0
230
1.0
  0
LINE
  5
29C
100
AcDbEntity
  8
0
370
    35
390
0
 62
     7
 48
0.000044
100
AcDbLine
 10
8.338041
 20
3.484351
 30
0.0
 11
8.339787
 21
3.484169
 31
0.0
210
0.0
220
0.0
230
1.0
  0
LINE
  5
29D
100
AcDbEntity
  8
0
370
    35
390
0
 62
     7
 48
0.000036
100
AcDbLine
 10
8.339787
 20
3.484169
 30
0.0
 11
8.341202
 21
3.483969
 31
0.0
210
0.0
220
0.0
230
1.0
  0
LINE
  5
29E
100
AcDbEntity
  8
0
370
    35
390
0
 62
     7
 48
0.000028
100
AcDbLine
 10
8.341202
 20
3.483969
 30
0.0
 11
8.342309
 21
3.483749
 31
0.0
210
0.0
220
0.0
230
1.0
  0
LINE
  5
29F
100
AcDbEntity
  8
0
370
    35
390
0
 62
     7
 48
0.000025
100
AcDbLine
 10
8.342309
 20
3.483749
 30
0.0
 11
8.343263
 21
3.483475
 31
0.0
210
0.0
220
0.0
230
1.0
  0
LINE
  5
2A0
100
AcDbEntity
  8
0
370
    35
390
0
 62
     7
 48
0.000022
100
AcDbLine
 10
8.343263
 20
3.483475
 30
0.0
 11
8.344087
 21
3.483144
 31
0.0
210
0.0
220
0.0
230
1.0
  0
LINE
  5
2A1
100
AcDbEntity
  8
0
370
    35
390
0
 62
     7
 48
0.00002
100
AcDbLine
 10
8.344087
 20
3.483144
 30
0.0
 11
8.344782
 21
3.482755
 31
0.0
210
0.0
220
0.0
230
1.0
  0
LINE
  5
2A2
100
AcDbEntity
  8
0
370
    35
390
0
 62
     7
 48
0.000018
100
AcDbLine
 10
8.344782
 20
3.482755
 30
0.0
 11
8.345348
 21
3.482307
 31
0.0
210
0.0
220
0.0
230
1.0
  0
LINE
  5
2A3
100
AcDbEntity
  8
0
370
    35
390
0
 62
     7
 48
0.000008
100
AcDbLine
 10
8.345348
 20
3.482307
 30
0.0
 11
8.345583
 21
3.482062
 31
0.0
210
0.0
220
0.0
230
1.0
  0
LINE
  5
2A4
100
AcDbEntity
  8
0
370
    35
390
0
 62
     7
 48
0.000026
100
AcDbLine
 10
8.345583
 20
3.482062
 30
0.0
 11
8.344571
 21
3.482361
 31
0.0
210
0.0
220
0.0
230
1.0
  0
LINE
  5
2A5
100
AcDbEntity
  8
0
370
    35
390
0
 62
     7
 48
0.000027
100
AcDbLine
 10
8.442084
 20
3.483134
 30
0.0
 11
8.441071
 21
3.48276
 31
0.0
210
0.0
220
0.0
230
1.0
  0
LINE
  5
2A6
100
AcDbEntity
  8
0
370
    35
390
0
 62
     7
 48
0.000026
100
AcDbLine
 10
8.441071
 20
3.48276
 30
0.0
 11
8.440115
 21
3.482403
 31
0.0
210
0.0
220
0.0
230
1.0
  0
LINE
  5
2A7
100
AcDbEntity
  8
0
370
    35
390
0
 62
     7
 48
0.000024
100
AcDbLine
 10
8.440115
 20
3.482403
 30
0.0
 11
8.439217
 21
3.482062
 31
0.0
210
0.0
220
0.0
230
1.0
  0
LINE
  5
2A8
100
AcDbEntity
  8
0
370
    35
390
0
 62
     7
 48
0.000023
100
AcDbLine
 10
8.439217
 20
3.482062
 30
0.0
 11
8.438375
 21
3.481736
 31
0.0
210
0.0
220
0.0
230
1.0
  0
LINE
  5
2A9
100
AcDbEntity
  8
0
370
    35
390
0
 62
     7
 48
0.000021
100
AcDbLine
 10
8.438375
 20
3.481736
 30
0.0
 11
8.437591
 21
3.481426
 31
0.0
210
0.0
220
0.0
230
1.0
  0
LINE
  5
2AA
100
AcDbEntity
  8
0
370
    35
390
0
 62
     7
 48
0.00002
100
AcDbLine
 10
8.437591
 20
3.481426
 30
0.0
 11
8.436864
 21
3.481131
 31
0.0
210
0.0
220
0.0
230
1.0
  0
LINE
  5
2AB
100
AcDbEntity
  8
0
370
    35
390
0
 62
     7
 48
0.000018
100
AcDbLine
 10
8.436864
 20
3.481131
 30
0.0
 11
8.436194
 21
3.480852
 31
0.0
210
0.0
220
0.0
230
1.0
  0
LINE
  5
2AC
100
AcDbEntity
  8
0
370
    35
390
0
 62
     7
 48
0.000032
100
AcDbLine
 10
8.436194
 20
3.480852
 30
0.0
 11
8.435027
 21
3.480341
 31
0.0
210
0.0
220
0.0
230
1.0
  0
LINE
  5
2AD
100
AcDbEntity
  8
0
370
    35
390
0
 62
     7
 48
0.000027
100
AcDbLine
 10
8.435027
 20
3.480341
 30
0.0
 11
8.434044
 21
3.47987
 31
0.0
210
0.0
220
0.0
230
1.0
  0
LINE
  5
2AE
100
AcDbEntity
  8
0
370
    35
390
0
 62
     7
 48
0.00003
100
AcDbLine
 10
8.434044
 20
3.47987
 30
0.0
 11
8.432977
 21
3.479307
 31
0.0
210
0.0
220
0.0
230
1.0
  0
LINE
  5
2AF
100
AcDbEntity
  8
0
370
    35
390
0
 62
     7
 48
0.000017
100
AcDbLine
 10
8.432977
 20
3.479307
 30
0.0
 11
8.432396
 21
3.478983
 31
0.0
210
0.0
220
0.0
230
1.0
  0
LINE
  5
2B0
100
AcDbEntity
  8
0
370
    35
390
0
 62
     7
 48
0.000018
100
AcDbLine
 10
8.432396
 20
3.478983
 30
0.0
 11
8.431782
 21
3.478631
 31
0.0
210
0.0
220
0.0
230
1.0
  0
LINE
  5
2B1
100
AcDbEntity
  8
0
370
    35
390
0
 62
     7
 48
0.000019
100
AcDbLine
 10
8.431782
 20
3.478631
 30
0.0
 11
8.431137
 21
3.47825
 31
0.0
210
0.0
220
0.0
230
1.0
  0
LINE
  5
2B2
100
AcDbEntity
  8
0
370
    35
390
0
 62
     7
 48
0.00002
100
AcDbLine
 10
8.431137
 20
3.47825
 30
0.0
 11
8.43046
 21
3.477841
 31
0.0
210
0.0
220
0.0
230
1.0
  0
LINE
  5
2B3
100
AcDbEntity
  8
0
370
    35
390
0
 62
     7
 48
0.000021
100
AcDbLine
 10
8.43046
 20
3.477841
 30
0.0
 11
8.429751
 21
3.477404
 31
0.0
210
0.0
220
0.0
230
1.0
  0
LINE
  5
2B4
100
AcDbEntity
  8
0
370
    35
390
0
 62
     7
 48
0.000022
100
AcDbLine
 10
8.429751
 20
3.477404
 30
0.0
 11
8.429009
 21
3.476938
 31
0.0
210
0.0
220
0.0
230
1.0
  0
LINE
  5
2B5
100
AcDbEntity
  8
0
370
    35
390
0
 62
     7
 48
0.000023
100
AcDbLine
 10
8.429009
 20
3.476938
 30
0.0
 11
8.428236
 21
3.476444
 31
0.0
210
0.0
220
0.0
230
1.0
  0
LINE
  5
2B6
100
AcDbEntity
  8
0
370
    35
390
0
 62
     7
 48
0.000023
100
AcDbLine
 10
8.428236
 20
3.476444
 30
0.0
 11
8.427469
 21
3.475955
 31
0.0
210
0.0
220
0.0
230
1.0
  0
LINE
  5
2B7
100
AcDbEntity
  8
0
370
    35
390
0
 62
     7
 48
0.000025
100
AcDbLine
 10
8.427469
 20
3.475955
 30
0.0
 11
8.426802
 21
3.476677
 31
0.0
210
0.0
220
0.0
230
1.0
  0
LINE
  5
2B8
100
AcDbEntity
  8
0
370
    35
390
0
 62
     7
 48
0.000024
100
AcDbLine
 10
8.426802
 20
3.476677
 30
0.0
 11
8.426117
 21
3.47735
 31
0.0
210
0.0
220
0.0
230
1.0
  0
LINE
  5
2B9
100
AcDbEntity
  8
0
370
    35
390
0
 62
     7
 48
0.000023
100
AcDbLine
 10
8.426117
 20
3.47735
 30
0.0
 11
8.425415
 21
3.477973
 31
0.0
210
0.0
220
0.0
230
1.0
  0
LINE
  5
2BA
100
AcDbEntity
  8
0
370
    35
390
0
 62
     7
 48
0.000023
100
AcDbLine
 10
8.425415
 20
3.477973
 30
0.0
 11
8.424696
 21
3.478547
 31
0.0
210
0.0
220
0.0
230
1.0
  0
LINE
  5
2BB
100
AcDbEntity
  8
0
370
    35
390
0
 62
     7
 48
0.000023
100
AcDbLine
 10
8.424696
 20
3.478547
 30
0.0
 11
8.423959
 21
3.47907
 31
0.0
210
0.0
220
0.0
230
1.0
  0
LINE
  5
2BC
100
AcDbEntity
  8
0
370
    35
390
0
 62
     7
 48
0.000022
100
AcDbLine
 10
8.423959
 20
3.47907
 30
0.0
 11
8.423205
 21
3.479545
 31
0.0
210
0.0
220
0.0
230
1.0
  0
LINE
  5
2BD
100
AcDbEntity
  8
0
370
    35
390
0
 62
     7
 48
0.000022
100
AcDbLine
 10
8.423205
 20
3.479545
 30
0.0
 11
8.422434
 21
3.479969
 31
0.0
210
0.0
220
0.0
230
1.0
  0
LINE
  5
2BE
100
AcDbEntity
  8
0
370
    35
390
0
 62
     7
 48
0.000022
100
AcDbLine
 10
8.422434
 20
3.479969
 30
0.0
 11
8.421646
 21
3.480344
 31
0.0
210
0.0
220
0.0
230
1.0
  0
LINE
  5
2BF
100
AcDbEntity
  8
0
370
    35
390
0
 62
     7
 48
0.000022
100
AcDbLine
 10
8.421646
 20
3.480344
 30
0.0
 11
8.420841
 21
3.480669
 31
0.0
210
0.0
220
0.0
230
1.0
  0
LINE
  5
2C0
100
AcDbEntity
  8
0
370
    35
390
0
 62
     7
 48
0.000022
100
AcDbLine
 10
8.420841
 20
3.480669
 30
0.0
 11
8.420018
 21
3.480945
 31
0.0
210
0.0
220
0.0
230
1.0
  0
LINE
  5
2C1
100
AcDbEntity
  8
0
370
    35
390
0
 62
     7
 48
0.000023
100
AcDbLine
 10
8.420018
 20
3.480945
 30
0.0
 11
8.41912
 21
3.481188
 31
0.0
210
0.0
220
0.0
230
1.0
  0
LINE
  5
2C2
100
AcDbEntity
  8
0
370
    35
390
0
 62
     7
 48
0.000026
100
AcDbLine
 10
8.41912
 20
3.481188
 30
0.0
 11
8.418089
 21
3.481417
 31
0.0
210
0.0
220
0.0
230
1.0
  0
LINE
  5
2C3
100
AcDbEntity
  8
0
370
    35
390
0
 62
     7
 48
0.00003
100
AcDbLine
 10
8.418089
 20
3.481417
 30
0.0
 11
8.416925
 21
3.481631
 31
0.0
210
0.0
220
0.0
230
1.0
  0
LINE
  5
2C4
100
AcDbEntity
  8
0
370
    35
390
0
 62
     7
 48
0.000033
100
AcDbLine
 10
8.416925
 20
3.481631
 30
0.0
 11
8.415628
 21
3.481831
 31
0.0
210
0.0
220
0.0
230
1.0
  0
LINE
  5
2C5
100
AcDbEntity
  8
0
370
    35
390
0
 62
     7
 48
0.000036
100
AcDbLine
 10
8.415628
 20
3.481831
 30
0.0
 11
8.414197
 21
3.482016
 31
0.0
210
0.0
220
0.0
230
1.0
  0
LINE
  5
2C6
100
AcDbEntity
  8
0
370
    35
390
0
 62
     7
 48
0.000039
100
AcDbLine
 10
8.414197
 20
3.482016
 30
0.0
 11
8.412633
 21
3.482187
 31
0.0
210
0.0
220
0.0
230
1.0
  0
LINE
  5
2C7
100
AcDbEntity
  8
0
370
    35
390
0
 62
     7
 48
0.000043
100
AcDbLine
 10
8.412633
 20
3.482187
 30
0.0
 11
8.410936
 21
3.482343
 31
0.0
210
0.0
220
0.0
230
1.0
  0
LINE
  5
2C8
100
AcDbEntity
  8
0
370
    35
390
0
 62
     7
 48
0.000046
100
AcDbLine
 10
8.410936
 20
3.482343
 30
0.0
 11
8.409106
 21
3.482484
 31
0.0
210
0.0
220
0.0
230
1.0
  0
LINE
  5
2C9
100
AcDbEntity
  8
0
370
    35
390
0
 62
     7
 48
0.000049
100
AcDbLine
 10
8.409106
 20
3.482484
 30
0.0
 11
8.407143
 21
3.482611
 31
0.0
210
0.0
220
0.0
230
1.0
  0
LINE
  5
2CA
100
AcDbEntity
  8
0
370
    35
390
0
 62
     7
 48
0.000052
100
AcDbLine
 10
8.407143
 20
3.482611
 30
0.0
 11
8.405046
 21
3.482724
 31
0.0
210
0.0
220
0.0
230
1.0
  0
LINE
  5
2CB
100
AcDbEntity
  8
0
370
    35
390
0
 62
     7
 48
0.000101
100
AcDbLine
 10
8.405046
 20
3.482724
 30
0.0
 11
8.401007
 21
3.482894
 31
0.0
210
0.0
220
0.0
230
1.0
  0
LINE
  5
2CC
100
AcDbEntity
  8
0
370
    35
390
0
 62
     7
 48
0.000171
100
AcDbLine
 10
8.401007
 20
3.482894
 30
0.0
 11
8.394161
 21
3.483252
 31
0.0
210
0.0
220
0.0
230
1.0
  0
LINE
  5
2CD
100
AcDbEntity
  8
0
370
    35
390
0
 62
     7
 48
0.000065
100
AcDbLine
 10
8.394161
 20
3.483252
 30
0.0
 11
8.391556
 21
3.483405
 31
0.0
210
0.0
220
0.0
230
1.0
  0
LINE
  5
2CE
100
AcDbEntity
  8
0
370
    35
390
0
 62
     7
 48
0.000324
100
AcDbLine
 10
8.391556
 20
3.483405
 30
0.0
 11
8.386841
 21
3.471328
 31
0.0
210
0.0
220
0.0
230
1.0
  0
LINE
  5
2CF
100
AcDbEntity
  8
0
370
    35
390
0
 62
     7
 48
0.000108
100
AcDbLine
 10
8.386841
 20
3.471328
 30
0.0
 11
8.391153
 21
3.471119
 31
0.0
210
0.0
220
0.0
230
1.0
  0
LINE
  5
2D0
100
AcDbEntity
  8
0
370
    35
390
0
 62
     7
 48
0.000286
100
AcDbLine
 10
8.391153
 20
3.471119
 30
0.0
 11
8.395314
 21
3.481776
 31
0.0
210
0.0
220
0.0
230
1.0
  0
LINE
  5
2D1
100
AcDbEntity
  8
0
370
    35
390
0
 62
     7
 48
0.000052
100
AcDbLine
 10
8.395314
 20
3.481776
 30
0.0
 11
8.397374
 21
3.481703
 31
0.0
210
0.0
220
0.0
230
1.0
  0
LINE
  5
2D2
100
AcDbEntity
  8
0
370
    35
390
0
 62
     7
 48
0.000045
100
AcDbLine
 10
8.397374
 20
3.481703
 30
0.0
 11
8.39916
 21
3.481644
 31
0.0
210
0.0
220
0.0
230
1.0
  0
LINE
  5
2D3
100
AcDbEntity
  8
0
370
    35
390
0
 62
     7
 48
0.000046
100
AcDbLine
 10
8.39916
 20
3.481644
 30
0.0
 11
8.400989
 21
3.481578
 31
0.0
210
0.0
220
0.0
230
1.0
  0
LINE
  5
2D4
100
AcDbEntity
  8
0
370
    35
390
0
 62
     7
 48
0.000047
100
AcDbLine
 10
8.400989
 20
3.481578
 30
0.0
 11
8.402861
 21
3.481502
 31
0.0
210
0.0
220
0.0
230
1.0
  0
LINE
  5
2D5
100
AcDbEntity
  8
0
370
    35
390
0
 62
     7
 48
0.000048
100
AcDbLine
 10
8.402861
 20
3.481502
 30
0.0
 11
8.404777
 21
3.481419
 31
0.0
210
0.0
220
0.0
230
1.0
  0
LINE
  5
2D6
100
AcDbEntity
  8
0
370
    35
390
0
 62
     7
 48
0.000049
100
AcDbLine
 10
8.404777
 20
3.481419
 30
0.0
 11
8.406734
 21
3.481327
 31
0.0
210
0.0
220
0.0
230
1.0
  0
LINE
  5
2D7
100
AcDbEntity
  8
0
370
    35
390
0
 62
     7
 48
0.000069
100
AcDbLine
 10
8.406734
 20
3.481327
 30
0.0
 11
8.409499
 21
3.481165
 31
0.0
210
0.0
220
0.0
230
1.0
  0
LINE
  5
2D8
100
AcDbEntity
  8
0
370
    35
390
0
 62
     7
 48
0.000063
100
AcDbLine
 10
8.409499
 20
3.481165
 30
0.0
 11
8.412027
 21
3.480958
 31
0.0
210
0.0
220
0.0
230
1.0
  0
LINE
  5
2D9
100
AcDbEntity
  8
0
370
    35
390
0
 62
     7
 48
0.000058
100
AcDbLine
 10
8.412027
 20
3.480958
 30
0.0
 11
8.414317
 21
3.480708
 31
0.0
210
0.0
220
0.0
230
1.0
  0
LINE
  5
2DA
100
AcDbEntity
  8
0
370
    35
390
0
 62
     7
 48
0.000052
100
AcDbLine
 10
8.414317
 20
3.480708
 30
0.0
 11
8.416369
 21
3.480413
 31
0.0
210
0.0
220
0.0
230
1.0
  0
LINE
  5
2DB
100
AcDbEntity
  8
0
370
    35
390
0
 62
     7
 48
0.000046
100
AcDbLine
 10
8.416369
 20
3.480413
 30
0.0
 11
8.418184
 21
3.480074
 31
0.0
210
0.0
220
0.0
230
1.0
  0
LINE
  5
2DC
100
AcDbEntity
  8
0
370
    35
390
0
 62
     7
 48
0.000041
100
AcDbLine
 10
8.418184
 20
3.480074
 30
0.0
 11
8.419761
 21
3.479691
 31
0.0
210
0.0
220
0.0
230
1.0
  0
LINE
  5
2DD
100
AcDbEntity
  8
0
370
    35
390
0
 62
     7
 48
0.000035
100
AcDbLine
 10
8.419761
 20
3.479691
 30
0.0
 11
8.421099
 21
3.479263
 31
0.0
210
0.0
220
0.0
230
1.0
  0
LINE
  5
2DE
100
AcDbEntity
  8
0
370
    35
390
0
 62
     7
 48
0.00003
100
AcDbLine
 10
8.421099
 20
3.479263
 30
0.0
 11
8.422201
 21
3.478792
 31
0.0
210
0.0
220
0.0
230
1.0
  0
LINE
  5
2DF
100
AcDbEntity
  8
0
370
    35
390
0
 62
     7
 48
0.000025
100
AcDbLine
 10
8.422201
 20
3.478792
 30
0.0
 11
8.423065
 21
3.478276
 31
0.0
210
0.0
220
0.0
230
1.0
  0
LINE
  5
2E0
100
AcDbEntity
  8
0
370
    35
390
0
 62
     7
 48
0.000021
100
AcDbLine
 10
8.423065
 20
3.478276
 30
0.0
 11
8.423691
 21
3.477716
 31
0.0
210
0.0
220
0.0
230
1.0
  0
LINE
  5
2E1
100
AcDbEntity
  8
0
370
    35
390
0
 62
     7
 48
0.000033
100
AcDbLine
 10
8.423691
 20
3.477716
 30
0.0
 11
8.422459
 21
3.478238
 31
0.0
210
0.0
220
0.0
230
1.0
  0
LINE
  5
2E2
100
AcDbEntity
  8
0
370
    35
390
0
 62
     7
 48
0.000035
100
AcDbLine
 10
8.422459
 20
3.478238
 30
0.0
 11
8.421154
 21
3.4787
 31
0.0
210
0.0
220
0.0
230
1.0
  0
LINE
  5
2E3
100
AcDbEntity
  8
0
370
    35
390
0
 62
     7
 48
0.000036
100
AcDbLine
 10
8.421154
 20
3.4787
 30
0.0
 11
8.419776
 21
3.4791
 31
0.0
210
0.0
220
0.0
230
1.0
  0
LINE
  5
2E4
100
AcDbEntity
  8
0
370
    35
390
0
 62
     7
 48
0.000037
100
AcDbLine
 10
8.419776
 20
3.4791
 30
0.0
 11
8.418325
 21
3.479441
 31
0.0
210
0.0
220
0.0
230
1.0
  0
LINE
  5
2E5
100
AcDbEntity
  8
0
370
    35
390
0
 62
     7
 48
0.000039
100
AcDbLine
 10
8.418325
 20
3.479441
 30
0.0
 11
8.416802
 21
3.47972
 31
0.0
210
0.0
220
0.0
230
1.0
  0
LINE
  5
2E6
100
AcDbEntity
  8
0
370
    35
390
0
 62
     7
 48
0.000044
100
AcDbLine
 10
8.416802
 20
3.47972
 30
0.0
 11
8.41506
 21
3.479961
 31
0.0
210
0.0
220
0.0
230
1.0
  0
LINE
  5
2E7
100
AcDbEntity
  8
0
370
    35
390
0
 62
     7
 48
0.000025
100
AcDbLine
 10
8.41506
 20
3.479961
 30
0.0
 11
8.414051
 21
3.480075
 31
0.0
210
0.0
220
0.0
230
1.0
  0
LINE
  5
2E8
100
AcDbEntity
  8
0
370
    35
390
0
 62
     7
 48
0.000028
100
AcDbLine
 10
8.414051
 20
3.480075
 30
0.0
 11
8.412951
 21
3.480185
 31
0.0
210
0.0
220
0.0
230
1.0
  0
LINE
  5
2E9
100
AcDbEntity
  8
0
370
    35
390
0
 62
     7
 48
0.00003
100
AcDbLine
 10
8.412951
 20
3.480185
 30
0.0
 11
8.411759
 21
3.480291
 31
0.0
210
0.0
220
0.0
230
1.0
  0
LINE
  5
2EA
100
AcDbEntity
  8
0
370
    35
390
0
 62
     7
 48
0.000032
100
AcDbLine
 10
8.411759
 20
3.480291
 30
0.0
 11
8.410475
 21
3.480392
 31
0.0
210
0.0
220
0.0
230
1.0
  0
LINE
  5
2EB
100
AcDbEntity
  8
0
370
    35
390
0
 62
     7
 48
0.000034
100
AcDbLine
 10
8.410475
 20
3.480392
 30
0.0
 11
8.4091
 21
3.480489
 31
0.0
210
0.0
220
0.0
230
1.0
  0
LINE
  5
2EC
100
AcDbEntity
  8
0
370
    35
390
0
 62
     7
 48
0.000037
100
AcDbLine
 10
8.4091
 20
3.480489
 30
0.0
 11
8.407632
 21
3.480582
 31
0.0
210
0.0
220
0.0
230
1.0
  0
LINE
  5
2ED
100
AcDbEntity
  8
0
370
    35
390
0
 62
     7
 48
0.000039
100
AcDbLine
 10
8.407632
 20
3.480582
 30
0.0
 11
8.406073
 21
3.480671
 31
0.0
210
0.0
220
0.0
230
1.0
  0
LINE
  5
2EE
100
AcDbEntity
  8
0
370
    35
390
0
 62
     7
 48
0.000041
100
AcDbLine
 10
8.406073
 20
3.480671
 30
0.0
 11
8.404423
 21
3.480756
 31
0.0
210
0.0
220
0.0
230
1.0
  0
LINE
  5
2EF
100
AcDbEntity
  8
0
370
    35
390
0
 62
     7
 48
0.000032
100
AcDbLine
 10
8.404423
 20
3.480756
 30
0.0
 11
8.403145
 21
3.480812
 31
0.0
210
0.0
220
0.0
230
1.0
  0
LINE
  5
2F0
100
AcDbEntity
  8
0
370
    35
390
0
 62
     7
 48
0.000035
100
AcDbLine
 10
8.403145
 20
3.480812
 30
0.0
 11
8.401745
 21
3.480865
 31
0.0
210
0.0
220
0.0
230
1.0
  0
LINE
  5
2F1
100
AcDbEntity
  8
0
370
    35
390
0
 62
     7
 48
0.000038
100
AcDbLine
 10
8.401745
 20
3.480865
 30
0.0
 11
8.400223
 21
3.480912
 31
0.0
210
0.0
220
0.0
230
1.0
  0
LINE
  5
2F2
100
AcDbEntity
  8
0
370
    35
390
0
 62
     7
 48
0.000041
100
AcDbLine
 10
8.400223
 20
3.480912
 30
0.0
 11
8.398577
 21
3.480955
 31
0.0
210
0.0
220
0.0
230
1.0
  0
LINE
  5
2F3
100
AcDbEntity
  8
0
370
    35
390
0
 62
     7
 48
0.000044
100
AcDbLine
 10
8.398577
 20
3.480955
 30
0.0
 11
8.396808
 21
3.480994
 31
0.0
210
0.0
220
0.0
230
1.0
  0
LINE
  5
2F4
100
AcDbEntity
  8
0
370
    35
390
0
 62
     7
 48
0.000267
100
AcDbLine
 10
8.396808
 20
3.480994
 30
0.0
 11
8.39292
 21
3.471033
 31
0.0
210
0.0
220
0.0
230
1.0
  0
LINE
  5
2F5
100
AcDbEntity
  8
0
370
    35
390
0
 62
     7
 48
0.000267
100
AcDbLine
 10
8.39292
 20
3.471033
 30
0.0
 11
8.403593
 21
3.470515
 31
0.0
210
0.0
220
0.0
230
1.0
  0
LINE
  5
2F6
100
AcDbEntity
  8
0
370
    35
390
0
 62
     7
 48
0.000339
100
AcDbLine
 10
8.403593
 20
3.470515
 30
0.0
 11
8.416606
 21
3.474326
 31
0.0
210
0.0
220
0.0
230
1.0
  0
LINE
  5
2F7
100
AcDbEntity
  8
0
370
    35
390
0
 62
     7
 48
0.00029
100
AcDbLine
 10
8.416606
 20
3.474326
 30
0.0
 11
8.412385
 21
3.463514
 31
0.0
210
0.0
220
0.0
230
1.0
  0
LINE
  5
2F8
100
AcDbEntity
  8
0
370
    35
390
0
 62
     7
 48
0.000283
100
AcDbLine
 10
8.412385
 20
3.463514
 30
0.0
 11
8.402181
 21
3.468374
 31
0.0
210
0.0
220
0.0
230
1.0
  0
LINE
  5
2F9
100
AcDbEntity
  8
0
370
    35
390
0
 62
     7
 48
0.000405
100
AcDbLine
 10
8.402181
 20
3.468374
 30
0.0
 11
8.385995
 21
3.469161
 31
0.0
210
0.0
220
0.0
230
1.0
  0
LINE
  5
2FA
100
AcDbEntity
  8
0
370
    35
390
0
 62
     7
 48
0.000349
100
AcDbLine
 10
8.385995
 20
3.469161
 30
0.0
 11
8.380917
 21
3.456154
 31
0.0
210
0.0
220
0.0
230
1.0
  0
LINE
  5
2FB
100
AcDbEntity
  8
0
370
    35
390
0
 62
     7
 48
0.000215
100
AcDbLine
 10
8.380917
 20
3.456154
 30
0.0
 11
8.388656
 21
3.452361
 31
0.0
210
0.0
220
0.0
230
1.0
  0
LINE
  5
2FC
100
AcDbEntity
  8
0
370
    35
390
0
 62
     7
 48
0.000869
100
AcDbLine
 10
8.388656
 20
3.452361
 30
0.0
 11
8.353949
 21
3.454046
 31
0.0
210
0.0
220
0.0
230
1.0
  0
LINE
  5
2FD
100
AcDbEntity
  8
0
370
    35
390
0
 62
     7
 48
0.000328
100
AcDbLine
 10
8.353949
 20
3.454046
 30
0.0
 11
8.36678
 21
3.456841
 31
0.0
210
0.0
220
0.0
230
1.0
  0
LINE
  5
2FE
100
AcDbEntity
  8
0
370
    35
390
0
 62
     7
 48
0.000298
100
AcDbLine
 10
8.36678
 20
3.456841
 30
0.0
 11
8.371112
 21
3.467938
 31
0.0
210
0.0
220
0.0
230
1.0
  0
LINE
  5
2FF
100
AcDbEntity
  8
0
370
    35
390
0
 62
     7
 48
0.000027
100
AcDbLine
 10
8.371112
 20
3.467938
 30
0.0
 11
8.370031
 21
3.467975
 31
0.0
210
0.0
220
0.0
230
1.0
  0
LINE
  5
300
100
AcDbEntity
  8
0
370
    35
390
0
 62
     7
 48
0.000027
100
AcDbLine
 10
8.370031
 20
3.467975
 30
0.0
 11
8.368966
 21
3.467981
 31
0.0
210
0.0
220
0.0
230
1.0
  0
LINE
  5
301
100
AcDbEntity
  8
0
370
    35
390
0
 62
     7
 48
0.000026
100
AcDbLine
 10
8.368966
 20
3.467981
 30
0.0
 11
8.367915
 21
3.467956
 31
0.0
210
0.0
220
0.0
230
1.0
  0
LINE
  5
302
100
AcDbEntity
  8
0
370
    35
390
0
 62
     7
 48
0.000026
100
AcDbLine
 10
8.367915
 20
3.467956
 30
0.0
 11
8.366879
 21
3.467899
 31
0.0
210
0.0
220
0.0
230
1.0
  0
LINE
  5
303
100
AcDbEntity
  8
0
370
    35
390
0
 62
     7
 48
0.000026
100
AcDbLine
 10
8.366879
 20
3.467899
 30
0.0
 11
8.365859
 21
3.467812
 31
0.0
210
0.0
220
0.0
230
1.0
  0
LINE
  5
304
100
AcDbEntity
  8
0
370
    35
390
0
 62
     7
 48
0.000025
100
AcDbLine
 10
8.365859
 20
3.467812
 30
0.0
 11
8.364854
 21
3.467693
 31
0.0
210
0.0
220
0.0
230
1.0
  0
LINE
  5
305
100
AcDbEntity
  8
0
370
    35
390
0
 62
     7
 48
0.000025
100
AcDbLine
 10
8.364854
 20
3.467693
 30
0.0
 11
8.363864
 21
3.467542
 31
0.0
210
0.0
220
0.0
230
1.0
  0
LINE
  5
306
100
AcDbEntity
  8
0
370
    35
390
0
 62
     7
 48
0.000025
100
AcDbLine
 10
8.363864
 20
3.467542
 30
0.0
 11
8.362889
 21
3.467361
 31
0.0
210
0.0
220
0.0
230
1.0
  0
LINE
  5
307
100
AcDbEntity
  8
0
370
    35
390
0
 62
     7
 48
0.000025
100
AcDbLine
 10
8.362889
 20
3.467361
 30
0.0
 11
8.36193
 21
3.467148
 31
0.0
210
0.0
220
0.0
230
1.0
  0
LINE
  5
308
100
AcDbEntity
  8
0
370
    35
390
0
 62
     7
 48
0.000024
100
AcDbLine
 10
8.36193
 20
3.467148
 30
0.0
 11
8.360985
 21
3.466904
 31
0.0
210
0.0
220
0.0
230
1.0
  0
LINE
  5
309
100
AcDbEntity
  8
0
370
    35
390
0
 62
     7
 48
0.000032
100
AcDbLine
 10
8.360985
 20
3.466904
 30
0.0
 11
8.359853
 21
3.467511
 31
0.0
210
0.0
220
0.0
230
1.0
  0
LINE
  5
30A
100
AcDbEntity
  8
0
370
    35
390
0
 62
     7
 48
0.000025
100
AcDbLine
 10
8.359853
 20
3.467511
 30
0.0
 11
8.360823
 21
3.467784
 31
0.0
210
0.0
220
0.0
230
1.0
  0
LINE
  5
30B
100
AcDbEntity
  8
0
370
    35
390
0
 62
     7
 48
0.000026
100
AcDbLine
 10
8.360823
 20
3.467784
 30
0.0
 11
8.361833
 21
3.468021
 31
0.0
210
0.0
220
0.0
230
1.0
  0
LINE
  5
30C
100
AcDbEntity
  8
0
370
    35
390
0
 62
     7
 48
0.000027
100
AcDbLine
 10
8.361833
 20
3.468021
 30
0.0
 11
8.362884
 21
3.468223
 31
0.0
210
0.0
220
0.0
230
1.0
  0
LINE
  5
30D
100
AcDbEntity
  8
0
370
    35
390
0
 62
     7
 48
0.000028
100
AcDbLine
 10
8.362884
 20
3.468223
 30
0.0
 11
8.363976
 21
3.468388
 31
0.0
210
0.0
220
0.0
230
1.0
  0
LINE
  5
30E
100
AcDbEntity
  8
0
370
    35
390
0
 62
     7
 48
0.000028
100
AcDbLine
 10
8.363976
 20
3.468388
 30
0.0
 11
8.365109
 21
3.468518
 31
0.0
210
0.0
220
0.0
230
1.0
  0
LINE
  5
30F
100
AcDbEntity
  8
0
370
    35
390
0
 62
     7
 48
0.000029
100
AcDbLine
 10
8.365109
 20
3.468518
 30
0.0
 11
8.366282
 21
3.468613
 31
0.0
210
0.0
220
0.0
230
1.0
  0
LINE
  5
310
100
AcDbEntity
  8
0
370
    35
390
0
 62
     7
 48
0.00003
100
AcDbLine
 10
8.366282
 20
3.468613
 30
0.0
 11
8.367496
 21
3.468672
 31
0.0
210
0.0
220
0.0
230
1.0
  0
LINE
  5
311
100
AcDbEntity
  8
0
370
    35
390
0
 62
     7
 48
0.000031
100
AcDbLine
 10
8.367496
 20
3.468672
 30
0.0
 11
8.368752
 21
3.468695
 31
0.0
210
0.0
220
0.0
230
1.0
  0
LINE
  5
312
100
AcDbEntity
  8
0
370
    35
390
0
 62
     7
 48
0.000032
100
AcDbLine
 10
8.368752
 20
3.468695
 30
0.0
 11
8.370048
 21
3.468682
 31
0.0
210
0.0
220
0.0
230
1.0
  0
LINE
  5
313
100
AcDbEntity
  8
0
370
    35
390
0
 62
     7
 48
0.000033
100
AcDbLine
 10
8.370048
 20
3.468682
 30
0.0
 11
8.371384
 21
3.468634
 31
0.0
210
0.0
220
0.0
230
1.0
  0
LINE
  5
314
100
AcDbEntity
  8
0
370
    35
390
0
 62
     7
 48
0.000033
100
AcDbLine
 10
8.371384
 20
3.468634
 30
0.0
 11
8.371858
 21
3.469847
 31
0.0
210
0.0
220
0.0
230
1.0
  0
LINE
  5
315
100
AcDbEntity
  8
0
370
    35
390
0
 62
     7
 48
0.000026
100
AcDbLine
 10
8.371858
 20
3.469847
 30
0.0
 11
8.370819
 21
3.469931
 31
0.0
210
0.0
220
0.0
230
1.0
  0
LINE
  5
316
100
AcDbEntity
  8
0
370
    35
390
0
 62
     7
 48
0.000027
100
AcDbLine
 10
8.370819
 20
3.469931
 30
0.0
 11
8.369757
 21
3.470002
 31
0.0
210
0.0
220
0.0
230
1.0
  0
LINE
  5
317
100
AcDbEntity
  8
0
370
    35
390
0
 62
     7
 48
0.000033
100
AcDbLine
 10
8.369757
 20
3.470002
 30
0.0
 11
8.368452
 21
3.470045
 31
0.0
210
0.0
220
0.0
230
1.0
  0
LINE
  5
318
100
AcDbEntity
  8
0
370
    35
390
0
 62
     7
 48
0.000032
100
AcDbLine
 10
8.368452
 20
3.470045
 30
0.0
 11
8.367167
 21
3.470048
 31
0.0
210
0.0
220
0.0
230
1.0
  0
LINE
  5
319
100
AcDbEntity
  8
0
370
    35
390
0
 62
     7
 48
0.000032
100
AcDbLine
 10
8.367167
 20
3.470048
 30
0.0
 11
8.365903
 21
3.470009
 31
0.0
210
0.0
220
0.0
230
1.0
  0
LINE
  5
31A
100
AcDbEntity
  8
0
370
    35
390
0
 62
     7
 48
0.000031
100
AcDbLine
 10
8.365903
 20
3.470009
 30
0.0
 11
8.364658
 21
3.46993
 31
0.0
210
0.0
220
0.0
230
1.0
  0
LINE
  5
31B
100
AcDbEntity
  8
0
370
    35
390
0
 62
     7
 48
0.000031
100
AcDbLine
 10
8.364658
 20
3.46993
 30
0.0
 11
8.363433
 21
3.469809
 31
0.0
210
0.0
220
0.0
230
1.0
  0
LINE
  5
31C
100
AcDbEntity
  8
0
370
    35
390
0
 62
     7
 48
0.00003
100
AcDbLine
 10
8.363433
 20
3.469809
 30
0.0
 11
8.362229
 21
3.469648
 31
0.0
210
0.0
220
0.0
230
1.0
  0
LINE
  5
31D
100
AcDbEntity
  8
0
370
    35
390
0
 62
     7
 48
0.00003
100
AcDbLine
 10
8.362229
 20
3.469648
 30
0.0
 11
8.361045
 21
3.469446
 31
0.0
210
0.0
220
0.0
230
1.0
  0
LINE
  5
31E
100
AcDbEntity
  8
0
370
    35
390
0
 62
     7
 48
0.00003
100
AcDbLine
 10
8.361045
 20
3.469446
 30
0.0
 11
8.35988
 21
3.469203
 31
0.0
210
0.0
220
0.0
230
1.0
  0
LINE
  5
31F
100
AcDbEntity
  8
0
370
    35
390
0
 62
     7
 48
0.000029
100
AcDbLine
 10
8.35988
 20
3.469203
 30
0.0
 11
8.358735
 21
3.468918
 31
0.0
210
0.0
220
0.0
230
1.0
  0
LINE
  5
320
100
AcDbEntity
  8
0
370
    35
390
0
 62
     7
 48
0.000029
100
AcDbLine
 10
8.358735
 20
3.468918
 30
0.0
 11
8.357611
 21
3.468593
 31
0.0
210
0.0
220
0.0
230
1.0
  0
LINE
  5
321
100
AcDbEntity
  8
0
370
    35
390
0
 62
     7
 48
0.000014
100
AcDbLine
 10
8.357611
 20
3.468593
 30
0.0
 11
8.357278
 21
3.46903
 31
0.0
210
0.0
220
0.0
230
1.0
  0
LINE
  5
322
100
AcDbEntity
  8
0
370
    35
390
0
 62
     7
 48
0.000028
100
AcDbLine
 10
8.357278
 20
3.46903
 30
0.0
 11
8.35824
 21
3.469636
 31
0.0
210
0.0
220
0.0
230
1.0
  0
LINE
  5
323
100
AcDbEntity
  8
0
370
    35
390
0
 62
     7
 48
0.00003
100
AcDbLine
 10
8.35824
 20
3.469636
 30
0.0
 11
8.359331
 21
3.470174
 31
0.0
210
0.0
220
0.0
230
1.0
  0
LINE
  5
324
100
AcDbEntity
  8
0
370
    35
390
0
 62
     7
 48
0.000033
100
AcDbLine
 10
8.359331
 20
3.470174
 30
0.0
 11
8.360551
 21
3.470643
 31
0.0
210
0.0
220
0.0
230
1.0
  0
LINE
  5
325
100
AcDbEntity
  8
0
370
    35
390
0
 62
     7
 48
0.000035
100
AcDbLine
 10
8.360551
 20
3.470643
 30
0.0
 11
8.361901
 21
3.471044
 31
0.0
210
0.0
220
0.0
230
1.0
  0
LINE
  5
326
100
AcDbEntity
  8
0
370
    35
390
0
 62
     7
 48
0.000038
100
AcDbLine
 10
8.361901
 20
3.471044
 30
0.0
 11
8.36338
 21
3.471377
 31
0.0
210
0.0
220
0.0
230
1.0
  0
LINE
  5
327
100
AcDbEntity
  8
0
370
    35
390
0
 62
     7
 48
0.000041
100
AcDbLine
 10
8.36338
 20
3.471377
 30
0.0
 11
8.364986
 21
3.471641
 31
0.0
210
0.0
220
0.0
230
1.0
  0
LINE
  5
328
100
AcDbEntity
  8
0
370
    35
390
0
 62
     7
 48
0.000044
100
AcDbLine
 10
8.364986
 20
3.471641
 30
0.0
 11
8.366722
 21
3.471837
 31
0.0
210
0.0
220
0.0
230
1.0
  0
LINE
  5
329
100
AcDbEntity
  8
0
370
    35
390
0
 62
     7
 48
0.000047
100
AcDbLine
 10
8.366722
 20
3.471837
 30
0.0
 11
8.368588
 21
3.471964
 31
0.0
210
0.0
220
0.0
230
1.0
  0
LINE
  5
32A
100
AcDbEntity
  8
0
370
    35
390
0
 62
     7
 48
0.00005
100
AcDbLine
 10
8.368588
 20
3.471964
 30
0.0
 11
8.370581
 21
3.472024
 31
0.0
210
0.0
220
0.0
230
1.0
  0
LINE
  5
32B
100
AcDbEntity
  8
0
370
    35
390
0
 62
     7
 48
0.000053
100
AcDbLine
 10
8.370581
 20
3.472024
 30
0.0
 11
8.372704
 21
3.472015
 31
0.0
210
0.0
220
0.0
230
1.0
  0
LINE
  5
32C
100
AcDbEntity
  8
0
370
    35
390
0
 62
     7
 48
0.000292
100
AcDbLine
 10
8.372704
 20
3.472015
 30
0.0
 11
8.376955
 21
3.482905
 31
0.0
210
0.0
220
0.0
230
1.0
  0
LINE
  5
32D
100
AcDbEntity
  8
0
370
    35
390
0
 62
     7
 48
0.000227
100
AcDbLine
 10
8.376955
 20
3.482905
 30
0.0
 11
8.368711
 21
3.486697
 31
0.0
210
0.0
220
0.0
230
1.0
  0
LINE
  5
32E
100
AcDbEntity
  8
0
370
    35
390
0
 62
     7
 48
0.001836
100
AcDbLine
 10
8.368711
 20
3.486697
 30
0.0
 11
8.442084
 21
3.483134
 31
0.0
210
0.0
220
0.0
230
1.0
  0
LINE
  5
32F
100
AcDbEntity
  8
0
370
    35
390
0
 62
     7
 48
0.000056
100
AcDbLine
 10
8.444561
 20
3.480538
 30
0.0
 11
8.442436
 21
3.479785
 31
0.0
210
0.0
220
0.0
230
1.0
  0
LINE
  5
330
100
AcDbEntity
  8
0
370
    35
390
0
 62
     7
 48
0.000053
100
AcDbLine
 10
8.442436
 20
3.479785
 30
0.0
 11
8.440467
 21
3.47904
 31
0.0
210
0.0
220
0.0
230
1.0
  0
LINE
  5
331
100
AcDbEntity
  8
0
370
    35
390
0
 62
     7
 48
0.000049
100
AcDbLine
 10
8.440467
 20
3.47904
 30
0.0
 11
8.438653
 21
3.478301
 31
0.0
210
0.0
220
0.0
230
1.0
  0
LINE
  5
332
100
AcDbEntity
  8
0
370
    35
390
0
 62
     7
 48
0.000045
100
AcDbLine
 10
8.438653
 20
3.478301
 30
0.0
 11
8.436995
 21
3.477569
 31
0.0
210
0.0
220
0.0
230
1.0
  0
LINE
  5
333
100
AcDbEntity
  8
0
370
    35
390
0
 62
     7
 48
0.000042
100
AcDbLine
 10
8.436995
 20
3.477569
 30
0.0
 11
8.435492
 21
3.476845
 31
0.0
210
0.0
220
0.0
230
1.0
  0
LINE
  5
334
100
AcDbEntity
  8
0
370
    35
390
0
 62
     7
 48
0.000038
100
AcDbLine
 10
8.435492
 20
3.476845
 30
0.0
 11
8.434144
 21
3.476128
 31
0.0
210
0.0
220
0.0
230
1.0
  0
LINE
  5
335
100
AcDbEntity
  8
0
370
    35
390
0
 62
     7
 48
0.000035
100
AcDbLine
 10
8.434144
 20
3.476128
 30
0.0
 11
8.432953
 21
3.475418
 31
0.0
210
0.0
220
0.0
230
1.0
  0
LINE
  5
336
100
AcDbEntity
  8
0
370
    35
390
0
 62
     7
 48
0.000031
100
AcDbLine
 10
8.432953
 20
3.475418
 30
0.0
 11
8.431917
 21
3.474715
 31
0.0
210
0.0
220
0.0
230
1.0
  0
LINE
  5
337
100
AcDbEntity
  8
0
370
    35
390
0
 62
     7
 48
0.000028
100
AcDbLine
 10
8.431917
 20
3.474715
 30
0.0
 11
8.431036
 21
3.47402
 31
0.0
210
0.0
220
0.0
230
1.0
  0
LINE
  5
338
100
AcDbEntity
  8
0
370
    35
390
0
 62
     7
 48
0.000035
100
AcDbLine
 10
8.431036
 20
3.47402
 30
0.0
 11
8.429693
 21
3.474453
 31
0.0
210
0.0
220
0.0
230
1.0
  0
LINE
  5
339
100
AcDbEntity
  8
0
370
    35
390
0
 62
     7
 48
0.00003
100
AcDbLine
 10
8.429693
 20
3.474453
 30
0.0
 11
8.430621
 21
3.475233
 31
0.0
210
0.0
220
0.0
230
1.0
  0
LINE
  5
33A
100
AcDbEntity
  8
0
370
    35
390
0
 62
     7
 48
0.000033
100
AcDbLine
 10
8.430621
 20
3.475233
 30
0.0
 11
8.4317
 21
3.476002
 31
0.0
210
0.0
220
0.0
230
1.0
  0
LINE
  5
33B
100
AcDbEntity
  8
0
370
    35
390
0
 62
     7
 48
0.000036
100
AcDbLine
 10
8.4317
 20
3.476002
 30
0.0
 11
8.432929
 21
3.476761
 31
0.0
210
0.0
220
0.0
230
1.0
  0
LINE
  5
33C
100
AcDbEntity
  8
0
370
    35
390
0
 62
     7
 48
0.000039
100
AcDbLine
 10
8.432929
 20
3.476761
 30
0.0
 11
8.434308
 21
3.477511
 31
0.0
210
0.0
220
0.0
230
1.0
  0
LINE
  5
33D
100
AcDbEntity
  8
0
370
    35
390
0
 62
     7
 48
0.000042
100
AcDbLine
 10
8.434308
 20
3.477511
 30
0.0
 11
8.435838
 21
3.47825
 31
0.0
210
0.0
220
0.0
230
1.0
  0
LINE
  5
33E
100
AcDbEntity
  8
0
370
    35
390
0
 62
     7
 48
0.000046
100
AcDbLine
 10
8.435838
 20
3.47825
 30
0.0
 11
8.437518
 21
3.47898
 31
0.0
210
0.0
220
0.0
230
1.0
  0
LINE
  5
33F
100
AcDbEntity
  8
0
370
    35
390
0
 62
     7
 48
0.000049
100
AcDbLine
 10
8.437518
 20
3.47898
 30
0.0
 11
8.439348
 21
3.479699
 31
0.0
210
0.0
220
0.0
230
1.0
  0
LINE
  5
340
100
AcDbEntity
  8
0
370
    35
390
0
 62
     7
 48
0.000053
100
AcDbLine
 10
8.439348
 20
3.479699
 30
0.0
 11
8.441328
 21
3.480409
 31
0.0
210
0.0
220
0.0
230
1.0
  0
LINE
  5
341
100
AcDbEntity
  8
0
370
    35
390
0
 62
     7
 48
0.000056
100
AcDbLine
 10
8.441328
 20
3.480409
 30
0.0
 11
8.443459
 21
3.481109
 31
0.0
210
0.0
220
0.0
230
1.0
  0
LINE
  5
342
100
AcDbEntity
  8
0
370
    35
390
0
 62
     7
 48
0.00006
100
AcDbLine
 10
8.443459
 20
3.481109
 30
0.0
 11
8.445741
 21
3.481799
 31
0.0
210
0.0
220
0.0
230
1.0
  0
LINE
  5
343
100
AcDbEntity
  8
0
370
    35
390
0
 62
     7
 48
0.00003
100
AcDbLine
 10
8.445741
 20
3.481799
 30
0.0
 11
8.446842
 21
3.481298
 31
0.0
210
0.0
220
0.0
230
1.0
  0
LINE
  5
344
100
AcDbEntity
  8
0
370
    35
390
0
 62
     7
 48
0.00006
100
AcDbLine
 10
8.446842
 20
3.481298
 30
0.0
 11
8.444561
 21
3.480538
 31
0.0
210
0.0
220
0.0
230
1.0
  0
LINE
  5
345
100
AcDbEntity
  8
0
370
    35
390
0
 62
     7
 48
0.000044
100
AcDbLine
 10
8.417061
 20
3.462024
 30
0.0
 11
8.415374
 21
3.462501
 31
0.0
210
0.0
220
0.0
230
1.0
  0
LINE
  5
346
100
AcDbEntity
  8
0
370
    35
390
0
 62
     7
 48
0.000299
100
AcDbLine
 10
8.415374
 20
3.462501
 30
0.0
 11
8.419726
 21
3.473649
 31
0.0
210
0.0
220
0.0
230
1.0
  0
LINE
  5
347
100
AcDbEntity
  8
0
370
    35
390
0
 62
     7
 48
0.000044
100
AcDbLine
 10
8.419726
 20
3.473649
 30
0.0
 11
8.421413
 21
3.473172
 31
0.0
210
0.0
220
0.0
230
1.0
  0
LINE
  5
348
100
AcDbEntity
  8
0
370
    35
390
0
 62
     7
 48
0.000299
100
AcDbLine
 10
8.421413
 20
3.473172
 30
0.0
 11
8.417061
 21
3.462024
 31
0.0
210
0.0
220
0.0
230
1.0
  0
LINE
  5
349
100
AcDbEntity
  8
0
370
    35
390
0
 62
     7
 48
0.000296
100
AcDbLine
 10
8.391227
 20
3.466698
 30
0.0
 11
8.386916
 21
3.455653
 31
0.0
210
0.0
220
0.0
230
1.0
  0
LINE
  5
34A
100
AcDbEntity
  8
0
370
    35
390
0
 62
     7
 48
0.0003
100
AcDbLine
 10
8.386916
 20
3.455653
 30
0.0
 11
8.397161
 21
3.449423
 31
0.0
210
0.0
220
0.0
230
1.0
  0
LINE
  5
34B
100
AcDbEntity
  8
0
370
    35
390
0
 62
     7
 48
0.001024
100
AcDbLine
 10
8.397161
 20
3.449423
 30
0.0
 11
8.356233
 21
3.451411
 31
0.0
210
0.0
220
0.0
230
1.0
  0
LINE
  5
34C
100
AcDbEntity
  8
0
370
    35
390
0
 62
     7
 48
0.000042
100
AcDbLine
 10
8.356233
 20
3.451411
 30
0.0
 11
8.354738
 21
3.452193
 31
0.0
210
0.0
220
0.0
230
1.0
  0
LINE
  5
34D
100
AcDbEntity
  8
0
370
    35
390
0
 62
     7
 48
0.00097
100
AcDbLine
 10
8.354738
 20
3.452193
 30
0.0
 11
8.393474
 21
3.450312
 31
0.0
210
0.0
220
0.0
230
1.0
  0
LINE
  5
34E
100
AcDbEntity
  8
0
370
    35
390
0
 62
     7
 48
0.000247
100
AcDbLine
 10
8.393474
 20
3.450312
 30
0.0
 11
8.385028
 21
3.455429
 31
0.0
210
0.0
220
0.0
230
1.0
  0
LINE
  5
34F
100
AcDbEntity
  8
0
370
    35
390
0
 62
     7
 48
0.000323
100
AcDbLine
 10
8.385028
 20
3.455429
 30
0.0
 11
8.389733
 21
3.46748
 31
0.0
210
0.0
220
0.0
230
1.0
  0
LINE
  5
350
100
AcDbEntity
  8
0
370
    35
390
0
 62
     7
 48
0.000356
100
AcDbLine
 10
8.389733
 20
3.46748
 30
0.0
 11
8.40394
 21
3.46679
 31
0.0
210
0.0
220
0.0
230
1.0
  0
LINE
  5
351
100
AcDbEntity
  8
0
370
    35
390
0
 62
     7
 48
0.000049
100
AcDbLine
 10
8.40394
 20
3.46679
 30
0.0
 11
8.405718
 21
3.465994
 31
0.0
210
0.0
220
0.0
230
1.0
  0
LINE
  5
352
100
AcDbEntity
  8
0
370
    35
390
0
 62
     7
 48
0.000363
100
AcDbLine
 10
8.405718
 20
3.465994
 30
0.0
 11
8.391227
 21
3.466698
 31
0.0
210
0.0
220
0.0
230
1.0
  0
ELLIPSE
  5
353
100
AcDbEntity
  8
0
370
    35
390
0
 62
     7
 48
0.03937
100
AcDbEllipse
 10
8.43168
 20
6.69495
 30
0.0
 11
-0.8880424576371019
 21
-0.0034704940058798
 31
0.0
210
0.0
220
0.0
230
1.0
 40
0.364583
 41
6.2831814476296497
 42
9.424774101219441
  0
ELLIPSE
  5
354
100
AcDbEntity
  8
0
370
    35
390
0
 62
     7
 48
0.03937
100
AcDbEllipse
 10
8.43168
 20
6.69495
 30
0.0
 11
-0.8880424576371019
 21
-0.0034704940058798
 31
0.0
210
0.0
220
0.0
230
1.0
 40
0.364583
 41
4.8547992789735179
 42
6.2831814476296506
  0
ELLIPSE
  5
355
100
AcDbEntity
  8
0
370
    35
390
0
 62
     7
 48
0.03937
100
AcDbEllipse
 10
8.43168
 20
6.69495
 30
0.0
 11
-0.8880424576371019
 21
-0.0034704940058798
 31
0.0
210
0.0
220
0.0
230
1.0
 40
0.364583
 41
3.1415887940398561
 42
4.8547992789735179
  0
LINE
  5
356
100
AcDbEntity
  8
0
370
    35
390
0
 62
     7
 48
0.001993
100
AcDbLine
 10
8.279179
 20
3.488999
 30
0.0
 11
8.358831
 21
3.485377
 31
0.0
210
0.0
220
0.0
230
1.0
  0
LINE
  5
357
100
AcDbEntity
  8
0
370
    35
390
0
 62
     7
 48
0.000045
100
AcDbLine
 10
8.311266
 20
3.486963
 30
0.0
 11
8.311273
 21
3.485173
 31
0.0
210
0.0
220
0.0
230
1.0
  0
LINE
  5
358
100
AcDbEntity
  8
0
370
    35
390
0
 62
     7
 48
0.000017
100
AcDbLine
 10
8.309995
 20
3.485736
 30
0.0
 11
8.309998
 21
3.485055
 31
0.0
210
0.0
220
0.0
230
1.0
  0
LINE
  5
359
100
AcDbEntity
  8
0
370
    35
390
0
 62
     7
 48
0.000026
100
AcDbLine
 10
8.310513
 20
3.484439
 30
0.0
 11
8.311273
 21
3.485173
 31
0.0
210
0.0
220
0.0
230
1.0
  0
LINE
  5
35A
100
AcDbEntity
  8
0
370
    35
390
0
 62
     7
 48
0.000017
100
AcDbLine
 10
8.305764
 20
3.485968
 30
0.0
 11
8.305767
 21
3.485283
 31
0.0
210
0.0
220
0.0
230
1.0
  0
LINE
  5
35B
100
AcDbEntity
  8
0
370
    35
390
0
 62
     7
 48
0.000017
100
AcDbLine
 10
8.304194
 20
3.486032
 30
0.0
 11
8.304197
 21
3.485351
 31
0.0
210
0.0
220
0.0
230
1.0
  0
LINE
  5
35C
100
AcDbEntity
  8
0
370
    35
390
0
 62
     7
 48
0.000017
100
AcDbLine
 10
8.302705
 20
3.486069
 30
0.0
 11
8.302708
 21
3.485389
 31
0.0
210
0.0
220
0.0
230
1.0
  0
LINE
  5
35D
100
AcDbEntity
  8
0
370
    35
390
0
 62
     7
 48
0.000017
100
AcDbLine
 10
8.301299
 20
3.486076
 30
0.0
 11
8.301301
 21
3.485395
 31
0.0
210
0.0
220
0.0
230
1.0
  0
LINE
  5
35E
100
AcDbEntity
  8
0
370
    35
390
0
 62
     7
 48
0.000017
100
AcDbLine
 10
8.299973
 20
3.486056
 30
0.0
 11
8.299976
 21
3.485369
 31
0.0
210
0.0
220
0.0
230
1.0
  0
LINE
  5
35F
100
AcDbEntity
  8
0
370
    35
390
0
 62
     7
 48
0.000017
100
AcDbLine
 10
8.298729
 20
3.486007
 30
0.0
 11
8.298732
 21
3.48531
 31
0.0
210
0.0
220
0.0
230
1.0
  0
LINE
  5
360
100
AcDbEntity
  8
0
370
    35
390
0
 62
     7
 48
0.000018
100
AcDbLine
 10
8.297569
 20
3.485931
 30
0.0
 11
8.297572
 21
3.485218
 31
0.0
210
0.0
220
0.0
230
1.0
  0
LINE
  5
361
100
AcDbEntity
  8
0
370
    35
390
0
 62
     7
 48
0.000019
100
AcDbLine
 10
8.29649
 20
3.485826
 30
0.0
 11
8.296493
 21
3.485077
 31
0.0
210
0.0
220
0.0
230
1.0
  0
LINE
  5
362
100
AcDbEntity
  8
0
370
    35
390
0
 62
     7
 48
0.000019
100
AcDbLine
 10
8.295492
 20
3.485693
 30
0.0
 11
8.295495
 21
3.484925
 31
0.0
210
0.0
220
0.0
230
1.0
  0
LINE
  5
363
100
AcDbEntity
  8
0
370
    35
390
0
 62
     7
 48
0.000021
100
AcDbLine
 10
8.294577
 20
3.485532
 30
0.0
 11
8.29458
 21
3.484692
 31
0.0
210
0.0
220
0.0
230
1.0
  0
LINE
  5
364
100
AcDbEntity
  8
0
370
    35
390
0
 62
     7
 48
0.000025
100
AcDbLine
 10
8.292971
 20
3.485119
 30
0.0
 11
8.292975
 21
3.484126
 31
0.0
210
0.0
220
0.0
230
1.0
  0
LINE
  5
365
100
AcDbEntity
  8
0
370
    35
390
0
 62
     7
 48
0.000028
100
AcDbLine
 10
8.292239
 20
3.484857
 30
0.0
 11
8.292243
 21
3.48373
 31
0.0
210
0.0
220
0.0
230
1.0
  0
LINE
  5
366
100
AcDbEntity
  8
0
370
    35
390
0
 62
     7
 48
0.000031
100
AcDbLine
 10
8.291547
 20
3.484555
 30
0.0
 11
8.291552
 21
3.483299
 31
0.0
210
0.0
220
0.0
230
1.0
  0
LINE
  5
367
100
AcDbEntity
  8
0
370
    35
390
0
 62
     7
 48
0.000036
100
AcDbLine
 10
8.290894
 20
3.484215
 30
0.0
 11
8.2909
 21
3.482763
 31
0.0
210
0.0
220
0.0
230
1.0
  0
LINE
  5
368
100
AcDbEntity
  8
0
370
    35
390
0
 62
     7
 48
0.000045
100
AcDbLine
 10
8.290283
 20
3.483834
 30
0.0
 11
8.29029
 21
3.482045
 31
0.0
210
0.0
220
0.0
230
1.0
  0
LINE
  5
369
100
AcDbEntity
  8
0
370
    35
390
0
 62
     7
 48
0.000045
100
AcDbLine
 10
8.289711
 20
3.483415
 30
0.0
 11
8.289718
 21
3.481625
 31
0.0
210
0.0
220
0.0
230
1.0
  0
LINE
  5
36A
100
AcDbEntity
  8
0
370
    35
390
0
 62
     7
 48
0.000013
100
AcDbLine
 10
8.289718
 20
3.481625
 30
0.0
 11
8.290143
 21
3.481937
 31
0.0
210
0.0
220
0.0
230
1.0
  0
LINE
  5
36B
100
AcDbEntity
  8
0
370
    35
390
0
 62
     7
 48
0.000045
100
AcDbLine
 10
8.289179
 20
3.482956
 30
0.0
 11
8.289186
 21
3.481166
 31
0.0
210
0.0
220
0.0
230
1.0
  0
LINE
  5
36C
100
AcDbEntity
  8
0
370
    35
390
0
 62
     7
 48
0.000014
100
AcDbLine
 10
8.289309
 20
3.481272
 30
0.0
 11
8.289718
 21
3.481625
 31
0.0
210
0.0
220
0.0
230
1.0
  0
LINE
  5
36D
100
AcDbEntity
  8
0
370
    35
390
0
 62
     7
 48
0.000029
100
AcDbLine
 10
8.288687
 20
3.482458
 30
0.0
 11
8.288692
 21
3.481302
 31
0.0
210
0.0
220
0.0
230
1.0
  0
LINE
  5
36E
100
AcDbEntity
  8
0
370
    35
390
0
 62
     7
 48
0.000015
100
AcDbLine
 10
8.288237
 20
3.48192
 30
0.0
 11
8.288239
 21
3.481324
 31
0.0
210
0.0
220
0.0
230
1.0
  0
LINE
  5
36F
100
AcDbEntity
  8
0
370
    35
390
0
 62
     7
 48
0.000045
100
AcDbLine
 10
8.31051
 20
3.485028
 30
0.0
 11
8.310517
 21
3.483238
 31
0.0
210
0.0
220
0.0
230
1.0
  0
LINE
  5
370
100
AcDbEntity
  8
0
370
    35
390
0
 62
     7
 48
0.000045
100
AcDbLine
 10
8.300487
 20
3.459351
 30
0.0
 11
8.300494
 21
3.457562
 31
0.0
210
0.0
220
0.0
230
1.0
  0
LINE
  5
371
100
AcDbEntity
  8
0
370
    35
390
0
 62
     7
 48
0.000689
100
AcDbLine
 10
8.300494
 20
3.457562
 30
0.0
 11
8.310517
 21
3.483238
 31
0.0
210
0.0
220
0.0
230
1.0
  0
LINE
  5
372
100
AcDbEntity
  8
0
370
    35
390
0
 62
     7
 48
0.000119
100
AcDbLine
 10
8.295861
 20
3.456499
 30
0.0
 11
8.300494
 21
3.457562
 31
0.0
210
0.0
220
0.0
230
1.0
  0
LINE
  5
373
100
AcDbEntity
  8
0
370
    35
390
0
 62
     7
 48
0.000045
100
AcDbLine
 10
8.314474
 20
3.458462
 30
0.0
 11
8.314481
 21
3.456672
 31
0.0
210
0.0
220
0.0
230
1.0
  0
LINE
  5
374
100
AcDbEntity
  8
0
370
    35
390
0
 62
     7
 48
0.000074
100
AcDbLine
 10
8.314481
 20
3.456672
 30
0.0
 11
8.317201
 21
3.455463
 31
0.0
210
0.0
220
0.0
230
1.0
  0
LINE
  5
375
100
AcDbEntity
  8
0
370
    35
390
0
 62
     7
 48
0.000027
100
AcDbLine
 10
8.364401
 20
3.485618
 30
0.0
 11
8.364406
 21
3.484548
 31
0.0
210
0.0
220
0.0
230
1.0
  0
LINE
  5
376
100
AcDbEntity
  8
0
370
    35
390
0
 62
     7
 48
0.000029
100
AcDbLine
 10
8.363246
 20
3.485215
 30
0.0
 11
8.363251
 21
3.484057
 31
0.0
210
0.0
220
0.0
230
1.0
  0
LINE
  5
377
100
AcDbEntity
  8
0
370
    35
390
0
 62
     7
 48
0.000031
100
AcDbLine
 10
8.362059
 20
3.484748
 30
0.0
 11
8.362064
 21
3.483511
 31
0.0
210
0.0
220
0.0
230
1.0
  0
LINE
  5
378
100
AcDbEntity
  8
0
370
    35
390
0
 62
     7
 48
0.000033
100
AcDbLine
 10
8.360839
 20
3.484215
 30
0.0
 11
8.360844
 21
3.48291
 31
0.0
210
0.0
220
0.0
230
1.0
  0
LINE
  5
379
100
AcDbEntity
  8
0
370
    35
390
0
 62
     7
 48
0.000034
100
AcDbLine
 10
8.359587
 20
3.483618
 30
0.0
 11
8.359592
 21
3.482254
 31
0.0
210
0.0
220
0.0
230
1.0
  0
LINE
  5
37A
100
AcDbEntity
  8
0
370
    35
390
0
 62
     7
 48
0.000035
100
AcDbLine
 10
8.358302
 20
3.482956
 30
0.0
 11
8.358308
 21
3.481543
 31
0.0
210
0.0
220
0.0
230
1.0
  0
LINE
  5
37B
100
AcDbEntity
  8
0
370
    35
390
0
 62
     7
 48
0.000036
100
AcDbLine
 10
8.356985
 20
3.48223
 30
0.0
 11
8.356991
 21
3.480777
 31
0.0
210
0.0
220
0.0
230
1.0
  0
LINE
  5
37C
100
AcDbEntity
  8
0
370
    35
390
0
 62
     7
 48
0.000037
100
AcDbLine
 10
8.355636
 20
3.481439
 30
0.0
 11
8.355642
 21
3.479953
 31
0.0
210
0.0
220
0.0
230
1.0
  0
LINE
  5
37D
100
AcDbEntity
  8
0
370
    35
390
0
 62
     7
 48
0.000038
100
AcDbLine
 10
8.354253
 20
3.480583
 30
0.0
 11
8.354259
 21
3.479074
 31
0.0
210
0.0
220
0.0
230
1.0
  0
LINE
  5
37E
100
AcDbEntity
  8
0
370
    35
390
0
 62
     7
 48
0.000038
100
AcDbLine
 10
8.352839
 20
3.479662
 30
0.0
 11
8.352845
 21
3.478139
 31
0.0
210
0.0
220
0.0
230
1.0
  0
LINE
  5
37F
100
AcDbEntity
  8
0
370
    35
390
0
 62
     7
 48
0.000004
100
AcDbLine
 10
8.345348
 20
3.482307
 30
0.0
 11
8.345348
 21
3.482131
 31
0.0
210
0.0
220
0.0
230
1.0
  0
LINE
  5
380
100
AcDbEntity
  8
0
370
    35
390
0
 62
     7
 48
0.000011
100
AcDbLine
 10
8.344782
 20
3.482755
 30
0.0
 11
8.344784
 21
3.482298
 31
0.0
210
0.0
220
0.0
230
1.0
  0
LINE
  5
381
100
AcDbEntity
  8
0
370
    35
390
0
 62
     7
 48
0.000016
100
AcDbLine
 10
8.344087
 20
3.483144
 30
0.0
 11
8.344089
 21
3.482486
 31
0.0
210
0.0
220
0.0
230
1.0
  0
LINE
  5
382
100
AcDbEntity
  8
0
370
    35
390
0
 62
     7
 48
0.00002
100
AcDbLine
 10
8.343263
 20
3.483475
 30
0.0
 11
8.343266
 21
3.482692
 31
0.0
210
0.0
220
0.0
230
1.0
  0
LINE
  5
383
100
AcDbEntity
  8
0
370
    35
390
0
 62
     7
 48
0.000021
100
AcDbLine
 10
8.342309
 20
3.483749
 30
0.0
 11
8.342313
 21
3.482906
 31
0.0
210
0.0
220
0.0
230
1.0
  0
LINE
  5
384
100
AcDbEntity
  8
0
370
    35
390
0
 62
     7
 48
0.000021
100
AcDbLine
 10
8.341202
 20
3.483969
 30
0.0
 11
8.341205
 21
3.483122
 31
0.0
210
0.0
220
0.0
230
1.0
  0
LINE
  5
385
100
AcDbEntity
  8
0
370
    35
390
0
 62
     7
 48
0.00002
100
AcDbLine
 10
8.339787
 20
3.484169
 30
0.0
 11
8.33979
 21
3.483355
 31
0.0
210
0.0
220
0.0
230
1.0
  0
LINE
  5
386
100
AcDbEntity
  8
0
370
    35
390
0
 62
     7
 48
0.000019
100
AcDbLine
 10
8.338041
 20
3.484351
 30
0.0
 11
8.338044
 21
3.483587
 31
0.0
210
0.0
220
0.0
230
1.0
  0
LINE
  5
387
100
AcDbEntity
  8
0
370
    35
390
0
 62
     7
 48
0.000019
100
AcDbLine
 10
8.337042
 20
3.484436
 30
0.0
 11
8.337045
 21
3.483696
 31
0.0
210
0.0
220
0.0
230
1.0
  0
LINE
  5
388
100
AcDbEntity
  8
0
370
    35
390
0
 62
     7
 48
0.000018
100
AcDbLine
 10
8.335962
 20
3.484517
 30
0.0
 11
8.335965
 21
3.483797
 31
0.0
210
0.0
220
0.0
230
1.0
  0
LINE
  5
389
100
AcDbEntity
  8
0
370
    35
390
0
 62
     7
 48
0.000018
100
AcDbLine
 10
8.334798
 20
3.484594
 30
0.0
 11
8.334801
 21
3.483887
 31
0.0
210
0.0
220
0.0
230
1.0
  0
LINE
  5
38A
100
AcDbEntity
  8
0
370
    35
390
0
 62
     7
 48
0.000018
100
AcDbLine
 10
8.333551
 20
3.484667
 30
0.0
 11
8.333554
 21
3.483959
 31
0.0
210
0.0
220
0.0
230
1.0
  0
LINE
  5
38B
100
AcDbEntity
  8
0
370
    35
390
0
 62
     7
 48
0.000018
100
AcDbLine
 10
8.332221
 20
3.484736
 30
0.0
 11
8.332224
 21
3.484015
 31
0.0
210
0.0
220
0.0
230
1.0
  0
LINE
  5
38C
100
AcDbEntity
  8
0
370
    35
390
0
 62
     7
 48
0.000045
100
AcDbLine
 10
8.328394
 20
3.484896
 30
0.0
 11
8.328401
 21
3.483106
 31
0.0
210
0.0
220
0.0
230
1.0
  0
LINE
  5
38D
100
AcDbEntity
  8
0
370
    35
390
0
 62
     7
 48
0.000037
100
AcDbLine
 10
8.328401
 20
3.483106
 30
0.0
 11
8.3299
 21
3.483043
 31
0.0
210
0.0
220
0.0
230
1.0
  0
LINE
  5
38E
100
AcDbEntity
  8
0
370
    35
390
0
 62
     7
 48
0.000682
100
AcDbLine
 10
8.318477
 20
3.457684
 30
0.0
 11
8.328401
 21
3.483106
 31
0.0
210
0.0
220
0.0
230
1.0
  0
LINE
  5
38F
100
AcDbEntity
  8
0
370
    35
390
0
 62
     7
 48
0.000018
100
AcDbLine
 10
8.325827
 20
3.453598
 30
0.0
 11
8.32583
 21
3.452887
 31
0.0
210
0.0
220
0.0
230
1.0
  0
LINE
  5
390
100
AcDbEntity
  8
0
370
    35
390
0
 62
     7
 48
0.000033
100
AcDbLine
 10
8.320098
 20
3.458109
 30
0.0
 11
8.320103
 21
3.45678
 31
0.0
210
0.0
220
0.0
230
1.0
  0
LINE
  5
391
100
AcDbEntity
  8
0
370
    35
390
0
 62
     7
 48
0.000007
100
AcDbLine
 10
8.325829
 20
3.453013
 30
0.0
 11
8.326067
 21
3.452876
 31
0.0
210
0.0
220
0.0
230
1.0
  0
LINE
  5
392
100
AcDbEntity
  8
0
370
    35
390
0
 62
     7
 48
0.001623
100
AcDbLine
 10
8.37306
 20
3.484697
 30
0.0
 11
8.437899
 21
3.481547
 31
0.0
210
0.0
220
0.0
230
1.0
  0
LINE
  5
393
100
AcDbEntity
  8
0
370
    35
390
0
 62
     7
 48
0.000045
100
AcDbLine
 10
8.376955
 20
3.482905
 30
0.0
 11
8.376962
 21
3.481115
 31
0.0
210
0.0
220
0.0
230
1.0
  0
LINE
  5
394
100
AcDbEntity
  8
0
370
    35
390
0
 62
     7
 48
0.000045
100
AcDbLine
 10
8.372704
 20
3.472015
 30
0.0
 11
8.372711
 21
3.470225
 31
0.0
210
0.0
220
0.0
230
1.0
  0
LINE
  5
395
100
AcDbEntity
  8
0
370
    35
390
0
 62
     7
 48
0.000292
100
AcDbLine
 10
8.372711
 20
3.470225
 30
0.0
 11
8.376962
 21
3.481115
 31
0.0
210
0.0
220
0.0
230
1.0
  0
LINE
  5
396
100
AcDbEntity
  8
0
370
    35
390
0
 62
     7
 48
0.000045
100
AcDbLine
 10
8.370581
 20
3.472024
 30
0.0
 11
8.370588
 21
3.470234
 31
0.0
210
0.0
220
0.0
230
1.0
  0
LINE
  5
397
100
AcDbEntity
  8
0
370
    35
390
0
 62
     7
 48
0.000053
100
AcDbLine
 10
8.370588
 20
3.470234
 30
0.0
 11
8.372711
 21
3.470225
 31
0.0
210
0.0
220
0.0
230
1.0
  0
LINE
  5
398
100
AcDbEntity
  8
0
370
    35
390
0
 62
     7
 48
0.000045
100
AcDbLine
 10
8.368588
 20
3.471964
 30
0.0
 11
8.368595
 21
3.470174
 31
0.0
210
0.0
220
0.0
230
1.0
  0
LINE
  5
399
100
AcDbEntity
  8
0
370
    35
390
0
 62
     7
 48
0.00005
100
AcDbLine
 10
8.368595
 20
3.470174
 30
0.0
 11
8.370588
 21
3.470234
 31
0.0
210
0.0
220
0.0
230
1.0
  0
LINE
  5
39A
100
AcDbEntity
  8
0
370
    35
390
0
 62
     7
 48
0.000045
100
AcDbLine
 10
8.366722
 20
3.471837
 30
0.0
 11
8.366729
 21
3.470047
 31
0.0
210
0.0
220
0.0
230
1.0
  0
LINE
  5
39B
100
AcDbEntity
  8
0
370
    35
390
0
 62
     7
 48
0.000047
100
AcDbLine
 10
8.366729
 20
3.470047
 30
0.0
 11
8.368595
 21
3.470174
 31
0.0
210
0.0
220
0.0
230
1.0
  0
LINE
  5
39C
100
AcDbEntity
  8
0
370
    35
390
0
 62
     7
 48
0.000045
100
AcDbLine
 10
8.364986
 20
3.471641
 30
0.0
 11
8.364993
 21
3.469851
 31
0.0
210
0.0
220
0.0
230
1.0
  0
LINE
  5
39D
100
AcDbEntity
  8
0
370
    35
390
0
 62
     7
 48
0.000004
100
AcDbLine
 10
8.366576
 20
3.47003
 30
0.0
 11
8.366729
 21
3.470047
 31
0.0
210
0.0
220
0.0
230
1.0
  0
LINE
  5
39E
100
AcDbEntity
  8
0
370
    35
390
0
 62
     7
 48
0.000039
100
AcDbLine
 10
8.36338
 20
3.471377
 30
0.0
 11
8.363386
 21
3.469803
 31
0.0
210
0.0
220
0.0
230
1.0
  0
LINE
  5
39F
100
AcDbEntity
  8
0
370
    35
390
0
 62
     7
 48
0.000036
100
AcDbLine
 10
8.361901
 20
3.471044
 30
0.0
 11
8.361907
 21
3.469593
 31
0.0
210
0.0
220
0.0
230
1.0
  0
LINE
  5
3A0
100
AcDbEntity
  8
0
370
    35
390
0
 62
     7
 48
0.000032
100
AcDbLine
 10
8.360551
 20
3.470643
 30
0.0
 11
8.360556
 21
3.469344
 31
0.0
210
0.0
220
0.0
230
1.0
  0
LINE
  5
3A1
100
AcDbEntity
  8
0
370
    35
390
0
 62
     7
 48
0.000028
100
AcDbLine
 10
8.359331
 20
3.470174
 30
0.0
 11
8.359336
 21
3.469067
 31
0.0
210
0.0
220
0.0
230
1.0
  0
LINE
  5
3A2
100
AcDbEntity
  8
0
370
    35
390
0
 62
     7
 48
0.000022
100
AcDbLine
 10
8.35824
 20
3.469636
 30
0.0
 11
8.358244
 21
3.468776
 31
0.0
210
0.0
220
0.0
230
1.0
  0
LINE
  5
3A3
100
AcDbEntity
  8
0
370
    35
390
0
 62
     7
 48
0.000045
100
AcDbLine
 10
8.371858
 20
3.469847
 30
0.0
 11
8.371865
 21
3.468057
 31
0.0
210
0.0
220
0.0
230
1.0
  0
LINE
  5
3A4
100
AcDbEntity
  8
0
370
    35
390
0
 62
     7
 48
0.000045
100
AcDbLine
 10
8.371384
 20
3.468634
 30
0.0
 11
8.371391
 21
3.466844
 31
0.0
210
0.0
220
0.0
230
1.0
  0
LINE
  5
3A5
100
AcDbEntity
  8
0
370
    35
390
0
 62
     7
 48
0.000033
100
AcDbLine
 10
8.371391
 20
3.466844
 30
0.0
 11
8.371865
 21
3.468057
 31
0.0
210
0.0
220
0.0
230
1.0
  0
LINE
  5
3A6
100
AcDbEntity
  8
0
370
    35
390
0
 62
     7
 48
0.000018
100
AcDbLine
 10
8.370048
 20
3.468682
 30
0.0
 11
8.37005
 21
3.467974
 31
0.0
210
0.0
220
0.0
230
1.0
  0
LINE
  5
3A7
100
AcDbEntity
  8
0
370
    35
390
0
 62
     7
 48
0.000007
100
AcDbLine
 10
8.371116
 20
3.466854
 30
0.0
 11
8.371391
 21
3.466844
 31
0.0
210
0.0
220
0.0
230
1.0
  0
LINE
  5
3A8
100
AcDbEntity
  8
0
370
    35
390
0
 62
     7
 48
0.000018
100
AcDbLine
 10
8.368752
 20
3.468695
 30
0.0
 11
8.368755
 21
3.467976
 31
0.0
210
0.0
220
0.0
230
1.0
  0
LINE
  5
3A9
100
AcDbEntity
  8
0
370
    35
390
0
 62
     7
 48
0.000018
100
AcDbLine
 10
8.367496
 20
3.468672
 30
0.0
 11
8.367499
 21
3.467933
 31
0.0
210
0.0
220
0.0
230
1.0
  0
LINE
  5
3AA
100
AcDbEntity
  8
0
370
    35
390
0
 62
     7
 48
0.000019
100
AcDbLine
 10
8.366282
 20
3.468613
 30
0.0
 11
8.366285
 21
3.467848
 31
0.0
210
0.0
220
0.0
230
1.0
  0
LINE
  5
3AB
100
AcDbEntity
  8
0
370
    35
390
0
 62
     7
 48
0.00002
100
AcDbLine
 10
8.365109
 20
3.468518
 30
0.0
 11
8.365112
 21
3.467723
 31
0.0
210
0.0
220
0.0
230
1.0
  0
LINE
  5
3AC
100
AcDbEntity
  8
0
370
    35
390
0
 62
     7
 48
0.000021
100
AcDbLine
 10
8.363976
 20
3.468388
 30
0.0
 11
8.36398
 21
3.46756
 31
0.0
210
0.0
220
0.0
230
1.0
  0
LINE
  5
3AD
100
AcDbEntity
  8
0
370
    35
390
0
 62
     7
 48
0.000022
100
AcDbLine
 10
8.362884
 20
3.468223
 30
0.0
 11
8.362887
 21
3.467361
 31
0.0
210
0.0
220
0.0
230
1.0
  0
LINE
  5
3AE
100
AcDbEntity
  8
0
370
    35
390
0
 62
     7
 48
0.000022
100
AcDbLine
 10
8.361833
 20
3.468021
 30
0.0
 11
8.361837
 21
3.467124
 31
0.0
210
0.0
220
0.0
230
1.0
  0
LINE
  5
3AF
100
AcDbEntity
  8
0
370
    35
390
0
 62
     7
 48
0.00002
100
AcDbLine
 10
8.360823
 20
3.467784
 30
0.0
 11
8.360826
 21
3.46699
 31
0.0
210
0.0
220
0.0
230
1.0
  0
LINE
  5
3B0
100
AcDbEntity
  8
0
370
    35
390
0
 62
     7
 48
0.000045
100
AcDbLine
 10
8.371112
 20
3.467938
 30
0.0
 11
8.371119
 21
3.466148
 31
0.0
210
0.0
220
0.0
230
1.0
  0
LINE
  5
3B1
100
AcDbEntity
  8
0
370
    35
390
0
 62
     7
 48
0.000045
100
AcDbLine
 10
8.36678
 20
3.456841
 30
0.0
 11
8.366787
 21
3.455051
 31
0.0
210
0.0
220
0.0
230
1.0
  0
LINE
  5
3B2
100
AcDbEntity
  8
0
370
    35
390
0
 62
     7
 48
0.000298
100
AcDbLine
 10
8.366787
 20
3.455051
 30
0.0
 11
8.371119
 21
3.466148
 31
0.0
210
0.0
220
0.0
230
1.0
  0
LINE
  5
3B3
100
AcDbEntity
  8
0
370
    35
390
0
 62
     7
 48
0.000156
100
AcDbLine
 10
8.360674
 20
3.45372
 30
0.0
 11
8.366787
 21
3.455051
 31
0.0
210
0.0
220
0.0
230
1.0
  0
LINE
  5
3B4
100
AcDbEntity
  8
0
370
    35
390
0
 62
     7
 48
0.000045
100
AcDbLine
 10
8.380917
 20
3.456154
 30
0.0
 11
8.380924
 21
3.454365
 31
0.0
210
0.0
220
0.0
230
1.0
  0
LINE
  5
3B5
100
AcDbEntity
  8
0
370
    35
390
0
 62
     7
 48
0.000103
100
AcDbLine
 10
8.380924
 20
3.454365
 30
0.0
 11
8.384611
 21
3.452557
 31
0.0
210
0.0
220
0.0
230
1.0
  0
LINE
  5
3B6
100
AcDbEntity
  8
0
370
    35
390
0
 62
     7
 48
0.000045
100
AcDbLine
 10
8.403593
 20
3.470515
 30
0.0
 11
8.4036
 21
3.468725
 31
0.0
210
0.0
220
0.0
230
1.0
  0
LINE
  5
3B7
100
AcDbEntity
  8
0
370
    35
390
0
 62
     7
 48
0.000318
100
AcDbLine
 10
8.4036
 20
3.468725
 30
0.0
 11
8.415816
 21
3.472303
 31
0.0
210
0.0
220
0.0
230
1.0
  0
LINE
  5
3B8
100
AcDbEntity
  8
0
370
    35
390
0
 62
     7
 48
0.000045
100
AcDbLine
 10
8.39292
 20
3.471033
 30
0.0
 11
8.392927
 21
3.469243
 31
0.0
210
0.0
220
0.0
230
1.0
  0
LINE
  5
3B9
100
AcDbEntity
  8
0
370
    35
390
0
 62
     7
 48
0.000267
100
AcDbLine
 10
8.392927
 20
3.469243
 30
0.0
 11
8.4036
 21
3.468725
 31
0.0
210
0.0
220
0.0
230
1.0
  0
LINE
  5
3BA
100
AcDbEntity
  8
0
370
    35
390
0
 62
     7
 48
0.000007
100
AcDbLine
 10
8.423065
 20
3.478276
 30
0.0
 11
8.423066
 21
3.477981
 31
0.0
210
0.0
220
0.0
230
1.0
  0
LINE
  5
3BB
100
AcDbEntity
  8
0
370
    35
390
0
 62
     7
 48
0.000012
100
AcDbLine
 10
8.422201
 20
3.478792
 30
0.0
 11
8.422202
 21
3.478329
 31
0.0
210
0.0
220
0.0
230
1.0
  0
LINE
  5
3BC
100
AcDbEntity
  8
0
370
    35
390
0
 62
     7
 48
0.000014
100
AcDbLine
 10
8.421099
 20
3.479263
 30
0.0
 11
8.421101
 21
3.478715
 31
0.0
210
0.0
220
0.0
230
1.0
  0
LINE
  5
3BD
100
AcDbEntity
  8
0
370
    35
390
0
 62
     7
 48
0.000015
100
AcDbLine
 10
8.419761
 20
3.479691
 30
0.0
 11
8.419763
 21
3.479103
 31
0.0
210
0.0
220
0.0
230
1.0
  0
LINE
  5
3BE
100
AcDbEntity
  8
0
370
    35
390
0
 62
     7
 48
0.000015
100
AcDbLine
 10
8.418184
 20
3.480074
 30
0.0
 11
8.418186
 21
3.479466
 31
0.0
210
0.0
220
0.0
230
1.0
  0
LINE
  5
3BF
100
AcDbEntity
  8
0
370
    35
390
0
 62
     7
 48
0.000016
100
AcDbLine
 10
8.416369
 20
3.480413
 30
0.0
 11
8.416371
 21
3.47978
 31
0.0
210
0.0
220
0.0
230
1.0
  0
LINE
  5
3C0
100
AcDbEntity
  8
0
370
    35
390
0
 62
     7
 48
0.000017
100
AcDbLine
 10
8.414317
 20
3.480708
 30
0.0
 11
8.41432
 21
3.480045
 31
0.0
210
0.0
220
0.0
230
1.0
  0
LINE
  5
3C1
100
AcDbEntity
  8
0
370
    35
390
0
 62
     7
 48
0.000017
100
AcDbLine
 10
8.412027
 20
3.480958
 30
0.0
 11
8.412029
 21
3.480267
 31
0.0
210
0.0
220
0.0
230
1.0
  0
LINE
  5
3C2
100
AcDbEntity
  8
0
370
    35
390
0
 62
     7
 48
0.000018
100
AcDbLine
 10
8.409499
 20
3.481165
 30
0.0
 11
8.409502
 21
3.480461
 31
0.0
210
0.0
220
0.0
230
1.0
  0
LINE
  5
3C3
100
AcDbEntity
  8
0
370
    35
390
0
 62
     7
 48
0.000017
100
AcDbLine
 10
8.406734
 20
3.481327
 30
0.0
 11
8.406737
 21
3.480633
 31
0.0
210
0.0
220
0.0
230
1.0
  0
LINE
  5
3C4
100
AcDbEntity
  8
0
370
    35
390
0
 62
     7
 48
0.000017
100
AcDbLine
 10
8.404777
 20
3.481419
 30
0.0
 11
8.404779
 21
3.480737
 31
0.0
210
0.0
220
0.0
230
1.0
  0
LINE
  5
3C5
100
AcDbEntity
  8
0
370
    35
390
0
 62
     7
 48
0.000017
100
AcDbLine
 10
8.402861
 20
3.481502
 30
0.0
 11
8.402864
 21
3.480823
 31
0.0
210
0.0
220
0.0
230
1.0
  0
LINE
  5
3C6
100
AcDbEntity
  8
0
370
    35
390
0
 62
     7
 48
0.000017
100
AcDbLine
 10
8.400989
 20
3.481578
 30
0.0
 11
8.400992
 21
3.480888
 31
0.0
210
0.0
220
0.0
230
1.0
  0
LINE
  5
3C7
100
AcDbEntity
  8
0
370
    35
390
0
 62
     7
 48
0.000018
100
AcDbLine
 10
8.39916
 20
3.481644
 30
0.0
 11
8.399163
 21
3.48094
 31
0.0
210
0.0
220
0.0
230
1.0
  0
LINE
  5
3C8
100
AcDbEntity
  8
0
370
    35
390
0
 62
     7
 48
0.000045
100
AcDbLine
 10
8.395314
 20
3.481776
 30
0.0
 11
8.395321
 21
3.479987
 31
0.0
210
0.0
220
0.0
230
1.0
  0
LINE
  5
3C9
100
AcDbEntity
  8
0
370
    35
390
0
 62
     7
 48
0.000027
100
AcDbLine
 10
8.395321
 20
3.479987
 30
0.0
 11
8.3964
 21
3.479948
 31
0.0
210
0.0
220
0.0
230
1.0
  0
LINE
  5
3CA
100
AcDbEntity
  8
0
370
    35
390
0
 62
     7
 48
0.000045
100
AcDbLine
 10
8.391153
 20
3.471119
 30
0.0
 11
8.39116
 21
3.469329
 31
0.0
210
0.0
220
0.0
230
1.0
  0
LINE
  5
3CB
100
AcDbEntity
  8
0
370
    35
390
0
 62
     7
 48
0.000286
100
AcDbLine
 10
8.39116
 20
3.469329
 30
0.0
 11
8.395321
 21
3.479987
 31
0.0
210
0.0
220
0.0
230
1.0
  0
LINE
  5
3CC
100
AcDbEntity
  8
0
370
    35
390
0
 62
     7
 48
0.000045
100
AcDbLine
 10
8.386841
 20
3.471328
 30
0.0
 11
8.386848
 21
3.469538
 31
0.0
210
0.0
220
0.0
230
1.0
  0
LINE
  5
3CD
100
AcDbEntity
  8
0
370
    35
390
0
 62
     7
 48
0.000108
100
AcDbLine
 10
8.386848
 20
3.469538
 30
0.0
 11
8.39116
 21
3.469329
 31
0.0
210
0.0
220
0.0
230
1.0
  0
LINE
  5
3CE
100
AcDbEntity
  8
0
370
    35
390
0
 62
     7
 48
0.000022
100
AcDbLine
 10
8.445741
 20
3.481799
 30
0.0
 11
8.445744
 21
3.480932
 31
0.0
210
0.0
220
0.0
230
1.0
  0
LINE
  5
3CF
100
AcDbEntity
  8
0
370
    35
390
0
 62
     7
 48
0.000024
100
AcDbLine
 10
8.443459
 20
3.481109
 30
0.0
 11
8.443463
 21
3.480149
 31
0.0
210
0.0
220
0.0
230
1.0
  0
LINE
  5
3D0
100
AcDbEntity
  8
0
370
    35
390
0
 62
     7
 48
0.000026
100
AcDbLine
 10
8.441328
 20
3.480409
 30
0.0
 11
8.441333
 21
3.479367
 31
0.0
210
0.0
220
0.0
230
1.0
  0
LINE
  5
3D1
100
AcDbEntity
  8
0
370
    35
390
0
 62
     7
 48
0.000028
100
AcDbLine
 10
8.439348
 20
3.479699
 30
0.0
 11
8.439353
 21
3.478586
 31
0.0
210
0.0
220
0.0
230
1.0
  0
LINE
  5
3D2
100
AcDbEntity
  8
0
370
    35
390
0
 62
     7
 48
0.000029
100
AcDbLine
 10
8.437518
 20
3.47898
 30
0.0
 11
8.437523
 21
3.477802
 31
0.0
210
0.0
220
0.0
230
1.0
  0
LINE
  5
3D3
100
AcDbEntity
  8
0
370
    35
390
0
 62
     7
 48
0.000031
100
AcDbLine
 10
8.435838
 20
3.47825
 30
0.0
 11
8.435843
 21
3.477014
 31
0.0
210
0.0
220
0.0
230
1.0
  0
LINE
  5
3D4
100
AcDbEntity
  8
0
370
    35
390
0
 62
     7
 48
0.000032
100
AcDbLine
 10
8.434308
 20
3.477511
 30
0.0
 11
8.434313
 21
3.476218
 31
0.0
210
0.0
220
0.0
230
1.0
  0
LINE
  5
3D5
100
AcDbEntity
  8
0
370
    35
390
0
 62
     7
 48
0.000034
100
AcDbLine
 10
8.432929
 20
3.476761
 30
0.0
 11
8.432934
 21
3.475406
 31
0.0
210
0.0
220
0.0
230
1.0
  0
LINE
  5
3D6
100
AcDbEntity
  8
0
370
    35
390
0
 62
     7
 48
0.000036
100
AcDbLine
 10
8.4317
 20
3.476002
 30
0.0
 11
8.431705
 21
3.474548
 31
0.0
210
0.0
220
0.0
230
1.0
  0
LINE
  5
3D7
100
AcDbEntity
  8
0
370
    35
390
0
 62
     7
 48
0.000027
100
AcDbLine
 10
8.430621
 20
3.475233
 30
0.0
 11
8.430625
 21
3.474152
 31
0.0
210
0.0
220
0.0
230
1.0
  0
LINE
  5
3D8
100
AcDbEntity
  8
0
370
    35
390
0
 62
     7
 48
0.000045
100
AcDbLine
 10
8.419726
 20
3.473649
 30
0.0
 11
8.419733
 21
3.471859
 31
0.0
210
0.0
220
0.0
230
1.0
  0
LINE
  5
3D9
100
AcDbEntity
  8
0
370
    35
390
0
 62
     7
 48
0.000027
100
AcDbLine
 10
8.419733
 20
3.471859
 30
0.0
 11
8.420785
 21
3.471562
 31
0.0
210
0.0
220
0.0
230
1.0
  0
LINE
  5
3DA
100
AcDbEntity
  8
0
370
    35
390
0
 62
     7
 48
0.000256
100
AcDbLine
 10
8.41601
 20
3.462321
 30
0.0
 11
8.419733
 21
3.471859
 31
0.0
210
0.0
220
0.0
230
1.0
  0
LINE
  5
3DB
100
AcDbEntity
  8
0
370
    35
390
0
 62
     7
 48
0.000018
100
AcDbLine
 10
8.40394
 20
3.46679
 30
0.0
 11
8.403943
 21
3.46608
 31
0.0
210
0.0
220
0.0
230
1.0
  0
LINE
  5
3DC
100
AcDbEntity
  8
0
370
    35
390
0
 62
     7
 48
0.000045
100
AcDbLine
 10
8.389733
 20
3.46748
 30
0.0
 11
8.38974
 21
3.46569
 31
0.0
210
0.0
220
0.0
230
1.0
  0
LINE
  5
3DD
100
AcDbEntity
  8
0
370
    35
390
0
 62
     7
 48
0.000027
100
AcDbLine
 10
8.38974
 20
3.46569
 30
0.0
 11
8.390814
 21
3.465638
 31
0.0
210
0.0
220
0.0
230
1.0
  0
LINE
  5
3DE
100
AcDbEntity
  8
0
370
    35
390
0
 62
     7
 48
0.000285
100
AcDbLine
 10
8.385599
 20
3.455083
 30
0.0
 11
8.38974
 21
3.46569
 31
0.0
210
0.0
220
0.0
230
1.0
  0
LINE
  5
3DF
100
AcDbEntity
  8
0
370
    35
390
0
 62
     7
 48
0.000018
100
AcDbLine
 10
8.393474
 20
3.450312
 30
0.0
 11
8.393477
 21
3.449602
 31
0.0
210
0.0
220
0.0
230
1.0
  0
LINE
  5
3E0
100
AcDbEntity
  8
0
370
    35
390
0
 62
     7
 48
0.000034
100
AcDbLine
 10
8.386916
 20
3.455653
 30
0.0
 11
8.386921
 21
3.454282
 31
0.0
210
0.0
220
0.0
230
1.0
  0
LINE
  5
3E1
100
AcDbEntity
  8
0
370
    35
390
0
 62
     7
 48
0.000014
100
AcDbLine
 10
8.393476
 20
3.449878
 30
0.0
 11
8.393969
 21
3.449578
 31
0.0
210
0.0
220
0.0
230
1.0
  0
ELLIPSE
  5
3E2
100
AcDbEntity
  8
0
370
    35
390
0
 62
     7
 48
0.03937
100
AcDbEllipse
 10
8.43168
 20
6.69495
 30
0.0
 11
-0.1441627366293996
 21
-0.0005633918840714
 31
0.0
210
0.0
220
0.0
230
1.0
 40
0.364583
 41
3.1415925986854489
 42
6.283185252275242
  0
ELLIPSE
  5
3E3
100
AcDbEntity
  8
0
370
    35
390
0
 62
     7
 48
0.03937
100
AcDbEllipse
 10
8.43168
 20
6.69495
 30
0.0
 11
-0.1441627366293996
 21
-0.0005633918840714
 31
0.0
210
0.0
220
0.0
230
1.0
 40
0.364583
 41
1.7132066253837288
 42
3.1415925986854489
  0
ELLIPSE
  5
3E4
100
AcDbEntity
  8
0
370
    35
390
0
 62
     7
 48
0.03937
100
AcDbEllipse
 10
8.43168
 20
6.69495
 30
0.0
 11
-0.1441627366293996
 21
-0.0005633918840714
 31
0.0
210
0.0
220
0.0
230
1.0
 40
0.364583
 41
6.283185252275242
 42
7.9963919325633137
  0
LINE
  5
3E5
100
AcDbEntity
  8
0
370
    35
390
0
 62
     7
 48
0.004989
100
AcDbLine
 10
9.331446
 20
3.6986
 30
0.0
 11
9.332226
 21
3.49903
 31
0.0
210
0.0
220
0.0
230
1.0
  0
LINE
  5
3E6
100
AcDbEntity
  8
0
370
    35
390
0
 62
     7
 48
0.004989
100
AcDbLine
 10
7.555361
 20
3.691661
 30
0.0
 11
7.556141
 21
3.492091
 31
0.0
210
0.0
220
0.0
230
1.0
  0
LINE
  5
3E7
100
AcDbEntity
  8
0
370
    35
390
0
 62
     7
 48
0.000171
100
AcDbLine
 10
8.184487
 20
3.61693
 30
0.0
 11
8.17812
 21
3.619417
 31
0.0
210
0.0
220
0.0
230
1.0
  0
LINE
  5
3E8
100
AcDbEntity
  8
0
370
    35
390
0
 62
     7
 48
0.000171
100
AcDbLine
 10
8.702915
 20
3.618952
 30
0.0
 11
8.709262
 21
3.621489
 31
0.0
210
0.0
220
0.0
230
1.0
  0
LINE
  5
3E9
100
AcDbEntity
  8
0
370
    35
390
0
 62
     7
 48
0.006221
100
AcDbLine
 10
8.081006
 20
3.957236
 30
0.0
 11
8.081978
 21
3.708389
 31
0.0
210
0.0
220
0.0
230
1.0
  0
LINE
  5
3EA
100
AcDbEntity
  8
0
370
    35
390
0
 62
     7
 48
0.006221
100
AcDbLine
 10
8.803742
 20
3.960061
 30
0.0
 11
8.804714
 21
3.711212
 31
0.0
210
0.0
220
0.0
230
1.0
  0
LINE
  5
3EB
100
AcDbEntity
  8
0
370
    35
390
0
 62
     7
 48
0.000045
100
AcDbLine
 10
8.226543
 20
3.467057
 30
0.0
 11
8.226536
 21
3.468847
 31
0.0
210
0.0
220
0.0
230
1.0
  0
LINE
  5
3EC
100
AcDbEntity
  8
0
370
    35
390
0
 62
     7
 48
0.000045
100
AcDbLine
 10
8.483998
 20
3.468063
 30
0.0
 11
8.483991
 21
3.469853
 31
0.0
210
0.0
220
0.0
230
1.0
  0
LINE
  5
3ED
100
AcDbEntity
  8
0
370
    35
390
0
 62
     7
 48
0.000045
100
AcDbLine
 10
8.365975
 20
3.520309
 30
0.0
 11
8.365968
 21
3.522099
 31
0.0
210
0.0
220
0.0
230
1.0
  0
LINE
  5
3EE
100
AcDbEntity
  8
0
370
    35
390
0
 62
     7
 48
0.000045
100
AcDbLine
 10
8.38578
 20
3.520386
 30
0.0
 11
8.385773
 21
3.522176
 31
0.0
210
0.0
220
0.0
230
1.0
  0
LINE
  5
3EF
100
AcDbEntity
  8
0
370
    35
390
0
 62
     7
 48
0.000045
100
AcDbLine
 10
8.489963
 20
3.460498
 30
0.0
 11
8.489956
 21
3.462288
 31
0.0
210
0.0
220
0.0
230
1.0
  0
LINE
  5
3F0
100
AcDbEntity
  8
0
370
    35
390
0
 62
     7
 48
0.000045
100
AcDbLine
 10
8.509767
 20
3.460576
 30
0.0
 11
8.50976
 21
3.462366
 31
0.0
210
0.0
220
0.0
230
1.0
  0
LINE
  5
3F1
100
AcDbEntity
  8
0
370
    35
390
0
 62
     7
 48
0.000045
100
AcDbLine
 10
8.462184
 20
3.499882
 30
0.0
 11
8.462177
 21
3.501672
 31
0.0
210
0.0
220
0.0
230
1.0
  0
LINE
  5
3F2
100
AcDbEntity
  8
0
370
    35
390
0
 62
     7
 48
0.000045
100
AcDbLine
 10
8.481988
 20
3.499959
 30
0.0
 11
8.481981
 21
3.501749
 31
0.0
210
0.0
220
0.0
230
1.0
  0
LINE
  5
3F3
100
AcDbEntity
  8
0
370
    35
390
0
 62
     7
 48
0.000045
100
AcDbLine
 10
8.324761
 20
3.414734
 30
0.0
 11
8.324754
 21
3.416524
 31
0.0
210
0.0
220
0.0
230
1.0
  0
LINE
  5
3F4
100
AcDbEntity
  8
0
370
    35
390
0
 62
     7
 48
0.000045
100
AcDbLine
 10
8.344565
 20
3.414811
 30
0.0
 11
8.344558
 21
3.416601
 31
0.0
210
0.0
220
0.0
230
1.0
  0
LINE
  5
3F5
100
AcDbEntity
  8
0
370
    35
390
0
 62
     7
 48
0.000045
100
AcDbLine
 10
8.433041
 20
3.425229
 30
0.0
 11
8.433034
 21
3.427019
 31
0.0
210
0.0
220
0.0
230
1.0
  0
LINE
  5
3F6
100
AcDbEntity
  8
0
370
    35
390
0
 62
     7
 48
0.000045
100
AcDbLine
 10
8.452845
 20
3.425306
 30
0.0
 11
8.452838
 21
3.427096
 31
0.0
210
0.0
220
0.0
230
1.0
  0
LINE
  5
3F7
100
AcDbEntity
  8
0
370
    35
390
0
 62
     7
 48
0.000045
100
AcDbLine
 10
8.220578
 20
3.474622
 30
0.0
 11
8.220571
 21
3.476412
 31
0.0
210
0.0
220
0.0
230
1.0
  0
LINE
  5
3F8
100
AcDbEntity
  8
0
370
    35
390
0
 62
     7
 48
0.000045
100
AcDbLine
 10
8.200773
 20
3.474545
 30
0.0
 11
8.200766
 21
3.476334
 31
0.0
210
0.0
220
0.0
230
1.0
  0
LINE
  5
3F9
100
AcDbEntity
  8
0
370
    35
390
0
 62
     7
 48
0.000045
100
AcDbLine
 10
8.2775
 20
3.509891
 30
0.0
 11
8.277493
 21
3.511681
 31
0.0
210
0.0
220
0.0
230
1.0
  0
LINE
  5
3FA
100
AcDbEntity
  8
0
370
    35
390
0
 62
     7
 48
0.000045
100
AcDbLine
 10
8.257696
 20
3.509814
 30
0.0
 11
8.257689
 21
3.511604
 31
0.0
210
0.0
220
0.0
230
1.0
  0
LINE
  5
3FB
100
AcDbEntity
  8
0
370
    35
390
0
 62
     7
 48
0.000045
100
AcDbLine
 10
8.248357
 20
3.435239
 30
0.0
 11
8.24835
 21
3.437028
 31
0.0
210
0.0
220
0.0
230
1.0
  0
LINE
  5
3FC
100
AcDbEntity
  8
0
370
    35
390
0
 62
     7
 48
0.000045
100
AcDbLine
 10
8.228553
 20
3.435161
 30
0.0
 11
8.228546
 21
3.436951
 31
0.0
210
0.0
220
0.0
230
1.0
  0
LINE
  5
3FD
100
AcDbEntity
  8
0
370
    35
390
0
 62
     7
 48
0.010404
100
AcDbLine
 10
8.176955
 20
3.91976
 30
0.0
 11
7.789309
 21
4.071171
 31
0.0
210
0.0
220
0.0
230
1.0
  0
LINE
  5
3FE
100
AcDbEntity
  8
0
370
    35
390
0
 62
     7
 48
0.010404
100
AcDbLine
 10
8.708088
 20
3.921835
 30
0.0
 11
9.094539
 21
4.076271
 31
0.0
210
0.0
220
0.0
230
1.0
  0
LINE
  5
3FF
100
AcDbEntity
  8
0
370
    35
390
0
 62
     7
 48
0.03937
100
AcDbLine
 10
7.543638
 20
6.691481
 30
0.0
 11
7.553024
 21
4.289825
 31
0.0
210
0.0
220
0.0
230
1.0
  0
LINE
  5
400
100
AcDbEntity
  8
0
370
    35
390
0
 62
     7
 48
0.03937
100
AcDbLine
 10
9.319723
 20
6.698419
 30
0.0
 11
9.329108
 21
4.296763
 31
0.0
210
0.0
220
0.0
230
1.0
  0
LINE
  5
401
100
AcDbEntity
  8
0
370
    13
390
0
  6
DASHDOT
 62
     7
 48
0.03937
100
AcDbLine
 10
3.131141
 20
1.101242
 30
0.0
 11
3.131141
 21
5.224328
 31
0.0
210
0.0
220
0.0
230
1.0
  0
LINE
  5
402
100
AcDbEntity
  8
0
370
    35
390
0
 62
     7
 48
0.005358
100
AcDbLine
 10
4.01919
 20
4.666414
 30
0.0
 11
4.01919
 21
4.880738
 31
0.0
210
0.0
220
0.0
230
1.0
  0
LINE
  5
403
100
AcDbEntity
  8
0
370
    35
390
0
 62
     7
 48
0.002979
100
AcDbLine
 10
3.900015
 20
4.666414
 30
0.0
 11
4.01919
 21
4.666414
 31
0.0
210
0.0
220
0.0
230
1.0
  0
LINE
  5
404
100
AcDbEntity
  8
0
370
    35
390
0
 62
     7
 48
0.005358
100
AcDbLine
 10
3.900015
 20
4.880738
 30
0.0
 11
3.900015
 21
4.666414
 31
0.0
210
0.0
220
0.0
230
1.0
  0
LINE
  5
405
100
AcDbEntity
  8
0
370
    35
390
0
 62
     7
 48
0.002979
100
AcDbLine
 10
3.900015
 20
4.880738
 30
0.0
 11
4.01919
 21
4.880738
 31
0.0
210
0.0
220
0.0
230
1.0
  0
LINE
  5
406
100
AcDbEntity
  8
0
370
    35
390
0
 62
     7
 48
0.003124
100
AcDbLine
 10
3.486745
 20
4.666414
 30
0.0
 11
3.611687
 21
4.666414
 31
0.0
210
0.0
220
0.0
230
1.0
  0
LINE
  5
407
100
AcDbEntity
  8
0
370
    35
390
0
 62
     7
 48
0.003124
100
AcDbLine
 10
2.650595
 20
4.666414
 30
0.0
 11
2.775537
 21
4.666414
 31
0.0
210
0.0
220
0.0
230
1.0
  0
LINE
  5
408
100
AcDbEntity
  8
0
370
    35
390
0
 62
     7
 48
0.006767
100
AcDbLine
 10
2.650595
 20
4.666414
 30
0.0
 11
2.379915
 21
4.666414
 31
0.0
210
0.0
220
0.0
230
1.0
  0
LINE
  5
409
100
AcDbEntity
  8
0
370
    35
390
0
 62
     7
 48
0.000441
100
AcDbLine
 10
2.379915
 20
4.666414
 30
0.0
 11
2.362267
 21
4.666414
 31
0.0
210
0.0
220
0.0
230
1.0
  0
LINE
  5
40A
100
AcDbEntity
  8
0
370
    35
390
0
 62
     7
 48
0.002979
100
AcDbLine
 10
2.243092
 20
4.666414
 30
0.0
 11
2.362267
 21
4.666414
 31
0.0
210
0.0
220
0.0
230
1.0
  0
LINE
  5
40B
100
AcDbEntity
  8
0
370
    35
390
0
 62
     7
 48
0.006767
100
AcDbLine
 10
3.900015
 20
4.666414
 30
0.0
 11
3.629335
 21
4.666414
 31
0.0
210
0.0
220
0.0
230
1.0
  0
LINE
  5
40C
100
AcDbEntity
  8
0
370
    35
390
0
 62
     7
 48
0.000441
100
AcDbLine
 10
3.629335
 20
4.666414
 30
0.0
 11
3.611687
 21
4.666414
 31
0.0
210
0.0
220
0.0
230
1.0
  0
LINE
  5
40D
100
AcDbEntity
  8
0
370
    35
390
0
 62
     7
 48
0.006767
100
AcDbLine
 10
2.379915
 20
4.880738
 30
0.0
 11
2.650595
 21
4.880738
 31
0.0
210
0.0
220
0.0
230
1.0
  0
LINE
  5
40E
100
AcDbEntity
  8
0
370
    35
390
0
 62
     7
 48
0.000441
100
AcDbLine
 10
2.362267
 20
4.880738
 30
0.0
 11
2.379915
 21
4.880738
 31
0.0
210
0.0
220
0.0
230
1.0
  0
LINE
  5
40F
100
AcDbEntity
  8
0
370
    35
390
0
 62
     7
 48
0.002979
100
AcDbLine
 10
2.243092
 20
4.880738
 30
0.0
 11
2.362267
 21
4.880738
 31
0.0
210
0.0
220
0.0
230
1.0
  0
LINE
  5
410
100
AcDbEntity
  8
0
370
    35
390
0
 62
     7
 48
0.006767
100
AcDbLine
 10
3.629335
 20
4.880738
 30
0.0
 11
3.900015
 21
4.880738
 31
0.0
210
0.0
220
0.0
230
1.0
  0
LINE
  5
411
100
AcDbEntity
  8
0
370
    35
390
0
 62
     7
 48
0.000441
100
AcDbLine
 10
3.611687
 20
4.880738
 30
0.0
 11
3.629335
 21
4.880738
 31
0.0
210
0.0
220
0.0
230
1.0
  0
LINE
  5
412
100
AcDbEntity
  8
0
370
    35
390
0
 62
     7
 48
0.00841
100
AcDbLine
 10
3.275305
 20
4.880738
 30
0.0
 11
3.611687
 21
4.880738
 31
0.0
210
0.0
220
0.0
230
1.0
  0
LINE
  5
413
100
AcDbEntity
  8
0
370
    35
390
0
 62
     7
 48
0.005332
100
AcDbLine
 10
3.062025
 20
4.880738
 30
0.0
 11
3.275305
 21
4.880738
 31
0.0
210
0.0
220
0.0
230
1.0
  0
LINE
  5
414
100
AcDbEntity
  8
0
370
    35
390
0
 62
     7
 48
0.001876
100
AcDbLine
 10
2.986977
 20
4.880738
 30
0.0
 11
3.062025
 21
4.880738
 31
0.0
210
0.0
220
0.0
230
1.0
  0
LINE
  5
415
100
AcDbEntity
  8
0
370
    35
390
0
 62
     7
 48
0.00841
100
AcDbLine
 10
2.650595
 20
4.880738
 30
0.0
 11
2.986977
 21
4.880738
 31
0.0
210
0.0
220
0.0
230
1.0
  0
LINE
  5
416
100
AcDbEntity
  8
0
370
    35
390
0
 62
     7
 48
0.005358
100
AcDbLine
 10
3.611687
 20
4.880738
 30
0.0
 11
3.611687
 21
4.666414
 31
0.0
210
0.0
220
0.0
230
1.0
  0
LINE
  5
417
100
AcDbEntity
  8
0
370
    35
390
0
 62
     7
 48
0.005358
100
AcDbLine
 10
2.243092
 20
4.666414
 30
0.0
 11
2.243092
 21
4.880738
 31
0.0
210
0.0
220
0.0
230
1.0
  0
LINE
  5
418
100
AcDbEntity
  8
0
370
    35
390
0
 62
     7
 48
0.005358
100
AcDbLine
 10
2.362267
 20
4.880738
 30
0.0
 11
2.362267
 21
4.666414
 31
0.0
210
0.0
220
0.0
230
1.0
  0
LINE
  5
419
100
AcDbEntity
  8
0
370
    35
390
0
 62
     7
 48
0.005358
100
AcDbLine
 10
2.650595
 20
4.880738
 30
0.0
 11
2.650595
 21
4.666414
 31
0.0
210
0.0
220
0.0
230
1.0
  0
POLYLINE
  5
41A
100
AcDbEntity
  8
0
370
    35
390
0
 62
     7
 48
0.03937
100
AcDb2dPolyline
 66
     1
 10
0.0
 20
0.0
 30
0.0
 71
     2
  0
VERTEX
  5
41B
100
AcDbEntity
  8
0
370
     0
390
0
100
AcDbVertex
100
AcDb2dVertex
 10
2.77842
 20
4.655653
 30
0.0
 42
0.767327
  0
VERTEX
  5
41C
100
AcDbEntity
  8
0
370
     0
390
0
100
AcDbVertex
100
AcDb2dVertex
 10
2.775537
 20
4.666414
 30
0.0
  0
SEQEND
  5
41D
100
AcDbEntity
  8
0
370
     0
390
0
  0
POLYLINE
  5
41E
100
AcDbEntity
  8
0
370
    35
390
0
 62
     7
 48
0.03937
100
AcDb2dPolyline
 66
     1
 10
0.0
 20
0.0
 30
0.0
 71
     2
  0
VERTEX
  5
41F
100
AcDbEntity
  8
0
370
     0
390
0
100
AcDbVertex
100
AcDb2dVertex
 10
3.486745
 20
4.666414
 30
0.0
 42
0.767327
  0
VERTEX
  5
420
100
AcDbEntity
  8
0
370
     0
390
0
100
AcDbVertex
100
AcDb2dVertex
 10
3.483862
 20
4.655653
 30
0.0
  0
SEQEND
  5
421
100
AcDbEntity
  8
0
370
     0
390
0
  0
LINE
  5
422
100
AcDbEntity
  8
0
370
    35
390
0
 62
     7
 48
0.03937
100
AcDbLine
 10
3.275305
 20
1.444833
 30
0.0
 11
3.275305
 21
4.880738
 31
0.0
210
0.0
220
0.0
230
1.0
  0
LINE
  5
423
100
AcDbEntity
  8
0
370
    35
390
0
 62
     7
 48
0.005332
100
AcDbLine
 10
3.275305
 20
1.444833
 30
0.0
 11
3.062025
 21
1.444833
 31
0.0
210
0.0
220
0.0
230
1.0
  0
LINE
  5
424
100
AcDbEntity
  8
0
370
    35
390
0
 62
     7
 48
0.03937
100
AcDbLine
 10
2.986977
 20
1.444833
 30
0.0
 11
2.986977
 21
4.880738
 31
0.0
210
0.0
220
0.0
230
1.0
  0
LINE
  5
425
100
AcDbEntity
  8
0
370
    35
390
0
 62
     7
 48
0.001876
100
AcDbLine
 10
3.062025
 20
1.444833
 30
0.0
 11
2.986977
 21
1.444833
 31
0.0
210
0.0
220
0.0
230
1.0
  0
LINE
  5
426
100
AcDbEntity
  8
0
370
    35
390
0
 62
     7
 48
0.00025
100
AcDbLine
 10
2.77842
 20
4.655653
 30
0.0
 11
2.76977
 21
4.650659
 31
0.0
210
0.0
220
0.0
230
1.0
  0
LINE
  5
427
100
AcDbEntity
  8
0
370
    35
390
0
 62
     7
 48
0.00025
100
AcDbLine
 10
3.483862
 20
4.655653
 30
0.0
 11
3.492512
 21
4.650659
 31
0.0
210
0.0
220
0.0
230
1.0
  0
LINE
  5
428
100
AcDbEntity
  8
0
370
    35
390
0
 62
     7
 48
0.018597
100
AcDbLine
 10
3.275305
 20
1.444833
 30
0.0
 11
4.01919
 21
1.444833
 31
0.0
210
0.0
220
0.0
230
1.0
  0
LINE
  5
429
100
AcDbEntity
  8
0
370
    35
390
0
 62
     7
 48
0.018597
100
AcDbLine
 10
2.243092
 20
1.444833
 30
0.0
 11
2.986977
 21
1.444833
 31
0.0
210
0.0
220
0.0
230
1.0
  0
LINE
  5
42A
100
AcDbEntity
  8
0
370
    35
390
0
 62
     7
 48
0.008064
100
AcDbLine
 10
2.76977
 20
4.32811
 30
0.0
 11
2.76977
 21
4.650659
 31
0.0
210
0.0
220
0.0
230
1.0
  0
LINE
  5
42B
100
AcDbEntity
  8
0
370
    35
390
0
 62
     7
 48
0.008064
100
AcDbLine
 10
3.492512
 20
4.32811
 30
0.0
 11
3.492512
 21
4.650659
 31
0.0
210
0.0
220
0.0
230
1.0
  0
LINE
  5
42C
100
AcDbEntity
  8
0
370
    35
390
0
 62
     7
 48
0.03937
100
AcDbLine
 10
4.01919
 20
1.444833
 30
0.0
 11
4.01919
 21
4.024032
 31
0.0
210
0.0
220
0.0
230
1.0
  0
LINE
  5
42D
100
AcDbEntity
  8
0
370
    35
390
0
 62
     7
 48
0.03937
100
AcDbLine
 10
2.243092
 20
1.444833
 30
0.0
 11
2.243092
 21
4.024032
 31
0.0
210
0.0
220
0.0
230
1.0
  0
LINE
  5
42E
100
AcDbEntity
  8
0
370
    35
390
0
 62
     7
 48
0.015204
100
AcDbLine
 10
2.76977
 20
4.32811
 30
0.0
 11
2.243092
 21
4.024032
 31
0.0
210
0.0
220
0.0
230
1.0
  0
LINE
  5
42F
100
AcDbEntity
  8
0
370
    35
390
0
 62
     7
 48
0.015204
100
AcDbLine
 10
3.492512
 20
4.32811
 30
0.0
 11
4.01919
 21
4.024032
 31
0.0
210
0.0
220
0.0
230
1.0
  0
INSERT
  5
67F
100
AcDbEntity
  8
0
370
     0
390
0
100
AcDbBlockReference
  2
BLOCK1
 10
0.0
 20
0.0
 30
0.0
210
0.0
220
0.0
230
1.0
  0
INSERT
  5
680
100
AcDbEntity
  8
0
370
     0
390
0
100
AcDbBlockReference
  2
BLOCK2
 10
0.0
 20
0.0
 30
0.0
210
0.0
220
0.0
230
1.0
  0
INSERT
  5
681
100
AcDbEntity
  8
0
370
     0
390
0
100
AcDbBlockReference
  2
BLOCK3
 10
0.0
 20
0.0
 30
0.0
210
0.0
220
0.0
230
1.0
  0
INSERT
  5
682
100
AcDbEntity
  8
0
370
     0
390
0
100
AcDbBlockReference
  2
BLOCK4
 10
0.0
 20
0.0
 30
0.0
210
0.0
220
0.0
230
1.0
  0
INSERT
  5
683
100
AcDbEntity
  8
0
370
     0
390
0
100
AcDbBlockReference
  2
BLOCK5
 10
0.0
 20
0.0
 30
0.0
210
0.0
220
0.0
230
1.0
  0
INSERT
  5
684
100
AcDbEntity
  8
0
370
     0
390
0
100
AcDbBlockReference
  2
BLOCK6
 10
0.0
 20
0.0
 30
0.0
210
0.0
220
0.0
230
1.0
  0
INSERT
  5
685
100
AcDbEntity
  8
0
370
     0
390
0
100
AcDbBlockReference
  2
BLOCK7
 10
3.131141
 20
6.835168
 30
0.0
 41
0.384437
 42
0.384437
 43
0.384437
210
0.0
220
0.0
230
1.0
  0
INSERT
  5
686
100
AcDbEntity
  8
0
370
     0
390
0
100
AcDbBlockReference
  2
BLOCK8
 10
3.131141
 20
6.835168
 30
0.0
 41
0.384437
 42
0.384437
 43
0.384437
210
0.0
220
0.0
230
1.0
  0
INSERT
  5
687
100
AcDbEntity
  8
0
370
     0
390
0
100
AcDbBlockReference
  2
BLOCK9
 10
3.131141
 20
6.835168
 30
0.0
 41
0.384437
 42
0.384437
 43
0.384437
210
0.0
220
0.0
230
1.0
  0
INSERT
  5
688
100
AcDbEntity
  8
0
370
     0
390
0
100
AcDbBlockReference
  2
BLOCK10
 10
3.131141
 20
6.835168
 30
0.0
 41
0.384437
 42
0.384437
 43
0.384437
210
0.0
220
0.0
230
1.0
  0
INSERT
  5
689
100
AcDbEntity
  8
0
370
     0
390
0
100
AcDbBlockReference
  2
BLOCK11
 10
3.131141
 20
6.835168
 30
0.0
 41
0.384437
 42
0.384437
 43
0.384437
210
0.0
220
0.0
230
1.0
  0
INSERT
  5
68A
100
AcDbEntity
  8
0
370
     0
390
0
100
AcDbBlockReference
  2
BLOCK12
 10
3.131141
 20
6.835168
 30
0.0
 41
0.384437
 42
0.384437
 43
0.384437
210
0.0
220
0.0
230
1.0
  0
INSERT
  5
68B
100
AcDbEntity
  8
0
370
     0
390
0
100
AcDbBlockReference
  2
BLOCK13
 10
3.131141
 20
6.835168
 30
0.0
 41
0.384437
 42
0.384437
 43
0.384437
210
0.0
220
0.0
230
1.0
  0
INSERT
  5
68C
100
AcDbEntity
  8
0
370
     0
390
0
100
AcDbBlockReference
  2
BLOCK14
 10
3.131141
 20
6.835168
 30
0.0
 41
0.384437
 42
0.384437
 43
0.384437
210
0.0
220
0.0
230
1.0
  0
INSERT
  5
68D
100
AcDbEntity
  8
0
370
     0
390
0
100
AcDbBlockReference
  2
BLOCK15
 10
3.131141
 20
4.880738
 30
0.0
 41
0.384437
 42
0.384437
 43
0.384437
210
0.0
220
0.0
230
1.0
  0
INSERT
  5
68E
100
AcDbEntity
  8
0
370
     0
390
0
100
AcDbBlockReference
  2
BLOCK16
 10
3.131141
 20
4.880738
 30
0.0
 41
0.384437
 42
0.384437
 43
0.384437
210
0.0
220
0.0
230
1.0
  0
INSERT
  5
68F
100
AcDbEntity
  8
0
370
     0
390
0
100
AcDbBlockReference
  2
BLOCK17
 10
3.131141
 20
4.880738
 30
0.0
 41
0.384437
 42
0.384437
 43
0.384437
210
0.0
220
0.0
230
1.0
  0
INSERT
  5
690
100
AcDbEntity
  8
0
370
     0
390
0
100
AcDbBlockReference
  2
BLOCK18
 10
3.131141
 20
4.880738
 30
0.0
 41
0.384437
 42
0.384437
 43
0.384437
210
0.0
220
0.0
230
1.0
  0
INSERT
  5
691
100
AcDbEntity
  8
0
370
     0
390
0
100
AcDbBlockReference
  2
BLOCK19
 10
3.131141
 20
4.880738
 30
0.0
 41
0.384437
 42
0.384437
 43
0.384437
210
0.0
220
0.0
230
1.0
  0
INSERT
  5
692
100
AcDbEntity
  8
0
370
     0
390
0
100
AcDbBlockReference
  2
BLOCK20
 10
3.131141
 20
4.880738
 30
0.0
 41
0.384437
 42
0.384437
 43
0.384437
210
0.0
220
0.0
230
1.0
  0
INSERT
  5
693
100
AcDbEntity
  8
0
370
     0
390
0
100
AcDbBlockReference
  2
BLOCK21
 10
3.131141
 20
4.880738
 30
0.0
 41
0.384437
 42
0.384437
 43
0.384437
210
0.0
220
0.0
230
1.0
  0
INSERT
  5
694
100
AcDbEntity
  8
0
370
     0
390
0
100
AcDbBlockReference
  2
BLOCK22
 10
3.131141
 20
4.880738
 30
0.0
 41
0.384437
 42
0.384437
 43
0.384437
210
0.0
220
0.0
230
1.0
  0
INSERT
  5
695
100
AcDbEntity
  8
0
370
     0
390
0
100
AcDbBlockReference
  2
BLOCK23
 10
3.131141
 20
4.880738
 30
0.0
 41
0.384437
 42
0.384437
 43
0.384437
210
0.0
220
0.0
230
1.0
  0
INSERT
  5
696
100
AcDbEntity
  8
0
370
     0
390
0
100
AcDbBlockReference
  2
BLOCK24
 10
3.131141
 20
4.880738
 30
0.0
 41
0.384437
 42
0.384437
 43
0.384437
210
0.0
220
0.0
230
1.0
  0
ENDSEC
  0
SECTION
  2
OBJECTS
  0
DICTIONARY
  5
19
100
AcDbDictionary
280
     0
281
     1
  3
ACAD_GROUP
350
1A
  3
ACAD_MLINESTYLE
350
1B
  3
ACAD_LAYOUT
350
1E
  3
ACAD_PLOTSETTINGS
350
22
  3
ACAD_PLOTSTYLENAME
350
1F
  3
ACAD_WIPEOUT_VARS
350
23
  0
DICTIONARY
  5
1A
102
{ACAD_REACTORS
330
19
102
}
100
AcDbDictionary
280
     0
281
     1
  0
DICTIONARY
  5
1B
102
{ACAD_REACTORS
330
19
102
}
100
AcDbDictionary
280
     0
281
     1
  3
Standard
350
1C
  0
MLINESTYLE
  5
1C
102
{ACAD_REACTORS
330
1B
102
}
100
AcDbMlineStyle
  2
Standard
 70
     0
  3

 62
     0
 51
90.0
 52
90.0
 71
     2
 49
0.5
 62
   256
  6
ByLayer
 49
-0.5
 62
   256
  6
ByLayer
  0
ACDBDICTIONARYWDFLT
  5
1F
102
{ACAD_REACTORS
330
19
102
}
100
AcDbDictionary
281
     1
  3
Normal
350
1D
100
AcDbDictionaryWithDefault
340
1D
  0
ACDBPLACEHOLDER
  5
1D
102
{ACAD_REACTORS
330
1F
102
}
  0
LAYOUT
  5
20
102
{ACAD_REACTORS
330
1E
102
}
100
AcDbPlotSettings
  1

  2

  4

  6

 40
0.0
 41
0.0
 42
0.0
 43
0.0
 44
0.0
 45
0.0
 46
0.0
 47
0.0
 48
0.0
 49
0.0
140
0.0
141
0.0
142
1.0
143
1.0
 70
  1024
 72
     0
 73
     0
 74
     0
  7

 75
     0
147
1.0
148
0.0
149
0.0
100
AcDbLayout
  1
Model
 70
     0
 71
     0
 10
0.0
 20
0.0
 11
0.0
 21
0.0
 12
0.0
 22
0.0
 32
0.0
 14
0.0
 24
0.0
 34
0.0
 15
0.0
 25
0.0
 35
0.0
146
0.0
 13
0.0
 23
0.0
 33
0.0
 16
0.0
 26
0.0
 36
0.0
 17
0.0
 27
0.0
 37
0.0
 76
     0
330
A
331
0
345
0
346
0
  0
LAYOUT
  5
21
102
{ACAD_REACTORS
330
1E
102
}
100
AcDbPlotSettings
  1

  2

  4

  6

 40
0.0
 41
0.0
 42
0.0
 43
0.0
 44
0.0
 45
0.0
 46
0.0
 47
0.0
 48
0.0
 49
0.0
140
0.0
141
0.0
142
1.0
143
1.0
 70
     0
 72
     0
 73
     0
 74
     0
  7

 75
     0
147
1.0
148
0.0
149
0.0
100
AcDbLayout
  1
Layout1
 70
     0
 71
     0
 10
0.0
 20
0.0
 11
0.0
 21
0.0
 12
0.0
 22
0.0
 32
0.0
 14
0.0
 24
0.0
 34
0.0
 15
0.0
 25
0.0
 35
0.0
146
0.0
 13
0.0
 23
0.0
 33
0.0
 16
0.0
 26
0.0
 36
0.0
 17
0.0
 27
0.0
 37
0.0
 76
     0
330
B
331
0
345
0
346
0
  0
DICTIONARY
  5
1E
102
{ACAD_REACTORS
330
19
102
}
100
AcDbDictionary
280
     0
281
     1
  3
Layout1
350
21
  3
Model
350
20
  0
DICTIONARY
  5
22
102
{ACAD_REACTORS
330
19
102
}
100
AcDbDictionary
280
     0
281
     1
  0
WIPEOUTVARIABLES
  5
23
100
AcDbWipeoutVariables
 70
     1
  0
ENDSEC
  0
EOF
