  0
SECTION
  2
HEADER
  9
$ACADVER
  1
AC1015
  9
$ACADMAINTVER
 70
     6
  9
$DWGCODEPAGE
  3
ANSI_1252
  9
$INSBASE
 10
0.0
 20
0.0
 30
0.0
  9
$EXTMIN
 10
0.0
 20
0.0
 30
0.0
  9
$EXTMAX
 10
164.391205
 20
1.616997
 30
2.0
  9
$LIMMIN
 10
0.0
 20
0.0
  9
$LIMMAX
 10
17.0
 20
11.0
  9
$ORTHOMODE
 70
     0
  9
$REGENMODE
 70
     1
  9
$FILLMODE
 70
     1
  9
$QTEXTMODE
 70
     0
  9
$MIRRTEXT
 70
     1
  9
$LTSCALE
 40
1.0
  9
$ATTMODE
 70
     1
  9
$TEXTSIZE
 40
0.2
  9
$TRACEWID
 40
0.05
  9
$TEXTSTYLE
  7
STANDARD
  9
$CLAYER
  8
0
  9
$CELTYPE
  6
ByLayer
  9
$CECOLOR
 62
   256
  9
$CELTSCALE
 40
1.0
  9
$DISPSILH
 70
     0
  9
$DIMSCALE
 40
1.0
  9
$DIMASZ
 40
0.18
  9
$DIMEXO
 40
0.0625
  9
$DIMDLI
 40
0.38
  9
$DIMRND
 40
0.0
  9
$DIMDLE
 40
0.0
  9
$DIMEXE
 40
0.18
  9
$DIMTP
 40
0.0
  9
$DIMTM
 40
0.0
  9
$DIMTXT
 40
0.18
  9
$DIMCEN
 40
0.09
  9
$DIMTSZ
 40
0.0
  9
$DIMTOL
 70
     0
  9
$DIMLIM
 70
     0
  9
$DIMTIH
 70
     1
  9
$DIMTOH
 70
     1
  9
$DIMSE1
 70
     0
  9
$DIMSE2
 70
     0
  9
$DIMTAD
 70
     0
  9
$DIMZIN
 70
     0
  9
$DIMBLK
  1

  9
$DIMASO
 70
     1
  9
$DIMSHO
 70
     1
  9
$DIMPOST
  1

  9
$DIMAPOST
  1

  9
$DIMALT
 70
     0
  9
$DIMALTD
 70
     2
  9
$DIMALTF
 40
25.4
  9
$DIMLFAC
 40
1.0
  9
$DIMTOFL
 70
     0
  9
$DIMTVP
 40
0.0
  9
$DIMTIX
 70
     0
  9
$DIMSOXD
 70
     0
  9
$DIMSAH
 70
     0
  9
$DIMBLK1
  1

  9
$DIMBLK2
  1

  9
$DIMSTYLE
  2
STANDARD
  9
$DIMCLRD
 70
     0
  9
$DIMCLRE
 70
     0
  9
$DIMCLRT
 70
     0
  9
$DIMTFAC
 40
1.0
  9
$DIMGAP
 40
0.09
  9
$DIMJUST
 70
     0
  9
$DIMSD1
 70
     0
  9
$DIMSD2
 70
     0
  9
$DIMTOLJ
 70
     1
  9
$DIMTZIN
 70
     0
  9
$DIMALTZ
 70
     0
  9
$DIMALTTZ
 70
     0
  9
$DIMUPT
 70
     0
  9
$DIMDEC
 70
     4
  9
$DIMTDEC
 70
     4
  9
$DIMALTU
 70
     2
  9
$DIMALTTD
 70
     2
  9
$DIMTXSTY
  7
STANDARD
  9
$DIMAUNIT
 70
     0
  9
$DIMADEC
 70
     0
  9
$DIMALTRND
 40
0.0
  9
$DIMAZIN
 70
     0
  9
$DIMDSEP
 70
    46
  9
$DIMATFIT
 70
     0
  9
$DIMFRAC
 70
     0
  9
$DIMLDRBLK
  1

  9
$DIMLUNIT
 70
     2
  9
$DIMLWD
 70
    -2
  9
$DIMLWE
 70
    -2
  9
$DIMTMOVE
 70
     0
  9
$LUNITS
 70
     2
  9
$LUPREC
 70
     4
  9
$SKETCHINC
 40
0.1
  9
$FILLETRAD
 40
0.125
  9
$AUNITS
 70
     0
  9
$AUPREC
 70
     0
  9
$MENU
  1
.
  9
$ELEVATION
 40
0.0
  9
$PELEVATION
 40
0.0
  9
$THICKNESS
 40
0.0
  9
$LIMCHECK
 70
     0
  9
$CHAMFERA
 40
0.125
  9
$CHAMFERB
 40
0.125
  9
$CHAMFERC
 40
0.0
  9
$CHAMFERD
 40
0.0
  9
$SKPOLY
 70
     0
  9
$TDCREATE
 40
0.000000000
  9
$TDUCREATE
 40
0.000000000
  9
$TDUPDATE
 40
0.000000000
  9
$TDUUPDATE
 40
0.000000000
  9
$TDINDWG
 40
0.0000000000
  9
$TDUSRTIMER
 40
0.0000000000
  9
$USRTIMER
 70
     1
  9
$ANGBASE
 50
0.0
  9
$ANGDIR
 70
     0
  9
$PDMODE
 70
     0
  9
$PDSIZE
 40
0.0
  9
$PLINEWID
 40
0.0
  9
$SPLFRAME
 70
     0
  9
$SPLINETYPE
 70
     6
  9
$SPLINESEGS
 70
     8
  9
$HANDSEED
  5
589
  9
$SURFTAB1
 70
     6
  9
$SURFTAB2
 70
     6
  9
$SURFTYPE
 70
     6
  9
$SURFU
 70
     6
  9
$SURFV
 70
     6
  9
$UCSBASE
  2

  9
$UCSNAME
  2

  9
$UCSORG
 10
0.0
 20
0.0
 30
0.0
  9
$UCSXDIR
 10
1.0
 20
0.0
 30
0.0
  9
$UCSYDIR
 10
0.0
 20
1.0
 30
0.0
  9
$UCSORTHOREF
  2

  9
$UCSORTHOVIEW
 70
     1
  9
$UCSORGTOP
 10
0.0
 20
0.0
 30
0.0
  9
$UCSORGBOTTOM
 10
0.0
 20
0.0
 30
0.0
  9
$UCSORGLEFT
 10
0.0
 20
0.0
 30
0.0
  9
$UCSORGRIGHT
 10
0.0
 20
0.0
 30
0.0
  9
$UCSORGFRONT
 10
0.0
 20
0.0
 30
0.0
  9
$UCSORGBACK
 10
0.0
 20
0.0
 30
0.0
  9
$PUCSBASE
  2

  9
$PUCSNAME
  2

  9
$PUCSORG
 10
0.0
 20
0.0
 30
0.0
  9
$PUCSXDIR
 10
1.0
 20
0.0
 30
0.0
  9
$PUCSYDIR
 10
0.0
 20
1.0
 30
0.0
  9
$PUCSORTHOREF
  2

  9
$PUCSORTHOVIEW
 70
     0
  9
$PUCSORGTOP
 10
0.0
 20
0.0
 30
0.0
  9
$PUCSORGBOTTOM
 10
0.0
 20
0.0
 30
0.0
  9
$PUCSORGLEFT
 10
0.0
 20
0.0
 30
0.0
  9
$PUCSORGRIGHT
 10
0.0
 20
0.0
 30
0.0
  9
$PUCSORGFRONT
 10
0.0
 20
0.0
 30
0.0
  9
$PUCSORGBACK
 10
0.0
 20
0.0
 30
0.0
  9
$USERI1
 70
     0
  9
$USERI2
 70
     0
  9
$USERI3
 70
     0
  9
$USERI4
 70
     0
  9
$USERI5
 70
     0
  9
$USERR1
 40
0.0
  9
$USERR2
 40
0.0
  9
$USERR3
 40
0.0
  9
$USERR4
 40
0.0
  9
$USERR5
 40
0.0
  9
$WORLDVIEW
 70
     1
  9
$SHADEDGE
 70
     3
  9
$SHADEDIF
 70
    70
  9
$TILEMODE
 70
     1
  9
$MAXACTVP
 70
    48
  9
$PINSBASE
 10
0.0
 20
0.0
 30
0.0
  9
$PLIMCHECK
 70
     0
  9
$PEXTMIN
 10
0.0
 20
0.0
 30
0.0
  9
$PEXTMAX
 10
164.391205
 20
1.616997
 30
2.0
  9
$PLIMMIN
 10
0.0
 20
0.0
  9
$PLIMMAX
 10
12.0
 20
9.0
  9
$UNITMODE
 70
     0
  9
$VISRETAIN
 70
     0
  9
$PLINEGEN
 70
     0
  9
$PSLTSCALE
 70
     1
  9
$TREEDEPTH
 70
  3020
  9
$CMLSTYLE
  2
Standard
  9
$CMLJUST
 70
     0
  9
$CMLSCALE
 40
1.0
  9
$PROXYGRAPHICS
 70
     1
  9
$MEASUREMENT
 70
     0
  9
$CELWEIGHT
370
    -1
  9
$ENDCAPS
280
     0
  9
$JOINSTYLE
280
     0
  9
$LWDISPLAY
290
     0
  9
$INSUNITS
 70
     0
  9
$HYPERLINKBASE
  1

  9
$STYLESHEET
  1

  9
$XEDIT
290
     1
  9
$CEPSNTYPE
380
     0
  9
$PSTYLEMODE
290
     0
  9
$FINGERPRINTGUID
  2

  9
$VERSIONGUID
  2

  9
$EXTNAMES
290
     0
  9
$PSVPSCALE
 40
0.0
  0
ENDSEC
  0
SECTION
  2
CLASSES
  0
CLASS
  1
LWPOLYLINE
  2
AcDbPolyline
  3
AutoCAD 2000
 90
        0
280
     0
281
     1
  0
CLASS
  1
IMAGE
  2
AcDbRasterImage
  3
ISM
 90
      127
280
     0
281
     1
  0
CLASS
  1
OLE2FRAME
  2
AcDbOle2Frame
  3
AutoCAD 2000
 90
        0
280
     0
281
     1
  0
CLASS
  1
HATCH
  2
AcDbHatch
  3
AutoCAD 2000
 90
        0
280
     0
281
     1
  0
CLASS
  1
DICTIONARYVAR
  2
AcDbDictionaryVar
  3
AutoCAD 2000
 90
        0
280
     0
281
     0
  0
CLASS
  1
RASTERVARIABLES
  2
AcDbRasterVariables
  3
ISM
 90
        0
280
     0
281
     0
  0
CLASS
  1
IMAGEDEF
  2
AcDbRasterImageDef
  3
ISM
 90
        0
280
     0
281
     0
  0
CLASS
  1
IMAGEDEF_REACTOR
  2
AcDbRasterImageDefReactor
  3
ISM
 90
        1
280
     0
281
     0
  0
CLASS
  1
IDBUFFER
  2
AcDbIdBuffer
  3
AutoCAD 2000
 90
        0
280
     0
281
     0
  0
CLASS
  1
SPATIAL_FILTER
  2
AcDbSpatialFilter
  3
AutoCAD 2000
 90
        0
280
     0
281
     0
  0
CLASS
  1
XRECORD
  2
AcDbXrecord
  3
AutoCAD 2000
 90
        0
280
     0
281
     0
  0
CLASS
  1
SORTENTSTABLE
  2
AcDbSortentsTable
  3
AutoCAD 2000
 90
        0
280
     0
281
     0
  0
CLASS
  1
LAYER_INDEX
  2
AcDbLayerIndex
  3
AutoCAD 2000
 90
        0
280
     0
281
     0
  0
CLASS
  1
SPATIAL_INDEX
  2
AcDbSpatialIndex
  3
AutoCAD 2000
 90
        0
280
     0
281
     0
  0
CLASS
  1
OBJECT_PTR
  2
CAseDLPNTableRecord
  3
"ASE-LPNTableRecord"
 90
        1
280
     0
281
     0
  0
CLASS
  1
LAYOUT
  2
AcDbLayout
  3
AutoCAD 2000
 90
        0
280
     0
281
     0
  0
CLASS
  1
PLOTSETTINGS
  2
AcDbPlotSettings
  3
AutoCAD 2000
 90
        0
280
     0
281
     0
  0
CLASS
  1
ACDBDICTIONARYWDFLT
  2
AcDbDictionaryWithDefault
  3
AutoCAD 2000
 90
        0
280
     0
281
     0
  0
CLASS
  1
ACDBPLACEHOLDER
  2
AcDbPlaceHolder
  3
AutoCAD 2000
 90
        0
280
     0
281
     0
  0
CLASS
  1
VBA_PROJECT
  2
AcDbVbaProject
  3
acadvba
 90
        0
280
     0
281
     0
  0
CLASS
  1
WIPEOUT
  2
AcDbWipeout
  3
WipeOut|AutoCAD Express Tool|expresstools@autodesk.com
 90
      127
280
     0
281
     1
  0
CLASS
  1
WIPEOUTVARIABLES
  2
AcDbWipeoutVariables
  3
WipeOut|AutoCAD Express Tool|expresstools@autodesk.com
 90
        0
280
     0
281
     0
  0
CLASS
  1
RTEXT
  2
RText
  3
RText|AutoCAD Express Tool|expresstools@autodesk.com
 90
        0
280
     0
281
     1
  0
CLASS
  1
ARCALIGNEDTEXT
  2
AcDbArcAlignedText
  3
ATEXT|AutoCAD Express Tool|expresstools@autodesk.com
 90
        0
280
     0
281
     1
  0
ENDSEC
  0
SECTION
  2
TABLES
  0
TABLE
  2
VPORT
  5
7
100
AcDbSymbolTable
 70
     1
  0
VPORT
  5
15
100
AcDbSymbolTableRecord
100
AcDbViewportTableRecord
  2
*ACTIVE
 70
     0
 10
0.0
 20
0.0
 11
1.0
 21
1.0
 12
6.591288
 22
4.579184
 13
0.0
 23
0.0
 14
1.0
 24
1.0
 15
0.0
 25
0.0
 16
0.0
 26
0.0
 36
1.0
 17
0.0
 27
0.0
 37
0.0
 40
9.158369
 41
0.688564
 42
50.0
 43
0.0
 44
0.0
 50
0.0
 51
0.0
 71
     0
 72
   100
 73
     1
 74
     1
 75
     0
 76
     0
 77
     0
 78
     0
281
     0
 65
     0
110
0.0
120
0.0
130
0.0
111
1.0
121
0.0
131
0.0
112
0.0
122
1.0
132
0.0
345
0
346
0
 79
     0
146
0.0
  0
ENDTAB
  0
TABLE
  2
LTYPE
  5
4
100
AcDbSymbolTable
 70
     4
  0
LTYPE
  5
11
100
AcDbSymbolTableRecord
100
AcDbLinetypeTableRecord
  2
ByBlock
 70
    64
  3

 72
    65
 73
     0
 40
0.0
  0
LTYPE
  5
12
100
AcDbSymbolTableRecord
100
AcDbLinetypeTableRecord
  2
ByLayer
 70
    64
  3

 72
    65
 73
     0
 40
0.0
  0
LTYPE
  5
13
100
AcDbSymbolTableRecord
100
AcDbLinetypeTableRecord
  2
Continuous
 70
    64
  3
Solid line
 72
    65
 73
     0
 40
0.0
  0
LTYPE
  5
24
100
AcDbSymbolTableRecord
100
AcDbLinetypeTableRecord
  2
DASHDOT
 70
     0
  3
 __ . __ . __ . __ . __ . __ . __ . 
 72
    65
 73
     4
 40
18.5
 49
12.0
 74
     0
 49
-3.0
 74
     0
 49
0.5
 74
     0
 49
-3.0
 74
     0
  0
ENDTAB
  0
TABLE
  2
LAYER
  5
2
100
AcDbSymbolTable
 70
     2
  0
LAYER
  5
14
100
AcDbSymbolTableRecord
100
AcDbLayerTableRecord
  2
0
 70
     0
 62
     7
  6
Continuous
290
     1
370
    13
390
1D
  0
LAYER
  5
25
100
AcDbSymbolTableRecord
100
AcDbLayerTableRecord
  2
1
 70
     0
 62
     7
  6
Continuous
290
     1
370
    13
390
1D
  0
ENDTAB
  0
TABLE
  2
STYLE
  5
3
100
AcDbSymbolTable
 70
     2
  0
STYLE
  5
17
100
AcDbSymbolTableRecord
100
AcDbTextStyleTableRecord
  2
STANDARD
 70
     0
 40
0.0
 41
1.0
 50
0.0
 71
     0
 42
0.0
  3
isocp.shx
  4

  0
STYLE
  5
26
100
AcDbSymbolTableRecord
100
AcDbTextStyleTableRecord
  2
GDT
 70
     0
 40
0.0
 41
1.0
 50
0.0
 71
     0
 42
0.0
  3
gdt.shx
  4

  0
ENDTAB
  0
TABLE
  2
VIEW
  5
5
100
AcDbSymbolTable
 70
     0
  0
ENDTAB
  0
TABLE
  2
UCS
  5
6
100
AcDbSymbolTable
 70
     0
  0
ENDTAB
  0
TABLE
  2
APPID
  5
8
100
AcDbSymbolTable
 70
     1
  0
APPID
  5
16
100
AcDbSymbolTableRecord
100
AcDbRegAppTableRecord
  2
ACAD
 70
     0
  0
ENDTAB
  0
TABLE
  2
DIMSTYLE
  5
9
100
AcDbSymbolTable
 70
     1
100
AcDbDimStyleTable
 71
     0
  0
DIMSTYLE
105
18
100
AcDbSymbolTableRecord
100
AcDbDimStyleTableRecord
  2
STANDARD
 70
     0
  3

  4

 40
1.0
 41
0.18
 42
0.0625
 43
0.38
 44
0.18
 45
0.0
 46
0.0
 47
0.0
 48
0.0
 71
     0
 72
     0
 73
     1
 74
     1
 75
     0
 76
     0
 77
     0
 78
     0
 79
     0
140
0.18
141
0.09
142
0.0
143
25.4
144
1.0
145
0.0
146
1.0
147
0.09
148
0.0
170
     0
171
     2
172
     0
173
     0
174
     0
175
     0
176
     0
177
     0
178
     0
179
     0
271
     4
272
     4
273
     2
274
     2
275
     0
276
     0
277
     2
278
    46
279
     0
280
     0
281
     0
282
     0
283
     1
284
     0
285
     0
286
     0
288
     0
289
     0
340
0
341
0
342
0
343
0
344
0
371
    -2
372
    -2
  0
ENDTAB
  0
TABLE
  2
BLOCK_RECORD
  5
1
100
AcDbSymbolTable
 70
    19
  0
BLOCK_RECORD
  5
A
100
AcDbSymbolTableRecord
100
AcDbBlockTableRecord
  2
*MODEL_SPACE
340
20
  0
BLOCK_RECORD
  5
B
100
AcDbSymbolTableRecord
100
AcDbBlockTableRecord
  2
*PAPER_SPACE
340
21
  0
BLOCK_RECORD
  5
3B3
100
AcDbSymbolTableRecord
100
AcDbBlockTableRecord
  2
BLOCK1
340
0
102
{BLKREFS
331
576
102
}
  0
BLOCK_RECORD
  5
3B4
100
AcDbSymbolTableRecord
100
AcDbBlockTableRecord
  2
BLOCK2
340
0
102
{BLKREFS
331
577
102
}
  0
BLOCK_RECORD
  5
3B5
100
AcDbSymbolTableRecord
100
AcDbBlockTableRecord
  2
BLOCK3
340
0
102
{BLKREFS
331
578
102
}
  0
BLOCK_RECORD
  5
3B6
100
AcDbSymbolTableRecord
100
AcDbBlockTableRecord
  2
BLOCK4
340
0
102
{BLKREFS
331
579
102
}
  0
BLOCK_RECORD
  5
3B7
100
AcDbSymbolTableRecord
100
AcDbBlockTableRecord
  2
BLOCK5
340
0
102
{BLKREFS
331
57A
102
}
  0
BLOCK_RECORD
  5
3B8
100
AcDbSymbolTableRecord
100
AcDbBlockTableRecord
  2
BLOCK6
340
0
102
{BLKREFS
331
57B
102
}
  0
BLOCK_RECORD
  5
3B9
100
AcDbSymbolTableRecord
100
AcDbBlockTableRecord
  2
BLOCK7
340
0
102
{BLKREFS
331
57C
102
}
  0
BLOCK_RECORD
  5
3BA
100
AcDbSymbolTableRecord
100
AcDbBlockTableRecord
  2
BLOCK8
340
0
102
{BLKREFS
331
57D
102
}
  0
BLOCK_RECORD
  5
3BB
100
AcDbSymbolTableRecord
100
AcDbBlockTableRecord
  2
BLOCK9
340
0
102
{BLKREFS
331
57E
102
}
  0
BLOCK_RECORD
  5
3BC
100
AcDbSymbolTableRecord
100
AcDbBlockTableRecord
  2
BLOCK10
340
0
102
{BLKREFS
331
57F
102
}
  0
BLOCK_RECORD
  5
3BD
100
AcDbSymbolTableRecord
100
AcDbBlockTableRecord
  2
BLOCK11
340
0
102
{BLKREFS
331
580
102
}
  0
BLOCK_RECORD
  5
3BE
100
AcDbSymbolTableRecord
100
AcDbBlockTableRecord
  2
BLOCK12
340
0
102
{BLKREFS
331
581
102
}
  0
BLOCK_RECORD
  5
3BF
100
AcDbSymbolTableRecord
100
AcDbBlockTableRecord
  2
BLOCK13
340
0
102
{BLKREFS
331
582
102
}
  0
BLOCK_RECORD
  5
3C0
100
AcDbSymbolTableRecord
100
AcDbBlockTableRecord
  2
BLOCK14
340
0
102
{BLKREFS
331
583
102
}
  0
BLOCK_RECORD
  5
3C1
100
AcDbSymbolTableRecord
100
AcDbBlockTableRecord
  2
BLOCK15
340
0
102
{BLKREFS
331
584
102
}
  0
BLOCK_RECORD
  5
3C2
100
AcDbSymbolTableRecord
100
AcDbBlockTableRecord
  2
BLOCK16
340
0
102
{BLKREFS
331
585
102
}
  0
BLOCK_RECORD
  5
3C3
100
AcDbSymbolTableRecord
100
AcDbBlockTableRecord
  2
BLOCK17
340
0
102
{BLKREFS
331
586
102
}
  0
BLOCK_RECORD
  5
3C4
100
AcDbSymbolTableRecord
100
AcDbBlockTableRecord
  2
BLOCK18
340
0
102
{BLKREFS
331
587
102
}
  0
BLOCK_RECORD
  5
3C5
100
AcDbSymbolTableRecord
100
AcDbBlockTableRecord
  2
BLOCK19
340
0
102
{BLKREFS
331
588
102
}
  0
ENDTAB
  0
ENDSEC
  0
SECTION
  2
BLOCKS
  0
BLOCK
  5
D
100
AcDbEntity
  8
0
390
0
100
AcDbBlockBegin
  2
*MODEL_SPACE
 70
     0
 10
0.0
 20
0.0
 30
0.0
  3
*MODEL_SPACE
  1

  0
ENDBLK
  5
E
100
AcDbEntity
  8
0
390
0
100
AcDbBlockEnd
  0
BLOCK
  5
F
100
AcDbEntity
 67
     1
  8
0
390
0
100
AcDbBlockBegin
  2
*PAPER_SPACE
 70
     0
 10
0.0
 20
0.0
 30
0.0
  3
*PAPER_SPACE
  1

  0
ENDBLK
  5
10
100
AcDbEntity
 67
     1
  8
0
390
0
100
AcDbBlockEnd
  0
BLOCK
  5
3C6
100
AcDbEntity
  8
0
370
     0
390
0
100
AcDbBlockBegin
  2
BLOCK1
 70
     0
 10
0.0
 20
0.0
 30
0.0
  3
BLOCK1
  1

  0
TEXT
  5
3C7
100
AcDbEntity
  8
0
370
    13
390
0
 62
     7
 48
0.03937
100
AcDbText
 10
8.690642
 20
1.043156
 30
0.0
 40
0.098425
  1
SIZE 
 72
     5
 11
9.064599
 21
1.043156
 31
0.0
100
AcDbText
  0
TEXT
  5
3C8
100
AcDbEntity
  8
0
370
    13
390
0
 62
     7
 48
0.03937
100
AcDbText
 10
9.066098
 20
1.043156
 30
0.0
 40
0.098425
  1
0.5
 72
     5
 11
9.24689
 21
1.043156
 31
0.0
100
AcDbText
  0
TEXT
  5
3C9
100
AcDbEntity
  8
0
370
    13
390
0
 62
     7
 48
0.03937
100
AcDbText
 10
9.24839
 20
1.043156
 30
0.0
 40
0.098425
  1
 INCH ID
 72
     5
 11
9.879737
 21
1.043156
 31
0.0
100
AcDbText
  0
ENDBLK
  5
3CA
100
AcDbEntity
  8
0
390
0
100
AcDbBlockEnd
  0
BLOCK
  5
3CB
100
AcDbEntity
  8
0
370
     0
390
0
100
AcDbBlockBegin
  2
BLOCK2
 70
     0
 10
0.0
 20
0.0
 30
0.0
  3
BLOCK2
  1

  0
TEXT
  5
3CC
100
AcDbEntity
  8
0
370
    13
390
0
 62
     7
 48
0.03937
100
AcDbText
 10
10.093103
 20
0.689966
 30
0.0
 40
0.06
  1
PO Box 2889
 72
     5
 11
10.730818
 21
0.689966
 31
0.0
100
AcDbText
  0
TEXT
  5
3CD
100
AcDbEntity
  8
0
370
    13
390
0
 62
     7
 48
0.03937
100
AcDbText
 10
9.686702
 20
0.589966
 30
0.0
 40
0.06
  1
Pearland, TX 77588
 72
     5
 11
10.730818
 21
0.589966
 31
0.0
100
AcDbText
  0
TEXT
  5
3CE
100
AcDbEntity
  8
0
370
    13
390
0
 62
     7
 48
0.03937
100
AcDbText
 10
9.802816
 20
0.489966
 30
0.0
 40
0.06
  1
PH: 800-826-3801
 72
     5
 11
10.730818
 21
0.489966
 31
0.0
100
AcDbText
  0
TEXT
  5
3CF
100
AcDbEntity
  8
0
370
    13
390
0
 62
     7
 48
0.03937
100
AcDbText
 10
9.744759
 20
0.389966
 30
0.0
 40
0.06
  1
FAX: 281-484-8730
 72
     5
 11
10.730818
 21
0.389966
 31
0.0
100
AcDbText
  0
TEXT
  5
3D0
100
AcDbEntity
  8
0
370
    13
390
0
 62
     7
 48
0.03937
100
AcDbText
 10
9.628644
 20
0.289966
 30
0.0
 40
0.06
  1
www.texasflange.com
 72
     5
 11
10.730818
 21
0.289966
 31
0.0
100
AcDbText
  0
ENDBLK
  5
3D1
100
AcDbEntity
  8
0
390
0
100
AcDbBlockEnd
  0
BLOCK
  5
3D2
100
AcDbEntity
  8
0
370
     0
390
0
100
AcDbBlockBegin
  2
BLOCK3
 70
     0
 10
0.0
 20
0.0
 30
0.0
  3
BLOCK3
  1

  0
TEXT
  5
3D3
100
AcDbEntity
  8
0
370
    13
390
0
 62
     7
 48
0.03937
100
AcDbText
 10
8.289209
 20
0.587871
 30
0.0
 40
0.2
  1
Texas
 72
     5
 11
9.383692
 21
0.587871
 31
0.0
100
AcDbText
  0
TEXT
  5
3D4
100
AcDbEntity
  8
0
370
    13
390
0
 62
     7
 48
0.03937
100
AcDbText
 10
8.289209
 20
0.327871
 30
0.0
 40
0.2
  1
Flange
 72
     5
 11
9.608945
 21
0.327871
 31
0.0
100
AcDbText
  0
ENDBLK
  5
3D5
100
AcDbEntity
  8
0
390
0
100
AcDbBlockEnd
  0
BLOCK
  5
3D6
100
AcDbEntity
  8
0
370
     0
390
0
100
AcDbBlockBegin
  2
BLOCK4
 70
     0
 10
0.0
 20
0.0
 30
0.0
  3
BLOCK4
  1

  0
LINE
  5
3D7
100
AcDbEntity
  8
0
370
     5
390
0
 62
     7
 48
0.00324
100
AcDbLine
 10
8.029831
 20
0.605292
 30
0.0
 11
7.900255
 21
0.604209
 31
0.0
210
0.0
220
0.0
230
1.0
  0
LINE
  5
3D8
100
AcDbEntity
  8
0
370
     5
390
0
 62
     7
 48
0.000103
100
AcDbLine
 10
7.900255
 20
0.604209
 30
0.0
 11
7.902151
 21
0.600546
 31
0.0
210
0.0
220
0.0
230
1.0
  0
LINE
  5
3D9
100
AcDbEntity
  8
0
370
     5
390
0
 62
     7
 48
0.0001
100
AcDbLine
 10
7.902151
 20
0.600546
 30
0.0
 11
7.903945
 21
0.596951
 31
0.0
210
0.0
220
0.0
230
1.0
  0
LINE
  5
3DA
100
AcDbEntity
  8
0
370
     5
390
0
 62
     7
 48
0.000098
100
AcDbLine
 10
7.903945
 20
0.596951
 30
0.0
 11
7.905638
 21
0.593424
 31
0.0
210
0.0
220
0.0
230
1.0
  0
LINE
  5
3DB
100
AcDbEntity
  8
0
370
     5
390
0
 62
     7
 48
0.000095
100
AcDbLine
 10
7.905638
 20
0.593424
 30
0.0
 11
7.907229
 21
0.589967
 31
0.0
210
0.0
220
0.0
230
1.0
  0
LINE
  5
3DC
100
AcDbEntity
  8
0
370
     5
390
0
 62
     7
 48
0.000093
100
AcDbLine
 10
7.907229
 20
0.589967
 30
0.0
 11
7.908719
 21
0.58658
 31
0.0
210
0.0
220
0.0
230
1.0
  0
LINE
  5
3DD
100
AcDbEntity
  8
0
370
     5
390
0
 62
     7
 48
0.00009
100
AcDbLine
 10
7.908719
 20
0.58658
 30
0.0
 11
7.910106
 21
0.583262
 31
0.0
210
0.0
220
0.0
230
1.0
  0
LINE
  5
3DE
100
AcDbEntity
  8
0
370
     5
390
0
 62
     7
 48
0.000087
100
AcDbLine
 10
7.910106
 20
0.583262
 30
0.0
 11
7.911392
 21
0.580013
 31
0.0
210
0.0
220
0.0
230
1.0
  0
LINE
  5
3DF
100
AcDbEntity
  8
0
370
     5
390
0
 62
     7
 48
0.000085
100
AcDbLine
 10
7.911392
 20
0.580013
 30
0.0
 11
7.912577
 21
0.576833
 31
0.0
210
0.0
220
0.0
230
1.0
  0
LINE
  5
3E0
100
AcDbEntity
  8
0
370
     5
390
0
 62
     7
 48
0.000082
100
AcDbLine
 10
7.912577
 20
0.576833
 30
0.0
 11
7.913659
 21
0.573722
 31
0.0
210
0.0
220
0.0
230
1.0
  0
LINE
  5
3E1
100
AcDbEntity
  8
0
370
     5
390
0
 62
     7
 48
0.000095
100
AcDbLine
 10
7.913659
 20
0.573722
 30
0.0
 11
7.915938
 21
0.570681
 31
0.0
210
0.0
220
0.0
230
1.0
  0
LINE
  5
3E2
100
AcDbEntity
  8
0
370
     5
390
0
 62
     7
 48
0.000066
100
AcDbLine
 10
7.915938
 20
0.570681
 30
0.0
 11
7.916123
 21
0.573306
 31
0.0
210
0.0
220
0.0
230
1.0
  0
LINE
  5
3E3
100
AcDbEntity
  8
0
370
     5
390
0
 62
     7
 48
0.000062
100
AcDbLine
 10
7.916123
 20
0.573306
 30
0.0
 11
7.916418
 21
0.575775
 31
0.0
210
0.0
220
0.0
230
1.0
  0
LINE
  5
3E4
100
AcDbEntity
  8
0
370
     5
390
0
 62
     7
 48
0.000059
100
AcDbLine
 10
7.916418
 20
0.575775
 30
0.0
 11
7.916824
 21
0.578087
 31
0.0
210
0.0
220
0.0
230
1.0
  0
LINE
  5
3E5
100
AcDbEntity
  8
0
370
     5
390
0
 62
     7
 48
0.000055
100
AcDbLine
 10
7.916824
 20
0.578087
 30
0.0
 11
7.917339
 21
0.580242
 31
0.0
210
0.0
220
0.0
230
1.0
  0
LINE
  5
3E6
100
AcDbEntity
  8
0
370
     5
390
0
 62
     7
 48
0.000052
100
AcDbLine
 10
7.917339
 20
0.580242
 30
0.0
 11
7.917966
 21
0.58224
 31
0.0
210
0.0
220
0.0
230
1.0
  0
LINE
  5
3E7
100
AcDbEntity
  8
0
370
     5
390
0
 62
     7
 48
0.00005
100
AcDbLine
 10
7.917966
 20
0.58224
 30
0.0
 11
7.918703
 21
0.584081
 31
0.0
210
0.0
220
0.0
230
1.0
  0
LINE
  5
3E8
100
AcDbEntity
  8
0
370
     5
390
0
 62
     7
 48
0.000047
100
AcDbLine
 10
7.918703
 20
0.584081
 30
0.0
 11
7.919549
 21
0.585767
 31
0.0
210
0.0
220
0.0
230
1.0
  0
LINE
  5
3E9
100
AcDbEntity
  8
0
370
     5
390
0
 62
     7
 48
0.000045
100
AcDbLine
 10
7.919549
 20
0.585767
 30
0.0
 11
7.920506
 21
0.587294
 31
0.0
210
0.0
220
0.0
230
1.0
  0
LINE
  5
3EA
100
AcDbEntity
  8
0
370
     5
390
0
 62
     7
 48
0.000043
100
AcDbLine
 10
7.920506
 20
0.587294
 30
0.0
 11
7.921574
 21
0.588665
 31
0.0
210
0.0
220
0.0
230
1.0
  0
LINE
  5
3EB
100
AcDbEntity
  8
0
370
     5
390
0
 62
     7
 48
0.000042
100
AcDbLine
 10
7.921574
 20
0.588665
 30
0.0
 11
7.922751
 21
0.58988
 31
0.0
210
0.0
220
0.0
230
1.0
  0
LINE
  5
3EC
100
AcDbEntity
  8
0
370
     5
390
0
 62
     7
 48
0.000042
100
AcDbLine
 10
7.922751
 20
0.58988
 30
0.0
 11
7.924063
 21
0.590958
 31
0.0
210
0.0
220
0.0
230
1.0
  0
LINE
  5
3ED
100
AcDbEntity
  8
0
370
     5
390
0
 62
     7
 48
0.000044
100
AcDbLine
 10
7.924063
 20
0.590958
 30
0.0
 11
7.92553
 21
0.591923
 31
0.0
210
0.0
220
0.0
230
1.0
  0
LINE
  5
3EE
100
AcDbEntity
  8
0
370
     5
390
0
 62
     7
 48
0.000046
100
AcDbLine
 10
7.92553
 20
0.591923
 30
0.0
 11
7.927152
 21
0.592775
 31
0.0
210
0.0
220
0.0
230
1.0
  0
LINE
  5
3EF
100
AcDbEntity
  8
0
370
     5
390
0
 62
     7
 48
0.000048
100
AcDbLine
 10
7.927152
 20
0.592775
 30
0.0
 11
7.92893
 21
0.593513
 31
0.0
210
0.0
220
0.0
230
1.0
  0
LINE
  5
3F0
100
AcDbEntity
  8
0
370
     5
390
0
 62
     7
 48
0.000051
100
AcDbLine
 10
7.92893
 20
0.593513
 30
0.0
 11
7.930864
 21
0.594138
 31
0.0
210
0.0
220
0.0
230
1.0
  0
LINE
  5
3F1
100
AcDbEntity
  8
0
370
     5
390
0
 62
     7
 48
0.000054
100
AcDbLine
 10
7.930864
 20
0.594138
 30
0.0
 11
7.932953
 21
0.594648
 31
0.0
210
0.0
220
0.0
230
1.0
  0
LINE
  5
3F2
100
AcDbEntity
  8
0
370
     5
390
0
 62
     7
 48
0.000057
100
AcDbLine
 10
7.932953
 20
0.594648
 30
0.0
 11
7.9352
 21
0.595046
 31
0.0
210
0.0
220
0.0
230
1.0
  0
LINE
  5
3F3
100
AcDbEntity
  8
0
370
     5
390
0
 62
     7
 48
0.00006
100
AcDbLine
 10
7.9352
 20
0.595046
 30
0.0
 11
7.9376
 21
0.595331
 31
0.0
210
0.0
220
0.0
230
1.0
  0
LINE
  5
3F4
100
AcDbEntity
  8
0
370
     5
390
0
 62
     7
 48
0.000064
100
AcDbLine
 10
7.9376
 20
0.595331
 30
0.0
 11
7.940158
 21
0.5955
 31
0.0
210
0.0
220
0.0
230
1.0
  0
LINE
  5
3F5
100
AcDbEntity
  8
0
370
     5
390
0
 62
     7
 48
0.000068
100
AcDbLine
 10
7.940158
 20
0.5955
 30
0.0
 11
7.94287
 21
0.595557
 31
0.0
210
0.0
220
0.0
230
1.0
  0
LINE
  5
3F6
100
AcDbEntity
  8
0
370
     5
390
0
 62
     7
 48
0.00005
100
AcDbLine
 10
7.94287
 20
0.595557
 30
0.0
 11
7.944881
 21
0.595532
 31
0.0
210
0.0
220
0.0
230
1.0
  0
LINE
  5
3F7
100
AcDbEntity
  8
0
370
     5
390
0
 62
     7
 48
0.000051
100
AcDbLine
 10
7.944881
 20
0.595532
 30
0.0
 11
7.946936
 21
0.595454
 31
0.0
210
0.0
220
0.0
230
1.0
  0
LINE
  5
3F8
100
AcDbEntity
  8
0
370
     5
390
0
 62
     7
 48
0.000053
100
AcDbLine
 10
7.946936
 20
0.595454
 30
0.0
 11
7.949034
 21
0.595323
 31
0.0
210
0.0
220
0.0
230
1.0
  0
LINE
  5
3F9
100
AcDbEntity
  8
0
370
     5
390
0
 62
     7
 48
0.000054
100
AcDbLine
 10
7.949034
 20
0.595323
 30
0.0
 11
7.951177
 21
0.595142
 31
0.0
210
0.0
220
0.0
230
1.0
  0
LINE
  5
3FA
100
AcDbEntity
  8
0
370
     5
390
0
 62
     7
 48
0.000055
100
AcDbLine
 10
7.951177
 20
0.595142
 30
0.0
 11
7.953361
 21
0.594908
 31
0.0
210
0.0
220
0.0
230
1.0
  0
LINE
  5
3FB
100
AcDbEntity
  8
0
370
     5
390
0
 62
     7
 48
0.000136
100
AcDbLine
 10
7.953361
 20
0.594908
 30
0.0
 11
7.952171
 21
0.589608
 31
0.0
210
0.0
220
0.0
230
1.0
  0
LINE
  5
3FC
100
AcDbEntity
  8
0
370
     5
390
0
 62
     7
 48
0.000162
100
AcDbLine
 10
7.952171
 20
0.589608
 30
0.0
 11
7.945682
 21
0.589716
 31
0.0
210
0.0
220
0.0
230
1.0
  0
LINE
  5
3FD
100
AcDbEntity
  8
0
370
     5
390
0
 62
     7
 48
0.00006
100
AcDbLine
 10
7.945682
 20
0.589716
 30
0.0
 11
7.943286
 21
0.589667
 31
0.0
210
0.0
220
0.0
230
1.0
  0
LINE
  5
3FE
100
AcDbEntity
  8
0
370
     5
390
0
 62
     7
 48
0.000057
100
AcDbLine
 10
7.943286
 20
0.589667
 30
0.0
 11
7.941029
 21
0.589518
 31
0.0
210
0.0
220
0.0
230
1.0
  0
LINE
  5
3FF
100
AcDbEntity
  8
0
370
     5
390
0
 62
     7
 48
0.000053
100
AcDbLine
 10
7.941029
 20
0.589518
 30
0.0
 11
7.938912
 21
0.589269
 31
0.0
210
0.0
220
0.0
230
1.0
  0
LINE
  5
400
100
AcDbEntity
  8
0
370
     5
390
0
 62
     7
 48
0.00005
100
AcDbLine
 10
7.938912
 20
0.589269
 30
0.0
 11
7.936934
 21
0.588921
 31
0.0
210
0.0
220
0.0
230
1.0
  0
LINE
  5
401
100
AcDbEntity
  8
0
370
     5
390
0
 62
     7
 48
0.000047
100
AcDbLine
 10
7.936934
 20
0.588921
 30
0.0
 11
7.935095
 21
0.588473
 31
0.0
210
0.0
220
0.0
230
1.0
  0
LINE
  5
402
100
AcDbEntity
  8
0
370
     5
390
0
 62
     7
 48
0.000045
100
AcDbLine
 10
7.935095
 20
0.588473
 30
0.0
 11
7.933397
 21
0.587925
 31
0.0
210
0.0
220
0.0
230
1.0
  0
LINE
  5
403
100
AcDbEntity
  8
0
370
     5
390
0
 62
     7
 48
0.000042
100
AcDbLine
 10
7.933397
 20
0.587925
 30
0.0
 11
7.931839
 21
0.587279
 31
0.0
210
0.0
220
0.0
230
1.0
  0
LINE
  5
404
100
AcDbEntity
  8
0
370
     5
390
0
 62
     7
 48
0.00004
100
AcDbLine
 10
7.931839
 20
0.587279
 30
0.0
 11
7.930418
 21
0.586532
 31
0.0
210
0.0
220
0.0
230
1.0
  0
LINE
  5
405
100
AcDbEntity
  8
0
370
     5
390
0
 62
     7
 48
0.000038
100
AcDbLine
 10
7.930418
 20
0.586532
 30
0.0
 11
7.929138
 21
0.585687
 31
0.0
210
0.0
220
0.0
230
1.0
  0
LINE
  5
406
100
AcDbEntity
  8
0
370
     5
390
0
 62
     7
 48
0.000074
100
AcDbLine
 10
7.929138
 20
0.585687
 30
0.0
 11
7.926968
 21
0.58367
 31
0.0
210
0.0
220
0.0
230
1.0
  0
LINE
  5
407
100
AcDbEntity
  8
0
370
     5
390
0
 62
     7
 48
0.000039
100
AcDbLine
 10
7.926968
 20
0.58367
 30
0.0
 11
7.926023
 21
0.582444
 31
0.0
210
0.0
220
0.0
230
1.0
  0
LINE
  5
408
100
AcDbEntity
  8
0
370
     5
390
0
 62
     7
 48
0.000041
100
AcDbLine
 10
7.926023
 20
0.582444
 30
0.0
 11
7.92516
 21
0.581064
 31
0.0
210
0.0
220
0.0
230
1.0
  0
LINE
  5
409
100
AcDbEntity
  8
0
370
     5
390
0
 62
     7
 48
0.000043
100
AcDbLine
 10
7.92516
 20
0.581064
 30
0.0
 11
7.924381
 21
0.579533
 31
0.0
210
0.0
220
0.0
230
1.0
  0
LINE
  5
40A
100
AcDbEntity
  8
0
370
     5
390
0
 62
     7
 48
0.000046
100
AcDbLine
 10
7.924381
 20
0.579533
 30
0.0
 11
7.923684
 21
0.577847
 31
0.0
210
0.0
220
0.0
230
1.0
  0
LINE
  5
40B
100
AcDbEntity
  8
0
370
     5
390
0
 62
     7
 48
0.000048
100
AcDbLine
 10
7.923684
 20
0.577847
 30
0.0
 11
7.923073
 21
0.576006
 31
0.0
210
0.0
220
0.0
230
1.0
  0
LINE
  5
40C
100
AcDbEntity
  8
0
370
     5
390
0
 62
     7
 48
0.000052
100
AcDbLine
 10
7.923073
 20
0.576006
 30
0.0
 11
7.922543
 21
0.574013
 31
0.0
210
0.0
220
0.0
230
1.0
  0
LINE
  5
40D
100
AcDbEntity
  8
0
370
     5
390
0
 62
     7
 48
0.000055
100
AcDbLine
 10
7.922543
 20
0.574013
 30
0.0
 11
7.922096
 21
0.571866
 31
0.0
210
0.0
220
0.0
230
1.0
  0
LINE
  5
40E
100
AcDbEntity
  8
0
370
     5
390
0
 62
     7
 48
0.000058
100
AcDbLine
 10
7.922096
 20
0.571866
 30
0.0
 11
7.921734
 21
0.569565
 31
0.0
210
0.0
220
0.0
230
1.0
  0
LINE
  5
40F
100
AcDbEntity
  8
0
370
     5
390
0
 62
     7
 48
0.000062
100
AcDbLine
 10
7.921734
 20
0.569565
 30
0.0
 11
7.921454
 21
0.567111
 31
0.0
210
0.0
220
0.0
230
1.0
  0
LINE
  5
410
100
AcDbEntity
  8
0
370
     5
390
0
 62
     7
 48
0.00007
100
AcDbLine
 10
7.921454
 20
0.567111
 30
0.0
 11
7.924266
 21
0.567111
 31
0.0
210
0.0
220
0.0
230
1.0
  0
LINE
  5
411
100
AcDbEntity
  8
0
370
     5
390
0
 62
     7
 48
0.000054
100
AcDbLine
 10
7.924266
 20
0.567111
 30
0.0
 11
7.924478
 21
0.569252
 31
0.0
210
0.0
220
0.0
230
1.0
  0
LINE
  5
412
100
AcDbEntity
  8
0
370
     5
390
0
 62
     7
 48
0.000051
100
AcDbLine
 10
7.924478
 20
0.569252
 30
0.0
 11
7.924766
 21
0.571259
 31
0.0
210
0.0
220
0.0
230
1.0
  0
LINE
  5
413
100
AcDbEntity
  8
0
370
     5
390
0
 62
     7
 48
0.000048
100
AcDbLine
 10
7.924766
 20
0.571259
 30
0.0
 11
7.92513
 21
0.573132
 31
0.0
210
0.0
220
0.0
230
1.0
  0
LINE
  5
414
100
AcDbEntity
  8
0
370
     5
390
0
 62
     7
 48
0.000045
100
AcDbLine
 10
7.92513
 20
0.573132
 30
0.0
 11
7.925573
 21
0.574872
 31
0.0
210
0.0
220
0.0
230
1.0
  0
LINE
  5
415
100
AcDbEntity
  8
0
370
     5
390
0
 62
     7
 48
0.000042
100
AcDbLine
 10
7.925573
 20
0.574872
 30
0.0
 11
7.926092
 21
0.57648
 31
0.0
210
0.0
220
0.0
230
1.0
  0
LINE
  5
416
100
AcDbEntity
  8
0
370
     5
390
0
 62
     7
 48
0.000077
100
AcDbLine
 10
7.926092
 20
0.57648
 30
0.0
 11
7.92736
 21
0.579297
 31
0.0
210
0.0
220
0.0
230
1.0
  0
LINE
  5
417
100
AcDbEntity
  8
0
370
     5
390
0
 62
     7
 48
0.000069
100
AcDbLine
 10
7.92736
 20
0.579297
 30
0.0
 11
7.928935
 21
0.581582
 31
0.0
210
0.0
220
0.0
230
1.0
  0
LINE
  5
418
100
AcDbEntity
  8
0
370
     5
390
0
 62
     7
 48
0.000065
100
AcDbLine
 10
7.928935
 20
0.581582
 30
0.0
 11
7.930843
 21
0.583356
 31
0.0
210
0.0
220
0.0
230
1.0
  0
LINE
  5
419
100
AcDbEntity
  8
0
370
     5
390
0
 62
     7
 48
0.000069
100
AcDbLine
 10
7.930843
 20
0.583356
 30
0.0
 11
7.93324
 21
0.584759
 31
0.0
210
0.0
220
0.0
230
1.0
  0
LINE
  5
41A
100
AcDbEntity
  8
0
370
     5
390
0
 62
     7
 48
0.000038
100
AcDbLine
 10
7.93324
 20
0.584759
 30
0.0
 11
7.93463
 21
0.585327
 31
0.0
210
0.0
220
0.0
230
1.0
  0
LINE
  5
41B
100
AcDbEntity
  8
0
370
     5
390
0
 62
     7
 48
0.00004
100
AcDbLine
 10
7.93463
 20
0.585327
 30
0.0
 11
7.936151
 21
0.585809
 31
0.0
210
0.0
220
0.0
230
1.0
  0
LINE
  5
41C
100
AcDbEntity
  8
0
370
     5
390
0
 62
     7
 48
0.000042
100
AcDbLine
 10
7.936151
 20
0.585809
 30
0.0
 11
7.937799
 21
0.586203
 31
0.0
210
0.0
220
0.0
230
1.0
  0
LINE
  5
41D
100
AcDbEntity
  8
0
370
     5
390
0
 62
     7
 48
0.000045
100
AcDbLine
 10
7.937799
 20
0.586203
 30
0.0
 11
7.939577
 21
0.586511
 31
0.0
210
0.0
220
0.0
230
1.0
  0
LINE
  5
41E
100
AcDbEntity
  8
0
370
     5
390
0
 62
     7
 48
0.000048
100
AcDbLine
 10
7.939577
 20
0.586511
 30
0.0
 11
7.941484
 21
0.58673
 31
0.0
210
0.0
220
0.0
230
1.0
  0
LINE
  5
41F
100
AcDbEntity
  8
0
370
     5
390
0
 62
     7
 48
0.000051
100
AcDbLine
 10
7.941484
 20
0.58673
 30
0.0
 11
7.943519
 21
0.58686
 31
0.0
210
0.0
220
0.0
230
1.0
  0
LINE
  5
420
100
AcDbEntity
  8
0
370
     5
390
0
 62
     7
 48
0.000054
100
AcDbLine
 10
7.943519
 20
0.58686
 30
0.0
 11
7.945682
 21
0.586905
 31
0.0
210
0.0
220
0.0
230
1.0
  0
LINE
  5
421
100
AcDbEntity
  8
0
370
     5
390
0
 62
     7
 48
0.000192
100
AcDbLine
 10
7.945682
 20
0.586905
 30
0.0
 11
7.953361
 21
0.586796
 31
0.0
210
0.0
220
0.0
230
1.0
  0
LINE
  5
422
100
AcDbEntity
  8
0
370
     5
390
0
 62
     7
 48
0.00269
100
AcDbLine
 10
7.953361
 20
0.586796
 30
0.0
 11
7.953361
 21
0.479178
 31
0.0
210
0.0
220
0.0
230
1.0
  0
LINE
  5
423
100
AcDbEntity
  8
0
370
     5
390
0
 62
     7
 48
0.000493
100
AcDbLine
 10
7.953361
 20
0.479178
 30
0.0
 11
7.93822
 21
0.466523
 31
0.0
210
0.0
220
0.0
230
1.0
  0
LINE
  5
424
100
AcDbEntity
  8
0
370
     5
390
0
 62
     7
 48
0.001236
100
AcDbLine
 10
7.93822
 20
0.466523
 30
0.0
 11
7.987647
 21
0.466523
 31
0.0
210
0.0
220
0.0
230
1.0
  0
LINE
  5
425
100
AcDbEntity
  8
0
370
     5
390
0
 62
     7
 48
0.000434
100
AcDbLine
 10
7.987647
 20
0.466523
 30
0.0
 11
7.974885
 21
0.478313
 31
0.0
210
0.0
220
0.0
230
1.0
  0
LINE
  5
426
100
AcDbEntity
  8
0
370
     5
390
0
 62
     7
 48
0.002931
100
AcDbLine
 10
7.974885
 20
0.478313
 30
0.0
 11
7.976183
 21
0.595557
 31
0.0
210
0.0
220
0.0
230
1.0
  0
LINE
  5
427
100
AcDbEntity
  8
0
370
     5
390
0
 62
     7
 48
0.000049
100
AcDbLine
 10
7.976183
 20
0.595557
 30
0.0
 11
7.97813
 21
0.595713
 31
0.0
210
0.0
220
0.0
230
1.0
  0
LINE
  5
428
100
AcDbEntity
  8
0
370
     5
390
0
 62
     7
 48
0.000049
100
AcDbLine
 10
7.97813
 20
0.595713
 30
0.0
 11
7.980077
 21
0.595835
 31
0.0
210
0.0
220
0.0
230
1.0
  0
LINE
  5
429
100
AcDbEntity
  8
0
370
     5
390
0
 62
     7
 48
0.000049
100
AcDbLine
 10
7.980077
 20
0.595835
 30
0.0
 11
7.982024
 21
0.59592
 31
0.0
210
0.0
220
0.0
230
1.0
  0
LINE
  5
42A
100
AcDbEntity
  8
0
370
     5
390
0
 62
     7
 48
0.000049
100
AcDbLine
 10
7.982024
 20
0.59592
 30
0.0
 11
7.983971
 21
0.595973
 31
0.0
210
0.0
220
0.0
230
1.0
  0
LINE
  5
42B
100
AcDbEntity
  8
0
370
     5
390
0
 62
     7
 48
0.000049
100
AcDbLine
 10
7.983971
 20
0.595973
 30
0.0
 11
7.985918
 21
0.595991
 31
0.0
210
0.0
220
0.0
230
1.0
  0
LINE
  5
42C
100
AcDbEntity
  8
0
370
     5
390
0
 62
     7
 48
0.000058
100
AcDbLine
 10
7.985918
 20
0.595991
 30
0.0
 11
7.988236
 21
0.595943
 31
0.0
210
0.0
220
0.0
230
1.0
  0
LINE
  5
42D
100
AcDbEntity
  8
0
370
     5
390
0
 62
     7
 48
0.000055
100
AcDbLine
 10
7.988236
 20
0.595943
 30
0.0
 11
7.990431
 21
0.595799
 31
0.0
210
0.0
220
0.0
230
1.0
  0
LINE
  5
42E
100
AcDbEntity
  8
0
370
     5
390
0
 62
     7
 48
0.000052
100
AcDbLine
 10
7.990431
 20
0.595799
 30
0.0
 11
7.992506
 21
0.595562
 31
0.0
210
0.0
220
0.0
230
1.0
  0
LINE
  5
42F
100
AcDbEntity
  8
0
370
     5
390
0
 62
     7
 48
0.000049
100
AcDbLine
 10
7.992506
 20
0.595562
 30
0.0
 11
7.994457
 21
0.595229
 31
0.0
210
0.0
220
0.0
230
1.0
  0
LINE
  5
430
100
AcDbEntity
  8
0
370
     5
390
0
 62
     7
 48
0.000047
100
AcDbLine
 10
7.994457
 20
0.595229
 30
0.0
 11
7.996287
 21
0.5948
 31
0.0
210
0.0
220
0.0
230
1.0
  0
LINE
  5
431
100
AcDbEntity
  8
0
370
     5
390
0
 62
     7
 48
0.000045
100
AcDbLine
 10
7.996287
 20
0.5948
 30
0.0
 11
7.997995
 21
0.594276
 31
0.0
210
0.0
220
0.0
230
1.0
  0
LINE
  5
432
100
AcDbEntity
  8
0
370
     5
390
0
 62
     7
 48
0.000043
100
AcDbLine
 10
7.997995
 20
0.594276
 30
0.0
 11
7.99958
 21
0.593658
 31
0.0
210
0.0
220
0.0
230
1.0
  0
LINE
  5
433
100
AcDbEntity
  8
0
370
     5
390
0
 62
     7
 48
0.000041
100
AcDbLine
 10
7.99958
 20
0.593658
 30
0.0
 11
8.001043
 21
0.592944
 31
0.0
210
0.0
220
0.0
230
1.0
  0
LINE
  5
434
100
AcDbEntity
  8
0
370
     5
390
0
 62
     7
 48
0.000039
100
AcDbLine
 10
8.001043
 20
0.592944
 30
0.0
 11
8.002384
 21
0.592136
 31
0.0
210
0.0
220
0.0
230
1.0
  0
LINE
  5
435
100
AcDbEntity
  8
0
370
     5
390
0
 62
     7
 48
0.000038
100
AcDbLine
 10
8.002384
 20
0.592136
 30
0.0
 11
8.003601
 21
0.591231
 31
0.0
210
0.0
220
0.0
230
1.0
  0
LINE
  5
436
100
AcDbEntity
  8
0
370
     5
390
0
 62
     7
 48
0.000038
100
AcDbLine
 10
8.003601
 20
0.591231
 30
0.0
 11
8.004733
 21
0.590204
 31
0.0
210
0.0
220
0.0
230
1.0
  0
LINE
  5
437
100
AcDbEntity
  8
0
370
     5
390
0
 62
     7
 48
0.00004
100
AcDbLine
 10
8.004733
 20
0.590204
 30
0.0
 11
8.00581
 21
0.589025
 31
0.0
210
0.0
220
0.0
230
1.0
  0
LINE
  5
438
100
AcDbEntity
  8
0
370
     5
390
0
 62
     7
 48
0.000042
100
AcDbLine
 10
8.00581
 20
0.589025
 30
0.0
 11
8.006836
 21
0.587694
 31
0.0
210
0.0
220
0.0
230
1.0
  0
LINE
  5
439
100
AcDbEntity
  8
0
370
     5
390
0
 62
     7
 48
0.000044
100
AcDbLine
 10
8.006836
 20
0.587694
 30
0.0
 11
8.007806
 21
0.586212
 31
0.0
210
0.0
220
0.0
230
1.0
  0
LINE
  5
43A
100
AcDbEntity
  8
0
370
     5
390
0
 62
     7
 48
0.000047
100
AcDbLine
 10
8.007806
 20
0.586212
 30
0.0
 11
8.008726
 21
0.584579
 31
0.0
210
0.0
220
0.0
230
1.0
  0
LINE
  5
43B
100
AcDbEntity
  8
0
370
     5
390
0
 62
     7
 48
0.00005
100
AcDbLine
 10
8.008726
 20
0.584579
 30
0.0
 11
8.009591
 21
0.582795
 31
0.0
210
0.0
220
0.0
230
1.0
  0
LINE
  5
43C
100
AcDbEntity
  8
0
370
     5
390
0
 62
     7
 48
0.000053
100
AcDbLine
 10
8.009591
 20
0.582795
 30
0.0
 11
8.010404
 21
0.580859
 31
0.0
210
0.0
220
0.0
230
1.0
  0
LINE
  5
43D
100
AcDbEntity
  8
0
370
     5
390
0
 62
     7
 48
0.000056
100
AcDbLine
 10
8.010404
 20
0.580859
 30
0.0
 11
8.011163
 21
0.578771
 31
0.0
210
0.0
220
0.0
230
1.0
  0
LINE
  5
43E
100
AcDbEntity
  8
0
370
     5
390
0
 62
     7
 48
0.000059
100
AcDbLine
 10
8.011163
 20
0.578771
 30
0.0
 11
8.011871
 21
0.576531
 31
0.0
210
0.0
220
0.0
230
1.0
  0
LINE
  5
43F
100
AcDbEntity
  8
0
370
     5
390
0
 62
     7
 48
0.000062
100
AcDbLine
 10
8.011871
 20
0.576531
 30
0.0
 11
8.012525
 21
0.574142
 31
0.0
210
0.0
220
0.0
230
1.0
  0
LINE
  5
440
100
AcDbEntity
  8
0
370
     5
390
0
 62
     7
 48
0.000057
100
AcDbLine
 10
8.012525
 20
0.574142
 30
0.0
 11
8.014147
 21
0.572519
 31
0.0
210
0.0
220
0.0
230
1.0
  0
LINE
  5
441
100
AcDbEntity
  8
0
370
     5
390
0
 62
     7
 48
0.000054
100
AcDbLine
 10
8.014147
 20
0.572519
 30
0.0
 11
8.014802
 21
0.574562
 31
0.0
210
0.0
220
0.0
230
1.0
  0
LINE
  5
442
100
AcDbEntity
  8
0
370
     5
390
0
 62
     7
 48
0.000052
100
AcDbLine
 10
8.014802
 20
0.574562
 30
0.0
 11
8.015467
 21
0.576534
 31
0.0
210
0.0
220
0.0
230
1.0
  0
LINE
  5
443
100
AcDbEntity
  8
0
370
     5
390
0
 62
     7
 48
0.000051
100
AcDbLine
 10
8.015467
 20
0.576534
 30
0.0
 11
8.016143
 21
0.578438
 31
0.0
210
0.0
220
0.0
230
1.0
  0
LINE
  5
444
100
AcDbEntity
  8
0
370
     5
390
0
 62
     7
 48
0.000049
100
AcDbLine
 10
8.016143
 20
0.578438
 30
0.0
 11
8.01683
 21
0.580272
 31
0.0
210
0.0
220
0.0
230
1.0
  0
LINE
  5
445
100
AcDbEntity
  8
0
370
     5
390
0
 62
     7
 48
0.000047
100
AcDbLine
 10
8.01683
 20
0.580272
 30
0.0
 11
8.017528
 21
0.582038
 31
0.0
210
0.0
220
0.0
230
1.0
  0
LINE
  5
446
100
AcDbEntity
  8
0
370
     5
390
0
 62
     7
 48
0.000046
100
AcDbLine
 10
8.017528
 20
0.582038
 30
0.0
 11
8.018235
 21
0.583734
 31
0.0
210
0.0
220
0.0
230
1.0
  0
LINE
  5
447
100
AcDbEntity
  8
0
370
     5
390
0
 62
     7
 48
0.000044
100
AcDbLine
 10
8.018235
 20
0.583734
 30
0.0
 11
8.018954
 21
0.58536
 31
0.0
210
0.0
220
0.0
230
1.0
  0
LINE
  5
448
100
AcDbEntity
  8
0
370
     5
390
0
 62
     7
 48
0.000043
100
AcDbLine
 10
8.018954
 20
0.58536
 30
0.0
 11
8.019684
 21
0.586917
 31
0.0
210
0.0
220
0.0
230
1.0
  0
LINE
  5
449
100
AcDbEntity
  8
0
370
     5
390
0
 62
     7
 48
0.000042
100
AcDbLine
 10
8.019684
 20
0.586917
 30
0.0
 11
8.020426
 21
0.588405
 31
0.0
210
0.0
220
0.0
230
1.0
  0
LINE
  5
44A
100
AcDbEntity
  8
0
370
     5
390
0
 62
     7
 48
0.00004
100
AcDbLine
 10
8.020426
 20
0.588405
 30
0.0
 11
8.021177
 21
0.589826
 31
0.0
210
0.0
220
0.0
230
1.0
  0
LINE
  5
44B
100
AcDbEntity
  8
0
370
     5
390
0
 62
     7
 48
0.0004
100
AcDbLine
 10
8.021177
 20
0.589826
 30
0.0
 11
8.029019
 21
0.60375
 31
0.0
210
0.0
220
0.0
230
1.0
  0
LINE
  5
44C
100
AcDbEntity
  8
0
370
     5
390
0
 62
     7
 48
0.000044
100
AcDbLine
 10
8.029019
 20
0.60375
 30
0.0
 11
8.029831
 21
0.605292
 31
0.0
210
0.0
220
0.0
230
1.0
  0
ENDBLK
  5
44D
100
AcDbEntity
  8
0
390
0
100
AcDbBlockEnd
  0
BLOCK
  5
44E
100
AcDbEntity
  8
0
370
     0
390
0
100
AcDbBlockBegin
  2
BLOCK5
 70
     0
 10
0.0
 20
0.0
 30
0.0
  3
BLOCK5
  1

  0
LINE
  5
44F
100
AcDbEntity
  8
0
370
     5
390
0
 62
     7
 48
0.000505
100
AcDbLine
 10
8.03978
 20
0.605292
 30
0.0
 11
8.054382
 21
0.591339
 31
0.0
210
0.0
220
0.0
230
1.0
  0
LINE
  5
450
100
AcDbEntity
  8
0
370
     5
390
0
 62
     7
 48
0.001141
100
AcDbLine
 10
8.054382
 20
0.591339
 30
0.0
 11
8.054382
 21
0.545696
 31
0.0
210
0.0
220
0.0
230
1.0
  0
LINE
  5
451
100
AcDbEntity
  8
0
370
     5
390
0
 62
     7
 48
0.00008
100
AcDbLine
 10
8.054382
 20
0.545696
 30
0.0
 11
8.051189
 21
0.545309
 31
0.0
210
0.0
220
0.0
230
1.0
  0
LINE
  5
452
100
AcDbEntity
  8
0
370
     5
390
0
 62
     7
 48
0.000076
100
AcDbLine
 10
8.051189
 20
0.545309
 30
0.0
 11
8.048231
 21
0.544665
 31
0.0
210
0.0
220
0.0
230
1.0
  0
LINE
  5
453
100
AcDbEntity
  8
0
370
     5
390
0
 62
     7
 48
0.000072
100
AcDbLine
 10
8.048231
 20
0.544665
 30
0.0
 11
8.045504
 21
0.543768
 31
0.0
210
0.0
220
0.0
230
1.0
  0
LINE
  5
454
100
AcDbEntity
  8
0
370
     5
390
0
 62
     7
 48
0.000069
100
AcDbLine
 10
8.045504
 20
0.543768
 30
0.0
 11
8.043013
 21
0.542615
 31
0.0
210
0.0
220
0.0
230
1.0
  0
LINE
  5
455
100
AcDbEntity
  8
0
370
     5
390
0
 62
     7
 48
0.000067
100
AcDbLine
 10
8.043013
 20
0.542615
 30
0.0
 11
8.040755
 21
0.541208
 31
0.0
210
0.0
220
0.0
230
1.0
  0
LINE
  5
456
100
AcDbEntity
  8
0
370
     5
390
0
 62
     7
 48
0.000066
100
AcDbLine
 10
8.040755
 20
0.541208
 30
0.0
 11
8.03873
 21
0.539544
 31
0.0
210
0.0
220
0.0
230
1.0
  0
LINE
  5
457
100
AcDbEntity
  8
0
370
     5
390
0
 62
     7
 48
0.000066
100
AcDbLine
 10
8.03873
 20
0.539544
 30
0.0
 11
8.036938
 21
0.537626
 31
0.0
210
0.0
220
0.0
230
1.0
  0
LINE
  5
458
100
AcDbEntity
  8
0
370
     5
390
0
 62
     7
 48
0.000067
100
AcDbLine
 10
8.036938
 20
0.537626
 30
0.0
 11
8.03538
 21
0.535451
 31
0.0
210
0.0
220
0.0
230
1.0
  0
LINE
  5
459
100
AcDbEntity
  8
0
370
     5
390
0
 62
     7
 48
0.000069
100
AcDbLine
 10
8.03538
 20
0.535451
 30
0.0
 11
8.034058
 21
0.533022
 31
0.0
210
0.0
220
0.0
230
1.0
  0
LINE
  5
45A
100
AcDbEntity
  8
0
370
     5
390
0
 62
     7
 48
0.000072
100
AcDbLine
 10
8.034058
 20
0.533022
 30
0.0
 11
8.032967
 21
0.530337
 31
0.0
210
0.0
220
0.0
230
1.0
  0
LINE
  5
45B
100
AcDbEntity
  8
0
370
     5
390
0
 62
     7
 48
0.000047
100
AcDbLine
 10
8.032967
 20
0.530337
 30
0.0
 11
8.033725
 21
0.528606
 31
0.0
210
0.0
220
0.0
230
1.0
  0
LINE
  5
45C
100
AcDbEntity
  8
0
370
     5
390
0
 62
     7
 48
0.000054
100
AcDbLine
 10
8.033725
 20
0.528606
 30
0.0
 11
8.035222
 21
0.530168
 31
0.0
210
0.0
220
0.0
230
1.0
  0
LINE
  5
45D
100
AcDbEntity
  8
0
370
     5
390
0
 62
     7
 48
0.000052
100
AcDbLine
 10
8.035222
 20
0.530168
 30
0.0
 11
8.036774
 21
0.531566
 31
0.0
210
0.0
220
0.0
230
1.0
  0
LINE
  5
45E
100
AcDbEntity
  8
0
370
     5
390
0
 62
     7
 48
0.000051
100
AcDbLine
 10
8.036774
 20
0.531566
 30
0.0
 11
8.038381
 21
0.532799
 31
0.0
210
0.0
220
0.0
230
1.0
  0
LINE
  5
45F
100
AcDbEntity
  8
0
370
     5
390
0
 62
     7
 48
0.000049
100
AcDbLine
 10
8.038381
 20
0.532799
 30
0.0
 11
8.04004
 21
0.533868
 31
0.0
210
0.0
220
0.0
230
1.0
  0
LINE
  5
460
100
AcDbEntity
  8
0
370
     5
390
0
 62
     7
 48
0.000048
100
AcDbLine
 10
8.04004
 20
0.533868
 30
0.0
 11
8.041754
 21
0.534771
 31
0.0
210
0.0
220
0.0
230
1.0
  0
LINE
  5
461
100
AcDbEntity
  8
0
370
     5
390
0
 62
     7
 48
0.000048
100
AcDbLine
 10
8.041754
 20
0.534771
 30
0.0
 11
8.043522
 21
0.535512
 31
0.0
210
0.0
220
0.0
230
1.0
  0
LINE
  5
462
100
AcDbEntity
  8
0
370
     5
390
0
 62
     7
 48
0.000048
100
AcDbLine
 10
8.043522
 20
0.535512
 30
0.0
 11
8.045345
 21
0.536087
 31
0.0
210
0.0
220
0.0
230
1.0
  0
LINE
  5
463
100
AcDbEntity
  8
0
370
     5
390
0
 62
     7
 48
0.000048
100
AcDbLine
 10
8.045345
 20
0.536087
 30
0.0
 11
8.047222
 21
0.536498
 31
0.0
210
0.0
220
0.0
230
1.0
  0
LINE
  5
464
100
AcDbEntity
  8
0
370
     5
390
0
 62
     7
 48
0.000049
100
AcDbLine
 10
8.047222
 20
0.536498
 30
0.0
 11
8.049152
 21
0.536744
 31
0.0
210
0.0
220
0.0
230
1.0
  0
LINE
  5
465
100
AcDbEntity
  8
0
370
     5
390
0
 62
     7
 48
0.00005
100
AcDbLine
 10
8.049152
 20
0.536744
 30
0.0
 11
8.051138
 21
0.536826
 31
0.0
210
0.0
220
0.0
230
1.0
  0
LINE
  5
466
100
AcDbEntity
  8
0
370
     5
390
0
 62
     7
 48
0.000041
100
AcDbLine
 10
8.051138
 20
0.536826
 30
0.0
 11
8.052773
 21
0.536748
 31
0.0
210
0.0
220
0.0
230
1.0
  0
LINE
  5
467
100
AcDbEntity
  8
0
370
     5
390
0
 62
     7
 48
0.00004
100
AcDbLine
 10
8.052773
 20
0.536748
 30
0.0
 11
8.054382
 21
0.53661
 31
0.0
210
0.0
220
0.0
230
1.0
  0
LINE
  5
468
100
AcDbEntity
  8
0
370
     5
390
0
 62
     7
 48
0.000127
100
AcDbLine
 10
8.054382
 20
0.53661
 30
0.0
 11
8.054382
 21
0.531527
 31
0.0
210
0.0
220
0.0
230
1.0
  0
LINE
  5
469
100
AcDbEntity
  8
0
370
     5
390
0
 62
     7
 48
0.000051
100
AcDbLine
 10
8.054382
 20
0.531527
 30
0.0
 11
8.052347
 21
0.531458
 31
0.0
210
0.0
220
0.0
230
1.0
  0
LINE
  5
46A
100
AcDbEntity
  8
0
370
     5
390
0
 62
     7
 48
0.000049
100
AcDbLine
 10
8.052347
 20
0.531458
 30
0.0
 11
8.050394
 21
0.531249
 31
0.0
210
0.0
220
0.0
230
1.0
  0
LINE
  5
46B
100
AcDbEntity
  8
0
370
     5
390
0
 62
     7
 48
0.000048
100
AcDbLine
 10
8.050394
 20
0.531249
 30
0.0
 11
8.048522
 21
0.530904
 31
0.0
210
0.0
220
0.0
230
1.0
  0
LINE
  5
46C
100
AcDbEntity
  8
0
370
     5
390
0
 62
     7
 48
0.000046
100
AcDbLine
 10
8.048522
 20
0.530904
 30
0.0
 11
8.046733
 21
0.53042
 31
0.0
210
0.0
220
0.0
230
1.0
  0
LINE
  5
46D
100
AcDbEntity
  8
0
370
     5
390
0
 62
     7
 48
0.000045
100
AcDbLine
 10
8.046733
 20
0.53042
 30
0.0
 11
8.045027
 21
0.529796
 31
0.0
210
0.0
220
0.0
230
1.0
  0
LINE
  5
46E
100
AcDbEntity
  8
0
370
     5
390
0
 62
     7
 48
0.000045
100
AcDbLine
 10
8.045027
 20
0.529796
 30
0.0
 11
8.043403
 21
0.529035
 31
0.0
210
0.0
220
0.0
230
1.0
  0
LINE
  5
46F
100
AcDbEntity
  8
0
370
     5
390
0
 62
     7
 48
0.000045
100
AcDbLine
 10
8.043403
 20
0.529035
 30
0.0
 11
8.041859
 21
0.528135
 31
0.0
210
0.0
220
0.0
230
1.0
  0
LINE
  5
470
100
AcDbEntity
  8
0
370
     5
390
0
 62
     7
 48
0.000045
100
AcDbLine
 10
8.041859
 20
0.528135
 30
0.0
 11
8.0404
 21
0.527097
 31
0.0
210
0.0
220
0.0
230
1.0
  0
LINE
  5
471
100
AcDbEntity
  8
0
370
     5
390
0
 62
     7
 48
0.000045
100
AcDbLine
 10
8.0404
 20
0.527097
 30
0.0
 11
8.039021
 21
0.52592
 31
0.0
210
0.0
220
0.0
230
1.0
  0
LINE
  5
472
100
AcDbEntity
  8
0
370
     5
390
0
 62
     7
 48
0.000046
100
AcDbLine
 10
8.039021
 20
0.52592
 30
0.0
 11
8.037725
 21
0.524604
 31
0.0
210
0.0
220
0.0
230
1.0
  0
LINE
  5
473
100
AcDbEntity
  8
0
370
     5
390
0
 62
     7
 48
0.000077
100
AcDbLine
 10
8.037725
 20
0.524604
 30
0.0
 11
8.03978
 21
0.522333
 31
0.0
210
0.0
220
0.0
230
1.0
  0
LINE
  5
474
100
AcDbEntity
  8
0
370
     5
390
0
 62
     7
 48
0.000044
100
AcDbLine
 10
8.03978
 20
0.522333
 30
0.0
 11
8.041057
 21
0.523526
 31
0.0
210
0.0
220
0.0
230
1.0
  0
LINE
  5
475
100
AcDbEntity
  8
0
370
     5
390
0
 62
     7
 48
0.000042
100
AcDbLine
 10
8.041057
 20
0.523526
 30
0.0
 11
8.042372
 21
0.524592
 31
0.0
210
0.0
220
0.0
230
1.0
  0
LINE
  5
476
100
AcDbEntity
  8
0
370
     5
390
0
 62
     7
 48
0.000041
100
AcDbLine
 10
8.042372
 20
0.524592
 30
0.0
 11
8.04373
 21
0.525533
 31
0.0
210
0.0
220
0.0
230
1.0
  0
LINE
  5
477
100
AcDbEntity
  8
0
370
     5
390
0
 62
     7
 48
0.000041
100
AcDbLine
 10
8.04373
 20
0.525533
 30
0.0
 11
8.045129
 21
0.526349
 31
0.0
210
0.0
220
0.0
230
1.0
  0
LINE
  5
478
100
AcDbEntity
  8
0
370
     5
390
0
 62
     7
 48
0.00004
100
AcDbLine
 10
8.045129
 20
0.526349
 30
0.0
 11
8.046567
 21
0.527039
 31
0.0
210
0.0
220
0.0
230
1.0
  0
LINE
  5
479
100
AcDbEntity
  8
0
370
     5
390
0
 62
     7
 48
0.00004
100
AcDbLine
 10
8.046567
 20
0.527039
 30
0.0
 11
8.048048
 21
0.527603
 31
0.0
210
0.0
220
0.0
230
1.0
  0
LINE
  5
47A
100
AcDbEntity
  8
0
370
     5
390
0
 62
     7
 48
0.00004
100
AcDbLine
 10
8.048048
 20
0.527603
 30
0.0
 11
8.049571
 21
0.528042
 31
0.0
210
0.0
220
0.0
230
1.0
  0
LINE
  5
47B
100
AcDbEntity
  8
0
370
     5
390
0
 62
     7
 48
0.00004
100
AcDbLine
 10
8.049571
 20
0.528042
 30
0.0
 11
8.051134
 21
0.528356
 31
0.0
210
0.0
220
0.0
230
1.0
  0
LINE
  5
47C
100
AcDbEntity
  8
0
370
     5
390
0
 62
     7
 48
0.00004
100
AcDbLine
 10
8.051134
 20
0.528356
 30
0.0
 11
8.052737
 21
0.528543
 31
0.0
210
0.0
220
0.0
230
1.0
  0
LINE
  5
47D
100
AcDbEntity
  8
0
370
     5
390
0
 62
     7
 48
0.000041
100
AcDbLine
 10
8.052737
 20
0.528543
 30
0.0
 11
8.054382
 21
0.528606
 31
0.0
210
0.0
220
0.0
230
1.0
  0
LINE
  5
47E
100
AcDbEntity
  8
0
370
     5
390
0
 62
     7
 48
0.001163
100
AcDbLine
 10
8.054382
 20
0.528606
 30
0.0
 11
8.054382
 21
0.482097
 31
0.0
210
0.0
220
0.0
230
1.0
  0
LINE
  5
47F
100
AcDbEntity
  8
0
370
     5
390
0
 62
     7
 48
0.000564
100
AcDbLine
 10
8.054382
 20
0.482097
 30
0.0
 11
8.036753
 21
0.468038
 31
0.0
210
0.0
220
0.0
230
1.0
  0
LINE
  5
480
100
AcDbEntity
  8
0
370
     5
390
0
 62
     7
 48
0.001328
100
AcDbLine
 10
8.036753
 20
0.468038
 30
0.0
 11
8.089859
 21
0.468038
 31
0.0
210
0.0
220
0.0
230
1.0
  0
LINE
  5
481
100
AcDbEntity
  8
0
370
     5
390
0
 62
     7
 48
0.000493
100
AcDbLine
 10
8.089859
 20
0.468038
 30
0.0
 11
8.076014
 21
0.482097
 31
0.0
210
0.0
220
0.0
230
1.0
  0
LINE
  5
482
100
AcDbEntity
  8
0
370
     5
390
0
 62
     7
 48
0.001363
100
AcDbLine
 10
8.076014
 20
0.482097
 30
0.0
 11
8.076014
 21
0.53661
 31
0.0
210
0.0
220
0.0
230
1.0
  0
LINE
  5
483
100
AcDbEntity
  8
0
370
     5
390
0
 62
     7
 48
0.000619
100
AcDbLine
 10
8.076014
 20
0.53661
 30
0.0
 11
8.100782
 21
0.53661
 31
0.0
210
0.0
220
0.0
230
1.0
  0
LINE
  5
484
100
AcDbEntity
  8
0
370
     5
390
0
 62
     7
 48
0.000639
100
AcDbLine
 10
8.100782
 20
0.53661
 30
0.0
 11
8.118953
 21
0.518655
 31
0.0
210
0.0
220
0.0
230
1.0
  0
LINE
  5
485
100
AcDbEntity
  8
0
370
     5
390
0
 62
     7
 48
0.001133
100
AcDbLine
 10
8.118953
 20
0.518655
 30
0.0
 11
8.118953
 21
0.563975
 31
0.0
210
0.0
220
0.0
230
1.0
  0
LINE
  5
486
100
AcDbEntity
  8
0
370
     5
390
0
 62
     7
 48
0.000629
100
AcDbLine
 10
8.118953
 20
0.563975
 30
0.0
 11
8.101647
 21
0.545696
 31
0.0
210
0.0
220
0.0
230
1.0
  0
LINE
  5
487
100
AcDbEntity
  8
0
370
     5
390
0
 62
     7
 48
0.000408
100
AcDbLine
 10
8.101647
 20
0.545696
 30
0.0
 11
8.085316
 21
0.545696
 31
0.0
210
0.0
220
0.0
230
1.0
  0
LINE
  5
488
100
AcDbEntity
  8
0
370
     5
390
0
 62
     7
 48
0.001044
100
AcDbLine
 10
8.085316
 20
0.545696
 30
0.0
 11
8.085316
 21
0.587445
 31
0.0
210
0.0
220
0.0
230
1.0
  0
LINE
  5
489
100
AcDbEntity
  8
0
370
     5
390
0
 62
     7
 48
0.000067
100
AcDbLine
 10
8.085316
 20
0.587445
 30
0.0
 11
8.087994
 21
0.58764
 31
0.0
210
0.0
220
0.0
230
1.0
  0
LINE
  5
48A
100
AcDbEntity
  8
0
370
     5
390
0
 62
     7
 48
0.000063
100
AcDbLine
 10
8.087994
 20
0.58764
 30
0.0
 11
8.090491
 21
0.587792
 31
0.0
210
0.0
220
0.0
230
1.0
  0
LINE
  5
48B
100
AcDbEntity
  8
0
370
     5
390
0
 62
     7
 48
0.000058
100
AcDbLine
 10
8.090491
 20
0.587792
 30
0.0
 11
8.092805
 21
0.5879
 31
0.0
210
0.0
220
0.0
230
1.0
  0
LINE
  5
48C
100
AcDbEntity
  8
0
370
     5
390
0
 62
     7
 48
0.000053
100
AcDbLine
 10
8.092805
 20
0.5879
 30
0.0
 11
8.094938
 21
0.587964
 31
0.0
210
0.0
220
0.0
230
1.0
  0
LINE
  5
48D
100
AcDbEntity
  8
0
370
     5
390
0
 62
     7
 48
0.000049
100
AcDbLine
 10
8.094938
 20
0.587964
 30
0.0
 11
8.09689
 21
0.587987
 31
0.0
210
0.0
220
0.0
230
1.0
  0
LINE
  5
48E
100
AcDbEntity
  8
0
370
     5
390
0
 62
     7
 48
0.000063
100
AcDbLine
 10
8.09689
 20
0.587987
 30
0.0
 11
8.099417
 21
0.587969
 31
0.0
210
0.0
220
0.0
230
1.0
  0
LINE
  5
48F
100
AcDbEntity
  8
0
370
     5
390
0
 62
     7
 48
0.00006
100
AcDbLine
 10
8.099417
 20
0.587969
 30
0.0
 11
8.101811
 21
0.587915
 31
0.0
210
0.0
220
0.0
230
1.0
  0
LINE
  5
490
100
AcDbEntity
  8
0
370
     5
390
0
 62
     7
 48
0.000056
100
AcDbLine
 10
8.101811
 20
0.587915
 30
0.0
 11
8.104068
 21
0.587826
 31
0.0
210
0.0
220
0.0
230
1.0
  0
LINE
  5
491
100
AcDbEntity
  8
0
370
     5
390
0
 62
     7
 48
0.000053
100
AcDbLine
 10
8.104068
 20
0.587826
 30
0.0
 11
8.106191
 21
0.5877
 31
0.0
210
0.0
220
0.0
230
1.0
  0
LINE
  5
492
100
AcDbEntity
  8
0
370
     5
390
0
 62
     7
 48
0.00005
100
AcDbLine
 10
8.106191
 20
0.5877
 30
0.0
 11
8.108179
 21
0.58754
 31
0.0
210
0.0
220
0.0
230
1.0
  0
LINE
  5
493
100
AcDbEntity
  8
0
370
     5
390
0
 62
     7
 48
0.000047
100
AcDbLine
 10
8.108179
 20
0.58754
 30
0.0
 11
8.110031
 21
0.587343
 31
0.0
210
0.0
220
0.0
230
1.0
  0
LINE
  5
494
100
AcDbEntity
  8
0
370
     5
390
0
 62
     7
 48
0.000043
100
AcDbLine
 10
8.110031
 20
0.587343
 30
0.0
 11
8.111747
 21
0.587112
 31
0.0
210
0.0
220
0.0
230
1.0
  0
LINE
  5
495
100
AcDbEntity
  8
0
370
     5
390
0
 62
     7
 48
0.00004
100
AcDbLine
 10
8.111747
 20
0.587112
 30
0.0
 11
8.113329
 21
0.586844
 31
0.0
210
0.0
220
0.0
230
1.0
  0
LINE
  5
496
100
AcDbEntity
  8
0
370
     5
390
0
 62
     7
 48
0.000071
100
AcDbLine
 10
8.113329
 20
0.586844
 30
0.0
 11
8.116087
 21
0.586202
 31
0.0
210
0.0
220
0.0
230
1.0
  0
LINE
  5
497
100
AcDbEntity
  8
0
370
     5
390
0
 62
     7
 48
0.000065
100
AcDbLine
 10
8.116087
 20
0.586202
 30
0.0
 11
8.118538
 21
0.585356
 31
0.0
210
0.0
220
0.0
230
1.0
  0
LINE
  5
498
100
AcDbEntity
  8
0
370
     5
390
0
 62
     7
 48
0.000066
100
AcDbLine
 10
8.118538
 20
0.585356
 30
0.0
 11
8.120915
 21
0.584246
 31
0.0
210
0.0
220
0.0
230
1.0
  0
LINE
  5
499
100
AcDbEntity
  8
0
370
     5
390
0
 62
     7
 48
0.000067
100
AcDbLine
 10
8.120915
 20
0.584246
 30
0.0
 11
8.123219
 21
0.582873
 31
0.0
210
0.0
220
0.0
230
1.0
  0
LINE
  5
49A
100
AcDbEntity
  8
0
370
     5
390
0
 62
     7
 48
0.000069
100
AcDbLine
 10
8.123219
 20
0.582873
 30
0.0
 11
8.125449
 21
0.581235
 31
0.0
210
0.0
220
0.0
230
1.0
  0
LINE
  5
49B
100
AcDbEntity
  8
0
370
     5
390
0
 62
     7
 48
0.000072
100
AcDbLine
 10
8.125449
 20
0.581235
 30
0.0
 11
8.127607
 21
0.579333
 31
0.0
210
0.0
220
0.0
230
1.0
  0
LINE
  5
49C
100
AcDbEntity
  8
0
370
     5
390
0
 62
     7
 48
0.000063
100
AcDbLine
 10
8.127607
 20
0.579333
 30
0.0
 11
8.126338
 21
0.581511
 31
0.0
210
0.0
220
0.0
230
1.0
  0
LINE
  5
49D
100
AcDbEntity
  8
0
370
     5
390
0
 62
     7
 48
0.000063
100
AcDbLine
 10
8.126338
 20
0.581511
 30
0.0
 11
8.124737
 21
0.583461
 31
0.0
210
0.0
220
0.0
230
1.0
  0
LINE
  5
49E
100
AcDbEntity
  8
0
370
     5
390
0
 62
     7
 48
0.000065
100
AcDbLine
 10
8.124737
 20
0.583461
 30
0.0
 11
8.122807
 21
0.58518
 31
0.0
210
0.0
220
0.0
230
1.0
  0
LINE
  5
49F
100
AcDbEntity
  8
0
370
     5
390
0
 62
     7
 48
0.000068
100
AcDbLine
 10
8.122807
 20
0.58518
 30
0.0
 11
8.120546
 21
0.586671
 31
0.0
210
0.0
220
0.0
230
1.0
  0
LINE
  5
4A0
100
AcDbEntity
  8
0
370
     5
390
0
 62
     7
 48
0.000072
100
AcDbLine
 10
8.120546
 20
0.586671
 30
0.0
 11
8.117954
 21
0.587933
 31
0.0
210
0.0
220
0.0
230
1.0
  0
LINE
  5
4A1
100
AcDbEntity
  8
0
370
     5
390
0
 62
     7
 48
0.000078
100
AcDbLine
 10
8.117954
 20
0.587933
 30
0.0
 11
8.115029
 21
0.588965
 31
0.0
210
0.0
220
0.0
230
1.0
  0
LINE
  5
4A2
100
AcDbEntity
  8
0
370
     5
390
0
 62
     7
 48
0.000084
100
AcDbLine
 10
8.115029
 20
0.588965
 30
0.0
 11
8.111775
 21
0.589767
 31
0.0
210
0.0
220
0.0
230
1.0
  0
LINE
  5
4A3
100
AcDbEntity
  8
0
370
     5
390
0
 62
     7
 48
0.000091
100
AcDbLine
 10
8.111775
 20
0.589767
 30
0.0
 11
8.108189
 21
0.59034
 31
0.0
210
0.0
220
0.0
230
1.0
  0
LINE
  5
4A4
100
AcDbEntity
  8
0
370
     5
390
0
 62
     7
 48
0.000098
100
AcDbLine
 10
8.108189
 20
0.59034
 30
0.0
 11
8.104273
 21
0.590684
 31
0.0
210
0.0
220
0.0
230
1.0
  0
LINE
  5
4A5
100
AcDbEntity
  8
0
370
     5
390
0
 62
     7
 48
0.000106
100
AcDbLine
 10
8.104273
 20
0.590684
 30
0.0
 11
8.100026
 21
0.590798
 31
0.0
210
0.0
220
0.0
230
1.0
  0
LINE
  5
4A6
100
AcDbEntity
  8
0
370
     5
390
0
 62
     7
 48
0.000075
100
AcDbLine
 10
8.100026
 20
0.590798
 30
0.0
 11
8.097032
 21
0.590786
 31
0.0
210
0.0
220
0.0
230
1.0
  0
LINE
  5
4A7
100
AcDbEntity
  8
0
370
     5
390
0
 62
     7
 48
0.000073
100
AcDbLine
 10
8.097032
 20
0.590786
 30
0.0
 11
8.094107
 21
0.590747
 31
0.0
210
0.0
220
0.0
230
1.0
  0
LINE
  5
4A8
100
AcDbEntity
  8
0
370
     5
390
0
 62
     7
 48
0.000071
100
AcDbLine
 10
8.094107
 20
0.590747
 30
0.0
 11
8.091251
 21
0.590682
 31
0.0
210
0.0
220
0.0
230
1.0
  0
LINE
  5
4A9
100
AcDbEntity
  8
0
370
     5
390
0
 62
     7
 48
0.00007
100
AcDbLine
 10
8.091251
 20
0.590682
 30
0.0
 11
8.088465
 21
0.590591
 31
0.0
210
0.0
220
0.0
230
1.0
  0
LINE
  5
4AA
100
AcDbEntity
  8
0
370
     5
390
0
 62
     7
 48
0.000068
100
AcDbLine
 10
8.088465
 20
0.590591
 30
0.0
 11
8.085749
 21
0.590474
 31
0.0
210
0.0
220
0.0
230
1.0
  0
LINE
  5
4AB
100
AcDbEntity
  8
0
370
     5
390
0
 62
     7
 48
0.000078
100
AcDbLine
 10
8.085749
 20
0.590474
 30
0.0
 11
8.082612
 21
0.590366
 31
0.0
210
0.0
220
0.0
230
1.0
  0
LINE
  5
4AC
100
AcDbEntity
  8
0
370
     5
390
0
 62
     7
 48
0.001117
100
AcDbLine
 10
8.082612
 20
0.590366
 30
0.0
 11
8.082612
 21
0.545696
 31
0.0
210
0.0
220
0.0
230
1.0
  0
LINE
  5
4AD
100
AcDbEntity
  8
0
370
     5
390
0
 62
     7
 48
0.000165
100
AcDbLine
 10
8.082612
 20
0.545696
 30
0.0
 11
8.076014
 21
0.545696
 31
0.0
210
0.0
220
0.0
230
1.0
  0
LINE
  5
4AE
100
AcDbEntity
  8
0
370
     5
390
0
 62
     7
 48
0.001265
100
AcDbLine
 10
8.076014
 20
0.545696
 30
0.0
 11
8.076014
 21
0.596315
 31
0.0
210
0.0
220
0.0
230
1.0
  0
LINE
  5
4AF
100
AcDbEntity
  8
0
370
     5
390
0
 62
     7
 48
0.0001
100
AcDbLine
 10
8.076014
 20
0.596315
 30
0.0
 11
8.080016
 21
0.596207
 31
0.0
210
0.0
220
0.0
230
1.0
  0
LINE
  5
4B0
100
AcDbEntity
  8
0
370
     5
390
0
 62
     7
 48
0.000262
100
AcDbLine
 10
8.080016
 20
0.596207
 30
0.0
 11
8.090507
 21
0.596099
 31
0.0
210
0.0
220
0.0
230
1.0
  0
LINE
  5
4B1
100
AcDbEntity
  8
0
370
     5
390
0
 62
     7
 48
0.000154
100
AcDbLine
 10
8.090507
 20
0.596099
 30
0.0
 11
8.096672
 21
0.596207
 31
0.0
210
0.0
220
0.0
230
1.0
  0
LINE
  5
4B2
100
AcDbEntity
  8
0
370
     5
390
0
 62
     7
 48
0.00008
100
AcDbLine
 10
8.096672
 20
0.596207
 30
0.0
 11
8.099887
 21
0.596163
 31
0.0
210
0.0
220
0.0
230
1.0
  0
LINE
  5
4B3
100
AcDbEntity
  8
0
370
     5
390
0
 62
     7
 48
0.000076
100
AcDbLine
 10
8.099887
 20
0.596163
 30
0.0
 11
8.102909
 21
0.596033
 31
0.0
210
0.0
220
0.0
230
1.0
  0
LINE
  5
4B4
100
AcDbEntity
  8
0
370
     5
390
0
 62
     7
 48
0.000071
100
AcDbLine
 10
8.102909
 20
0.596033
 30
0.0
 11
8.10574
 21
0.595817
 31
0.0
210
0.0
220
0.0
230
1.0
  0
LINE
  5
4B5
100
AcDbEntity
  8
0
370
     5
390
0
 62
     7
 48
0.000066
100
AcDbLine
 10
8.10574
 20
0.595817
 30
0.0
 11
8.108379
 21
0.595514
 31
0.0
210
0.0
220
0.0
230
1.0
  0
LINE
  5
4B6
100
AcDbEntity
  8
0
370
     5
390
0
 62
     7
 48
0.000062
100
AcDbLine
 10
8.108379
 20
0.595514
 30
0.0
 11
8.110827
 21
0.595125
 31
0.0
210
0.0
220
0.0
230
1.0
  0
LINE
  5
4B7
100
AcDbEntity
  8
0
370
     5
390
0
 62
     7
 48
0.000058
100
AcDbLine
 10
8.110827
 20
0.595125
 30
0.0
 11
8.113085
 21
0.594648
 31
0.0
210
0.0
220
0.0
230
1.0
  0
LINE
  5
4B8
100
AcDbEntity
  8
0
370
     5
390
0
 62
     7
 48
0.000054
100
AcDbLine
 10
8.113085
 20
0.594648
 30
0.0
 11
8.11515
 21
0.594086
 31
0.0
210
0.0
220
0.0
230
1.0
  0
LINE
  5
4B9
100
AcDbEntity
  8
0
370
     5
390
0
 62
     7
 48
0.00005
100
AcDbLine
 10
8.11515
 20
0.594086
 30
0.0
 11
8.117024
 21
0.593438
 31
0.0
210
0.0
220
0.0
230
1.0
  0
LINE
  5
4BA
100
AcDbEntity
  8
0
370
     5
390
0
 62
     7
 48
0.000046
100
AcDbLine
 10
8.117024
 20
0.593438
 30
0.0
 11
8.118707
 21
0.592701
 31
0.0
210
0.0
220
0.0
230
1.0
  0
LINE
  5
4BB
100
AcDbEntity
  8
0
370
     5
390
0
 62
     7
 48
0.000043
100
AcDbLine
 10
8.118707
 20
0.592701
 30
0.0
 11
8.120198
 21
0.591881
 31
0.0
210
0.0
220
0.0
230
1.0
  0
LINE
  5
4BC
100
AcDbEntity
  8
0
370
     5
390
0
 62
     7
 48
0.000043
100
AcDbLine
 10
8.120198
 20
0.591881
 30
0.0
 11
8.121594
 21
0.59091
 31
0.0
210
0.0
220
0.0
230
1.0
  0
LINE
  5
4BD
100
AcDbEntity
  8
0
370
     5
390
0
 62
     7
 48
0.000046
100
AcDbLine
 10
8.121594
 20
0.59091
 30
0.0
 11
8.122994
 21
0.589734
 31
0.0
210
0.0
220
0.0
230
1.0
  0
LINE
  5
4BE
100
AcDbEntity
  8
0
370
     5
390
0
 62
     7
 48
0.000049
100
AcDbLine
 10
8.122994
 20
0.589734
 30
0.0
 11
8.124398
 21
0.58835
 31
0.0
210
0.0
220
0.0
230
1.0
  0
LINE
  5
4BF
100
AcDbEntity
  8
0
370
     5
390
0
 62
     7
 48
0.000053
100
AcDbLine
 10
8.124398
 20
0.58835
 30
0.0
 11
8.125804
 21
0.586758
 31
0.0
210
0.0
220
0.0
230
1.0
  0
LINE
  5
4C0
100
AcDbEntity
  8
0
370
     5
390
0
 62
     7
 48
0.000057
100
AcDbLine
 10
8.125804
 20
0.586758
 30
0.0
 11
8.127215
 21
0.584958
 31
0.0
210
0.0
220
0.0
230
1.0
  0
LINE
  5
4C1
100
AcDbEntity
  8
0
370
     5
390
0
 62
     7
 48
0.000061
100
AcDbLine
 10
8.127215
 20
0.584958
 30
0.0
 11
8.128628
 21
0.582951
 31
0.0
210
0.0
220
0.0
230
1.0
  0
LINE
  5
4C2
100
AcDbEntity
  8
0
370
     5
390
0
 62
     7
 48
0.000066
100
AcDbLine
 10
8.128628
 20
0.582951
 30
0.0
 11
8.130044
 21
0.580736
 31
0.0
210
0.0
220
0.0
230
1.0
  0
LINE
  5
4C3
100
AcDbEntity
  8
0
370
     5
390
0
 62
     7
 48
0.00007
100
AcDbLine
 10
8.130044
 20
0.580736
 30
0.0
 11
8.131463
 21
0.578313
 31
0.0
210
0.0
220
0.0
230
1.0
  0
LINE
  5
4C4
100
AcDbEntity
  8
0
370
     5
390
0
 62
     7
 48
0.000075
100
AcDbLine
 10
8.131463
 20
0.578313
 30
0.0
 11
8.132887
 21
0.575682
 31
0.0
210
0.0
220
0.0
230
1.0
  0
LINE
  5
4C5
100
AcDbEntity
  8
0
370
     5
390
0
 62
     7
 48
0.000079
100
AcDbLine
 10
8.132887
 20
0.575682
 30
0.0
 11
8.134311
 21
0.572844
 31
0.0
210
0.0
220
0.0
230
1.0
  0
LINE
  5
4C6
100
AcDbEntity
  8
0
370
     5
390
0
 62
     7
 48
0.000058
100
AcDbLine
 10
8.134311
 20
0.572844
 30
0.0
 11
8.135177
 21
0.575007
 31
0.0
210
0.0
220
0.0
230
1.0
  0
LINE
  5
4C7
100
AcDbEntity
  8
0
370
     5
390
0
 62
     7
 48
0.000059
100
AcDbLine
 10
8.135177
 20
0.575007
 30
0.0
 11
8.136049
 21
0.577196
 31
0.0
210
0.0
220
0.0
230
1.0
  0
LINE
  5
4C8
100
AcDbEntity
  8
0
370
     5
390
0
 62
     7
 48
0.000056
100
AcDbLine
 10
8.136049
 20
0.577196
 30
0.0
 11
8.136889
 21
0.57926
 31
0.0
210
0.0
220
0.0
230
1.0
  0
LINE
  5
4C9
100
AcDbEntity
  8
0
370
     5
390
0
 62
     7
 48
0.000053
100
AcDbLine
 10
8.136889
 20
0.57926
 30
0.0
 11
8.137697
 21
0.581201
 31
0.0
210
0.0
220
0.0
230
1.0
  0
LINE
  5
4CA
100
AcDbEntity
  8
0
370
     5
390
0
 62
     7
 48
0.000049
100
AcDbLine
 10
8.137697
 20
0.581201
 30
0.0
 11
8.138474
 21
0.583019
 31
0.0
210
0.0
220
0.0
230
1.0
  0
LINE
  5
4CB
100
AcDbEntity
  8
0
370
     5
390
0
 62
     7
 48
0.000046
100
AcDbLine
 10
8.138474
 20
0.583019
 30
0.0
 11
8.13922
 21
0.584714
 31
0.0
210
0.0
220
0.0
230
1.0
  0
LINE
  5
4CC
100
AcDbEntity
  8
0
370
     5
390
0
 62
     7
 48
0.000043
100
AcDbLine
 10
8.13922
 20
0.584714
 30
0.0
 11
8.139935
 21
0.586286
 31
0.0
210
0.0
220
0.0
230
1.0
  0
LINE
  5
4CD
100
AcDbEntity
  8
0
370
     5
390
0
 62
     7
 48
0.00004
100
AcDbLine
 10
8.139935
 20
0.586286
 30
0.0
 11
8.140617
 21
0.587735
 31
0.0
210
0.0
220
0.0
230
1.0
  0
LINE
  5
4CE
100
AcDbEntity
  8
0
370
     5
390
0
 62
     7
 48
0.000071
100
AcDbLine
 10
8.140617
 20
0.587735
 30
0.0
 11
8.14189
 21
0.590261
 31
0.0
210
0.0
220
0.0
230
1.0
  0
LINE
  5
4CF
100
AcDbEntity
  8
0
370
     5
390
0
 62
     7
 48
0.000061
100
AcDbLine
 10
8.14189
 20
0.590261
 30
0.0
 11
8.143089
 21
0.592394
 31
0.0
210
0.0
220
0.0
230
1.0
  0
LINE
  5
4D0
100
AcDbEntity
  8
0
370
     5
390
0
 62
     7
 48
0.000069
100
AcDbLine
 10
8.143089
 20
0.592394
 30
0.0
 11
8.144543
 21
0.594729
 31
0.0
210
0.0
220
0.0
230
1.0
  0
LINE
  5
4D1
100
AcDbEntity
  8
0
370
     5
390
0
 62
     7
 48
0.000038
100
AcDbLine
 10
8.144543
 20
0.594729
 30
0.0
 11
8.145386
 21
0.596012
 31
0.0
210
0.0
220
0.0
230
1.0
  0
LINE
  5
4D2
100
AcDbEntity
  8
0
370
     5
390
0
 62
     7
 48
0.000041
100
AcDbLine
 10
8.145386
 20
0.596012
 30
0.0
 11
8.146304
 21
0.597369
 31
0.0
210
0.0
220
0.0
230
1.0
  0
LINE
  5
4D3
100
AcDbEntity
  8
0
370
     5
390
0
 62
     7
 48
0.000044
100
AcDbLine
 10
8.146304
 20
0.597369
 30
0.0
 11
8.1473
 21
0.598802
 31
0.0
210
0.0
220
0.0
230
1.0
  0
LINE
  5
4D4
100
AcDbEntity
  8
0
370
     5
390
0
 62
     7
 48
0.000046
100
AcDbLine
 10
8.1473
 20
0.598802
 30
0.0
 11
8.148372
 21
0.600311
 31
0.0
210
0.0
220
0.0
230
1.0
  0
LINE
  5
4D5
100
AcDbEntity
  8
0
370
     5
390
0
 62
     7
 48
0.000049
100
AcDbLine
 10
8.148372
 20
0.600311
 30
0.0
 11
8.149522
 21
0.601895
 31
0.0
210
0.0
220
0.0
230
1.0
  0
LINE
  5
4D6
100
AcDbEntity
  8
0
370
     5
390
0
 62
     7
 48
0.000052
100
AcDbLine
 10
8.149522
 20
0.601895
 30
0.0
 11
8.150747
 21
0.603555
 31
0.0
210
0.0
220
0.0
230
1.0
  0
LINE
  5
4D7
100
AcDbEntity
  8
0
370
     5
390
0
 62
     7
 48
0.000054
100
AcDbLine
 10
8.150747
 20
0.603555
 30
0.0
 11
8.152051
 21
0.605292
 31
0.0
210
0.0
220
0.0
230
1.0
  0
LINE
  5
4D8
100
AcDbEntity
  8
0
370
     5
390
0
 62
     7
 48
0.002807
100
AcDbLine
 10
8.152051
 20
0.605292
 30
0.0
 11
8.03978
 21
0.605292
 31
0.0
210
0.0
220
0.0
230
1.0
  0
ENDBLK
  5
4D9
100
AcDbEntity
  8
0
390
0
100
AcDbBlockEnd
  0
BLOCK
  5
4DA
100
AcDbEntity
  8
0
370
     0
390
0
100
AcDbBlockBegin
  2
BLOCK6
 70
     0
 10
0.0
 20
0.0
 30
0.0
  3
BLOCK6
  1

  0
TEXT
  5
4DB
100
AcDbEntity
  8
0
370
    13
390
0
 62
     7
 48
0.03937
100
AcDbText
 10
-2.772612
 20
-2.171254
 30
0.0
 40
0.117683
  1
0.5-13
 72
     5
 11
-2.333853
 21
-2.171254
 31
0.0
100
AcDbText
  0
TEXT
  5
4DC
100
AcDbEntity
  8
0
370
    13
390
0
 62
     7
 48
0.03937
100
AcDbText
 10
-2.333853
 20
-2.171254
 30
0.0
 40
0.117683
  1
 X 
 72
     5
 11
-2.118045
 21
-2.171254
 31
0.0
100
AcDbText
  0
TEXT
  5
4DD
100
AcDbEntity
  8
0
370
    13
390
0
 62
     7
 48
0.03937
100
AcDbText
 10
-2.118045
 20
-2.171254
 30
0.0
 40
0.117683
  1
0.88in
 72
     5
 11
-1.680646
 21
-2.171254
 31
0.0
100
AcDbText
  0
POLYLINE
  5
4DE
100
AcDbEntity
  8
0
370
    13
390
0
 62
     7
 48
0.03937
100
AcDb2dPolyline
 66
     1
 10
0.0
 20
0.0
 30
0.0
 71
     3
  0
VERTEX
  5
4DF
100
AcDbEntity
  8
0
370
     0
390
0
100
AcDbVertex
100
AcDb2dVertex
 10
-1.045372
 20
-1.100509
 30
0.0
  0
VERTEX
  5
4E0
100
AcDbEntity
  8
0
370
     0
390
0
100
AcDbVertex
100
AcDb2dVertex
 10
-1.38965
 20
-2.111138
 30
0.0
  0
VERTEX
  5
4E1
100
AcDbEntity
  8
0
370
     0
390
0
100
AcDbVertex
100
AcDb2dVertex
 10
-1.5865
 20
-2.111138
 30
0.0
  0
SEQEND
  5
4E2
100
AcDbEntity
  8
0
370
     0
390
0
  0
SOLID
  5
4E3
100
AcDbEntity
  8
0
370
    13
390
0
 62
     7
 48
0.03937
100
AcDbTrace
 10
-1.084756
 20
-1.339714
 30
0.0
 11
-1.045372
 21
-1.100509
 31
0.0
 12
-1.160207
 22
-1.314012
 32
0.0
 13
-1.160207
 23
-1.314012
 33
0.0
  0
ENDBLK
  5
4E4
100
AcDbEntity
  8
0
390
0
100
AcDbBlockEnd
  0
BLOCK
  5
4E5
100
AcDbEntity
  8
0
370
     0
390
0
100
AcDbBlockBegin
  2
BLOCK7
 70
     0
 10
0.0
 20
0.0
 30
0.0
  3
BLOCK7
  1

  0
TEXT
  5
4E6
100
AcDbEntity
  8
0
370
    13
390
0
 62
     7
 48
0.03937
100
AcDbText
 10
-2.77373
 20
-1.96666
 30
0.0
 40
0.117683
  1
4
 72
     5
 11
-2.688699
 21
-1.96666
 31
0.0
100
AcDbText
  0
TEXT
  5
4E7
100
AcDbEntity
  8
0
370
    13
390
0
 62
     7
 48
0.03937
100
AcDbText
 10
-2.688699
 20
-1.96666
 30
0.0
 40
0.117683
  1
X
 72
     5
 11
-2.557922
 21
-1.96666
 31
0.0
100
AcDbText
  0
ENDBLK
  5
4E8
100
AcDbEntity
  8
0
390
0
100
AcDbBlockEnd
  0
BLOCK
  5
4E9
100
AcDbEntity
  8
0
370
     0
390
0
100
AcDbBlockBegin
  2
BLOCK8
 70
     0
 10
0.0
 20
0.0
 30
0.0
  3
BLOCK8
  1

  0
SOLID
  5
4EA
100
AcDbEntity
  8
0
370
    13
390
0
 62
     7
 48
0.03937
100
AcDbTrace
 10
1.66091
 20
1.308626
 30
0.0
 11
1.494394
 21
1.132436
 31
0.0
 12
1.66091
 22
1.308626
 32
0.0
 13
1.709052
 23
1.245097
 33
0.0
  0
TEXT
  5
4EB
100
AcDbEntity
  8
0
370
    13
390
0
 62
     7
 48
0.03937
100
AcDbText
 10
2.491404
 20
1.42282
 30
0.0
 40
0.117683
  1
3.75
 72
     5
 11
2.789011
 21
1.42282
 31
0.0
100
AcDbText
  0
TEXT
  5
4EC
100
AcDbEntity
  8
0
370
    13
390
0
 62
     7
 48
0.03937
100
AcDbText
 10
2.789012
 20
1.42282
 30
0.0
 40
0.117683
  1
"
 72
     5
 11
2.875312
 21
1.42282
 31
0.0
100
AcDbText
  0
TEXT
  5
4ED
100
AcDbEntity
  8
0
370
    13
390
0
 62
     7
 48
0.03937
100
AcDbText
 10
2.254155
 20
1.42282
 30
0.0
 40
0.117683
  1
%%c
 72
     5
 11
2.371838
 21
1.42282
 31
0.0
100
AcDbText
  0
LINE
  5
4EE
100
AcDbEntity
  8
0
370
    13
390
0
 62
     7
 48
0.005082
100
AcDbLine
 10
1.955241
 20
1.481662
 30
0.0
 11
2.158503
 21
1.481662
 31
0.0
210
0.0
220
0.0
230
1.0
  0
LINE
  5
4EF
100
AcDbEntity
  8
0
370
    13
390
0
 62
     7
 48
0.008477
100
AcDbLine
 10
1.684981
 20
1.276861
 30
0.0
 11
1.955241
 21
1.481662
 31
0.0
210
0.0
220
0.0
230
1.0
  0
POLYLINE
  5
4F0
100
AcDbEntity
  8
0
370
    13
390
0
 62
     7
 48
0.03937
100
AcDb2dPolyline
 66
     1
 10
0.0
 20
0.0
 30
0.0
 70
     1
 71
     3
  0
VERTEX
  5
4F1
100
AcDbEntity
  8
0
370
     0
390
0
100
AcDbVertex
100
AcDb2dVertex
 10
1.66091
 20
1.308626
 30
0.0
  0
VERTEX
  5
4F2
100
AcDbEntity
  8
0
370
     0
390
0
100
AcDbVertex
100
AcDb2dVertex
 10
1.494394
 20
1.132436
 30
0.0
  0
VERTEX
  5
4F3
100
AcDbEntity
  8
0
370
     0
390
0
100
AcDbVertex
100
AcDb2dVertex
 10
1.709052
 20
1.245097
 30
0.0
  0
SEQEND
  5
4F4
100
AcDbEntity
  8
0
370
     0
390
0
  0
ENDBLK
  5
4F5
100
AcDbEntity
  8
0
390
0
100
AcDbBlockEnd
  0
BLOCK
  5
4F6
100
AcDbEntity
  8
0
370
     0
390
0
100
AcDbBlockBegin
  2
BLOCK9
 70
     0
 10
0.0
 20
0.0
 30
0.0
  3
BLOCK9
  1

  0
SOLID
  5
4F7
100
AcDbEntity
  8
0
370
    13
390
0
 62
     7
 48
0.03937
100
AcDbTrace
 10
0.753489
 20
-1.354119
 30
0.0
 11
0.607317
 21
-1.160718
 31
0.0
 12
0.753489
 22
-1.354119
 32
0.0
 13
0.682864
 23
-1.391073
 33
0.0
  0
TEXT
  5
4F8
100
AcDbEntity
  8
0
370
    13
390
0
 62
     7
 48
0.03937
100
AcDbText
 10
1.609807
 20
-2.110818
 30
0.0
 40
0.117683
  1
2.62
 72
     5
 11
1.907415
 21
-2.110818
 31
0.0
100
AcDbText
  0
TEXT
  5
4F9
100
AcDbEntity
  8
0
370
    13
390
0
 62
     7
 48
0.03937
100
AcDbText
 10
1.907415
 20
-2.110818
 30
0.0
 40
0.117683
  1
"
 72
     5
 11
1.993716
 21
-2.110818
 31
0.0
100
AcDbText
  0
TEXT
  5
4FA
100
AcDbEntity
  8
0
370
    13
390
0
 62
     7
 48
0.03937
100
AcDbText
 10
1.372559
 20
-2.110818
 30
0.0
 40
0.117683
  1
%%c
 72
     5
 11
1.490242
 21
-2.110818
 31
0.0
100
AcDbText
  0
LINE
  5
4FB
100
AcDbEntity
  8
0
370
    13
390
0
 62
     7
 48
0.005082
100
AcDbLine
 10
1.073645
 20
-2.051976
 30
0.0
 11
1.276907
 21
-2.051976
 31
0.0
210
0.0
220
0.0
230
1.0
  0
LINE
  5
4FC
100
AcDbEntity
  8
0
370
    13
390
0
 62
     7
 48
0.019169
100
AcDbLine
 10
0.718176
 20
-1.372596
 30
0.0
 11
1.073645
 21
-2.051976
 31
0.0
210
0.0
220
0.0
230
1.0
  0
POLYLINE
  5
4FD
100
AcDbEntity
  8
0
370
    13
390
0
 62
     7
 48
0.03937
100
AcDb2dPolyline
 66
     1
 10
0.0
 20
0.0
 30
0.0
 70
     1
 71
     3
  0
VERTEX
  5
4FE
100
AcDbEntity
  8
0
370
     0
390
0
100
AcDbVertex
100
AcDb2dVertex
 10
0.753489
 20
-1.354119
 30
0.0
  0
VERTEX
  5
4FF
100
AcDbEntity
  8
0
370
     0
390
0
100
AcDbVertex
100
AcDb2dVertex
 10
0.607317
 20
-1.160718
 30
0.0
  0
VERTEX
  5
500
100
AcDbEntity
  8
0
370
     0
390
0
100
AcDbVertex
100
AcDb2dVertex
 10
0.682864
 20
-1.391073
 30
0.0
  0
SEQEND
  5
501
100
AcDbEntity
  8
0
370
     0
390
0
  0
ENDBLK
  5
502
100
AcDbEntity
  8
0
390
0
100
AcDbBlockEnd
  0
BLOCK
  5
503
100
AcDbEntity
  8
0
370
     0
390
0
100
AcDbBlockBegin
  2
BLOCK10
 70
     0
 10
0.0
 20
0.0
 30
0.0
  3
BLOCK10
  1

  0
LINE
  5
504
100
AcDbEntity
  8
0
370
    13
390
0
  6
DASHDOT
 62
     7
 48
0.03937
100
AcDbLine
 10
1.535502
 20
1.535502
 30
0.0
 11
0.317118
 21
0.317118
 31
0.0
210
0.0
220
0.0
230
1.0
  0
ARC
  5
505
100
AcDbEntity
  8
0
370
    13
390
0
  6
DASHDOT
 62
     7
 48
0.03937
100
AcDbCircle
 10
0.0
 20
0.0
 30
0.0
 40
1.31
210
0.0
220
0.0
230
1.0
100
AcDbArc
 50
7.319185
 51
82.680813
  0
ENDBLK
  5
506
100
AcDbEntity
  8
0
390
0
100
AcDbBlockEnd
  0
BLOCK
  5
507
100
AcDbEntity
  8
0
370
     0
390
0
100
AcDbBlockBegin
  2
BLOCK11
 70
     0
 10
0.0
 20
0.0
 30
0.0
  3
BLOCK11
  1

  0
LINE
  5
508
100
AcDbEntity
  8
0
370
    13
390
0
  6
DASHDOT
 62
     7
 48
0.03937
100
AcDbLine
 10
-1.604445
 20
1.604445
 30
0.0
 11
-0.248174
 21
0.248174
 31
0.0
210
0.0
220
0.0
230
1.0
  0
ARC
  5
509
100
AcDbEntity
  8
0
370
    13
390
0
  6
DASHDOT
 62
     7
 48
0.03937
100
AcDbCircle
 10
0.0
 20
0.0
 30
0.0
 40
1.31
210
0.0
220
0.0
230
1.0
100
AcDbArc
 50
93.054743
 51
176.945258
  0
ENDBLK
  5
50A
100
AcDbEntity
  8
0
390
0
100
AcDbBlockEnd
  0
BLOCK
  5
50B
100
AcDbEntity
  8
0
370
     0
390
0
100
AcDbBlockBegin
  2
BLOCK12
 70
     0
 10
0.0
 20
0.0
 30
0.0
  3
BLOCK12
  1

  0
LINE
  5
50C
100
AcDbEntity
  8
0
370
    13
390
0
  6
DASHDOT
 62
     7
 48
0.03937
100
AcDbLine
 10
-1.554643
 20
-1.554643
 30
0.0
 11
-0.297977
 21
-0.297977
 31
0.0
210
0.0
220
0.0
230
1.0
  0
ARC
  5
50D
100
AcDbEntity
  8
0
370
    13
390
0
  6
DASHDOT
 62
     7
 48
0.03937
100
AcDbCircle
 10
0.0
 20
0.0
 30
0.0
 40
1.31
210
0.0
220
0.0
230
1.0
100
AcDbArc
 50
186.135212
 51
263.864766
  0
ENDBLK
  5
50E
100
AcDbEntity
  8
0
390
0
100
AcDbBlockEnd
  0
BLOCK
  5
50F
100
AcDbEntity
  8
0
370
     0
390
0
100
AcDbBlockBegin
  2
BLOCK13
 70
     0
 10
0.0
 20
0.0
 30
0.0
  3
BLOCK13
  1

  0
LINE
  5
510
100
AcDbEntity
  8
0
370
    13
390
0
  6
DASHDOT
 62
     7
 48
0.03937
100
AcDbLine
 10
1.516352
 20
-1.516352
 30
0.0
 11
0.336267
 21
-0.336267
 31
0.0
210
0.0
220
0.0
230
1.0
  0
ARC
  5
511
100
AcDbEntity
  8
0
370
    13
390
0
  6
DASHDOT
 62
     7
 48
0.03937
100
AcDbCircle
 10
0.0
 20
0.0
 30
0.0
 40
1.31
210
0.0
220
0.0
230
1.0
100
AcDbArc
 50
278.503638
 51
351.49637
  0
ENDBLK
  5
512
100
AcDbEntity
  8
0
390
0
100
AcDbBlockEnd
  0
BLOCK
  5
513
100
AcDbEntity
  8
0
370
     0
390
0
100
AcDbBlockBegin
  2
BLOCK14
 70
     0
 10
0.0
 20
0.0
 30
0.0
  3
BLOCK14
  1

  0
SOLID
  5
514
100
AcDbEntity
  8
0
370
    13
390
0
 62
     7
 48
0.03937
100
AcDbTrace
 10
3.834584
 20
-0.176628
 30
0.0
 11
3.794729
 21
0.0625
 31
0.0
 12
3.834584
 22
-0.176628
 32
0.0
 13
3.754875
 23
-0.176628
 33
0.0
  0
SOLID
  5
515
100
AcDbEntity
  8
0
370
    13
390
0
 62
     7
 48
0.03937
100
AcDbTrace
 10
3.754875
 20
-1.010872
 30
0.0
 11
3.794729
 21
-1.25
 31
0.0
 12
3.754875
 22
-1.010872
 32
0.0
 13
3.834584
 23
-1.010872
 33
0.0
  0
TEXT
  5
516
100
AcDbEntity
  8
0
370
    13
390
0
 62
     7
 48
0.03937
100
AcDbText
 10
3.602775
 20
-0.652591
 30
0.0
 40
0.117683
  1
1.31
 72
     5
 11
3.900383
 21
-0.652591
 31
0.0
100
AcDbText
  0
TEXT
  5
517
100
AcDbEntity
  8
0
370
    13
390
0
 62
     7
 48
0.03937
100
AcDbText
 10
3.900383
 20
-0.652591
 30
0.0
 40
0.117683
  1
"
 72
     5
 11
3.986684
 21
-0.652591
 31
0.0
100
AcDbText
  0
LINE
  5
518
100
AcDbEntity
  8
0
370
    13
390
0
 62
     7
 48
0.03937
100
AcDbLine
 10
1.969146
 20
-1.25
 30
0.0
 11
3.888875
 21
-1.25
 31
0.0
210
0.0
220
0.0
230
1.0
  0
LINE
  5
519
100
AcDbEntity
  8
0
370
    13
390
0
 62
     7
 48
0.03937
100
AcDbLine
 10
0.784146
 20
0.0625
 30
0.0
 11
3.888875
 21
0.0625
 31
0.0
210
0.0
220
0.0
230
1.0
  0
LINE
  5
51A
100
AcDbEntity
  8
0
370
    13
390
0
 62
     7
 48
0.006566
100
AcDbLine
 10
3.794729
 20
-1.010872
 30
0.0
 11
3.794729
 21
-0.748244
 31
0.0
210
0.0
220
0.0
230
1.0
  0
LINE
  5
51B
100
AcDbEntity
  8
0
370
    13
390
0
 62
     7
 48
0.006566
100
AcDbLine
 10
3.794729
 20
-0.439256
 30
0.0
 11
3.794729
 21
-0.176628
 31
0.0
210
0.0
220
0.0
230
1.0
  0
POLYLINE
  5
51C
100
AcDbEntity
  8
0
370
    13
390
0
 62
     7
 48
0.03937
100
AcDb2dPolyline
 66
     1
 10
0.0
 20
0.0
 30
0.0
 70
     1
 71
     3
  0
VERTEX
  5
51D
100
AcDbEntity
  8
0
370
     0
390
0
100
AcDbVertex
100
AcDb2dVertex
 10
3.834584
 20
-0.176628
 30
0.0
  0
VERTEX
  5
51E
100
AcDbEntity
  8
0
370
     0
390
0
100
AcDbVertex
100
AcDb2dVertex
 10
3.794729
 20
0.0625
 30
0.0
  0
VERTEX
  5
51F
100
AcDbEntity
  8
0
370
     0
390
0
100
AcDbVertex
100
AcDb2dVertex
 10
3.754875
 20
-0.176628
 30
0.0
  0
SEQEND
  5
520
100
AcDbEntity
  8
0
370
     0
390
0
  0
POLYLINE
  5
521
100
AcDbEntity
  8
0
370
    13
390
0
 62
     7
 48
0.03937
100
AcDb2dPolyline
 66
     1
 10
0.0
 20
0.0
 30
0.0
 70
     1
 71
     3
  0
VERTEX
  5
522
100
AcDbEntity
  8
0
370
     0
390
0
100
AcDbVertex
100
AcDb2dVertex
 10
3.754875
 20
-1.010872
 30
0.0
  0
VERTEX
  5
523
100
AcDbEntity
  8
0
370
     0
390
0
100
AcDbVertex
100
AcDb2dVertex
 10
3.794729
 20
-1.25
 30
0.0
  0
VERTEX
  5
524
100
AcDbEntity
  8
0
370
     0
390
0
100
AcDbVertex
100
AcDb2dVertex
 10
3.834584
 20
-1.010872
 30
0.0
  0
SEQEND
  5
525
100
AcDbEntity
  8
0
370
     0
390
0
  0
ENDBLK
  5
526
100
AcDbEntity
  8
0
390
0
100
AcDbBlockEnd
  0
BLOCK
  5
527
100
AcDbEntity
  8
0
370
     0
390
0
100
AcDbBlockBegin
  2
BLOCK15
 70
     0
 10
0.0
 20
0.0
 30
0.0
  3
BLOCK15
  1

  0
SOLID
  5
528
100
AcDbEntity
  8
0
370
    13
390
0
 62
     7
 48
0.03937
100
AcDbTrace
 10
3.260215
 20
0.301628
 30
0.0
 11
3.300069
 21
0.0625
 31
0.0
 12
3.260215
 22
0.301628
 32
0.0
 13
3.339924
 23
0.301628
 33
0.0
  0
SOLID
  5
529
100
AcDbEntity
  8
0
370
    13
390
0
 62
     7
 48
0.03937
100
AcDbTrace
 10
3.339924
 20
-0.239128
 30
0.0
 11
3.300069
 21
0.0
 31
0.0
 12
3.339924
 22
-0.239128
 32
0.0
 13
3.260215
 23
-0.239128
 33
0.0
  0
TEXT
  5
52A
100
AcDbEntity
  8
0
370
    13
390
0
 62
     7
 48
0.03937
100
AcDbText
 10
3.598984
 20
0.558598
 30
0.0
 40
0.117683
  1
0.06
 72
     5
 11
3.896591
 21
0.558598
 31
0.0
100
AcDbText
  0
TEXT
  5
52B
100
AcDbEntity
  8
0
370
    13
390
0
 62
     7
 48
0.03937
100
AcDbText
 10
3.896591
 20
0.558598
 30
0.0
 40
0.117683
  1
"
 72
     5
 11
3.982892
 21
0.558598
 31
0.0
100
AcDbText
  0
LINE
  5
52C
100
AcDbEntity
  8
0
370
    13
390
0
 62
     7
 48
0.005082
100
AcDbLine
 10
3.300069
 20
0.61744
 30
0.0
 11
3.503331
 21
0.61744
 31
0.0
210
0.0
220
0.0
230
1.0
  0
LINE
  5
52D
100
AcDbEntity
  8
0
370
    13
390
0
 62
     7
 48
0.03937
100
AcDbLine
 10
1.969146
 20
0.0
 30
0.0
 11
3.394216
 21
0.0
 31
0.0
210
0.0
220
0.0
230
1.0
  0
LINE
  5
52E
100
AcDbEntity
  8
0
370
    13
390
0
 62
     7
 48
0.03937
100
AcDbLine
 10
0.784146
 20
0.0625
 30
0.0
 11
3.394216
 21
0.0625
 31
0.0
210
0.0
220
0.0
230
1.0
  0
LINE
  5
52F
100
AcDbEntity
  8
0
370
    13
390
0
 62
     7
 48
0.003436
100
AcDbLine
 10
3.300069
 20
-0.376585
 30
0.0
 11
3.300069
 21
-0.239128
 31
0.0
210
0.0
220
0.0
230
1.0
  0
LINE
  5
530
100
AcDbEntity
  8
0
370
    13
390
0
 62
     7
 48
0.007895
100
AcDbLine
 10
3.300069
 20
0.301628
 30
0.0
 11
3.300069
 21
0.61744
 31
0.0
210
0.0
220
0.0
230
1.0
  0
POLYLINE
  5
531
100
AcDbEntity
  8
0
370
    13
390
0
 62
     7
 48
0.03937
100
AcDb2dPolyline
 66
     1
 10
0.0
 20
0.0
 30
0.0
 70
     1
 71
     3
  0
VERTEX
  5
532
100
AcDbEntity
  8
0
370
     0
390
0
100
AcDbVertex
100
AcDb2dVertex
 10
3.260215
 20
0.301628
 30
0.0
  0
VERTEX
  5
533
100
AcDbEntity
  8
0
370
     0
390
0
100
AcDbVertex
100
AcDb2dVertex
 10
3.300069
 20
0.0625
 30
0.0
  0
VERTEX
  5
534
100
AcDbEntity
  8
0
370
     0
390
0
100
AcDbVertex
100
AcDb2dVertex
 10
3.339924
 20
0.301628
 30
0.0
  0
SEQEND
  5
535
100
AcDbEntity
  8
0
370
     0
390
0
  0
POLYLINE
  5
536
100
AcDbEntity
  8
0
370
    13
390
0
 62
     7
 48
0.03937
100
AcDb2dPolyline
 66
     1
 10
0.0
 20
0.0
 30
0.0
 70
     1
 71
     3
  0
VERTEX
  5
537
100
AcDbEntity
  8
0
370
     0
390
0
100
AcDbVertex
100
AcDb2dVertex
 10
3.339924
 20
-0.239128
 30
0.0
  0
VERTEX
  5
538
100
AcDbEntity
  8
0
370
     0
390
0
100
AcDbVertex
100
AcDb2dVertex
 10
3.300069
 20
0.0
 30
0.0
  0
VERTEX
  5
539
100
AcDbEntity
  8
0
370
     0
390
0
100
AcDbVertex
100
AcDb2dVertex
 10
3.260215
 20
-0.239128
 30
0.0
  0
SEQEND
  5
53A
100
AcDbEntity
  8
0
370
     0
390
0
  0
ENDBLK
  5
53B
100
AcDbEntity
  8
0
390
0
100
AcDbBlockEnd
  0
BLOCK
  5
53C
100
AcDbEntity
  8
0
370
     0
390
0
100
AcDbBlockBegin
  2
BLOCK16
 70
     0
 10
0.0
 20
0.0
 30
0.0
  3
BLOCK16
  1

  0
SOLID
  5
53D
100
AcDbEntity
  8
0
370
    13
390
0
 62
     7
 48
0.03937
100
AcDbTrace
 10
0.450872
 20
0.604305
 30
0.0
 11
0.69
 21
0.644159
 31
0.0
 12
0.450872
 22
0.604305
 32
0.0
 13
0.450872
 23
0.684014
 33
0.0
  0
SOLID
  5
53E
100
AcDbEntity
  8
0
370
    13
390
0
 62
     7
 48
0.03937
100
AcDbTrace
 10
-0.450872
 20
0.684014
 30
0.0
 11
-0.69
 21
0.644159
 31
0.0
 12
-0.450872
 22
0.684014
 32
0.0
 13
-0.450872
 23
0.604305
 33
0.0
  0
TEXT
  5
53F
100
AcDbEntity
  8
0
370
    13
390
0
 62
     7
 48
0.03937
100
AcDbText
 10
-0.07333
 20
0.585318
 30
0.0
 40
0.117683
  1
1.38
 72
     5
 11
0.224278
 21
0.585318
 31
0.0
100
AcDbText
  0
TEXT
  5
540
100
AcDbEntity
  8
0
370
    13
390
0
 62
     7
 48
0.03937
100
AcDbText
 10
0.224278
 20
0.585318
 30
0.0
 40
0.117683
  1
"
 72
     5
 11
0.310578
 21
0.585318
 31
0.0
100
AcDbText
  0
TEXT
  5
541
100
AcDbEntity
  8
0
370
    13
390
0
 62
     7
 48
0.03937
100
AcDbText
 10
-0.310578
 20
0.585318
 30
0.0
 40
0.117683
  1
%%c
 72
     5
 11
-0.192896
 21
0.585318
 31
0.0
100
AcDbText
  0
LINE
  5
542
100
AcDbEntity
  8
0
370
    13
390
0
 62
     7
 48
0.014541
100
AcDbLine
 10
-0.69
 20
0.156646
 30
0.0
 11
-0.69
 21
0.738306
 31
0.0
210
0.0
220
0.0
230
1.0
  0
LINE
  5
543
100
AcDbEntity
  8
0
370
    13
390
0
 62
     7
 48
0.014541
100
AcDbLine
 10
0.69
 20
0.156646
 30
0.0
 11
0.69
 21
0.738306
 31
0.0
210
0.0
220
0.0
230
1.0
  0
LINE
  5
544
100
AcDbEntity
  8
0
370
    13
390
0
 62
     7
 48
0.001116
100
AcDbLine
 10
-0.450872
 20
0.644159
 30
0.0
 11
-0.406231
 21
0.644159
 31
0.0
210
0.0
220
0.0
230
1.0
  0
LINE
  5
545
100
AcDbEntity
  8
0
370
    13
390
0
 62
     7
 48
0.001116
100
AcDbLine
 10
0.406231
 20
0.644159
 30
0.0
 11
0.450872
 21
0.644159
 31
0.0
210
0.0
220
0.0
230
1.0
  0
POLYLINE
  5
546
100
AcDbEntity
  8
0
370
    13
390
0
 62
     7
 48
0.03937
100
AcDb2dPolyline
 66
     1
 10
0.0
 20
0.0
 30
0.0
 70
     1
 71
     3
  0
VERTEX
  5
547
100
AcDbEntity
  8
0
370
     0
390
0
100
AcDbVertex
100
AcDb2dVertex
 10
0.450872
 20
0.604305
 30
0.0
  0
VERTEX
  5
548
100
AcDbEntity
  8
0
370
     0
390
0
100
AcDbVertex
100
AcDb2dVertex
 10
0.69
 20
0.644159
 30
0.0
  0
VERTEX
  5
549
100
AcDbEntity
  8
0
370
     0
390
0
100
AcDbVertex
100
AcDb2dVertex
 10
0.450872
 20
0.684014
 30
0.0
  0
SEQEND
  5
54A
100
AcDbEntity
  8
0
370
     0
390
0
  0
POLYLINE
  5
54B
100
AcDbEntity
  8
0
370
    13
390
0
 62
     7
 48
0.03937
100
AcDb2dPolyline
 66
     1
 10
0.0
 20
0.0
 30
0.0
 70
     1
 71
     3
  0
VERTEX
  5
54C
100
AcDbEntity
  8
0
370
     0
390
0
100
AcDbVertex
100
AcDb2dVertex
 10
-0.450872
 20
0.684014
 30
0.0
  0
VERTEX
  5
54D
100
AcDbEntity
  8
0
370
     0
390
0
100
AcDbVertex
100
AcDb2dVertex
 10
-0.69
 20
0.644159
 30
0.0
  0
VERTEX
  5
54E
100
AcDbEntity
  8
0
370
     0
390
0
100
AcDbVertex
100
AcDb2dVertex
 10
-0.450872
 20
0.604305
 30
0.0
  0
SEQEND
  5
54F
100
AcDbEntity
  8
0
370
     0
390
0
  0
ENDBLK
  5
550
100
AcDbEntity
  8
0
390
0
100
AcDbBlockEnd
  0
BLOCK
  5
551
100
AcDbEntity
  8
0
370
     0
390
0
100
AcDbBlockBegin
  2
BLOCK17
 70
     0
 10
0.0
 20
0.0
 30
0.0
  3
BLOCK17
  1

  0
SOLID
  5
552
100
AcDbEntity
  8
0
370
    13
390
0
 62
     7
 48
0.03937
100
AcDbTrace
 10
-0.489128
 20
-2.040937
 30
0.0
 11
-0.25
 21
-2.001083
 31
0.0
 12
-0.489128
 22
-2.040937
 32
0.0
 13
-0.489128
 23
-1.961228
 33
0.0
  0
SOLID
  5
553
100
AcDbEntity
  8
0
370
    13
390
0
 62
     7
 48
0.03937
100
AcDbTrace
 10
0.489128
 20
-1.961228
 30
0.0
 11
0.25
 21
-2.001083
 31
0.0
 12
0.489128
 22
-1.961228
 32
0.0
 13
0.489128
 23
-2.040937
 33
0.0
  0
TEXT
  5
554
100
AcDbEntity
  8
0
370
    13
390
0
 62
     7
 48
0.03937
100
AcDbText
 10
-1.146706
 20
-2.059924
 30
0.0
 40
0.117683
  1
0.5
 72
     5
 11
-0.934129
 21
-2.059924
 31
0.0
100
AcDbText
  0
TEXT
  5
555
100
AcDbEntity
  8
0
370
    13
390
0
 62
     7
 48
0.03937
100
AcDbText
 10
-0.934129
 20
-2.059924
 30
0.0
 40
0.117683
  1
"
 72
     5
 11
-0.847828
 21
-2.059924
 31
0.0
100
AcDbText
  0
TEXT
  5
556
100
AcDbEntity
  8
0
370
    13
390
0
 62
     7
 48
0.03937
100
AcDbText
 10
-1.383954
 20
-2.059924
 30
0.0
 40
0.117683
  1
%%c
 72
     5
 11
-1.266271
 21
-2.059924
 31
0.0
100
AcDbText
  0
LINE
  5
557
100
AcDbEntity
  8
0
370
    13
390
0
 62
     7
 48
0.018777
100
AcDbLine
 10
-0.25
 20
-1.344146
 30
0.0
 11
-0.25
 21
-2.095229
 31
0.0
210
0.0
220
0.0
230
1.0
  0
LINE
  5
558
100
AcDbEntity
  8
0
370
    13
390
0
 62
     7
 48
0.018777
100
AcDbLine
 10
0.25
 20
-1.344146
 30
0.0
 11
0.25
 21
-2.095229
 31
0.0
210
0.0
220
0.0
230
1.0
  0
LINE
  5
559
100
AcDbEntity
  8
0
370
    13
390
0
 62
     7
 48
0.006576
100
AcDbLine
 10
-0.752175
 20
-2.001083
 30
0.0
 11
-0.489128
 21
-2.001083
 31
0.0
210
0.0
220
0.0
230
1.0
  0
LINE
  5
55A
100
AcDbEntity
  8
0
370
    13
390
0
 62
     7
 48
0.003436
100
AcDbLine
 10
0.489128
 20
-2.001083
 30
0.0
 11
0.626585
 21
-2.001083
 31
0.0
210
0.0
220
0.0
230
1.0
  0
POLYLINE
  5
55B
100
AcDbEntity
  8
0
370
    13
390
0
 62
     7
 48
0.03937
100
AcDb2dPolyline
 66
     1
 10
0.0
 20
0.0
 30
0.0
 70
     1
 71
     3
  0
VERTEX
  5
55C
100
AcDbEntity
  8
0
370
     0
390
0
100
AcDbVertex
100
AcDb2dVertex
 10
-0.489128
 20
-2.040937
 30
0.0
  0
VERTEX
  5
55D
100
AcDbEntity
  8
0
370
     0
390
0
100
AcDbVertex
100
AcDb2dVertex
 10
-0.25
 20
-2.001083
 30
0.0
  0
VERTEX
  5
55E
100
AcDbEntity
  8
0
370
     0
390
0
100
AcDbVertex
100
AcDb2dVertex
 10
-0.489128
 20
-1.961228
 30
0.0
  0
SEQEND
  5
55F
100
AcDbEntity
  8
0
370
     0
390
0
  0
POLYLINE
  5
560
100
AcDbEntity
  8
0
370
    13
390
0
 62
     7
 48
0.03937
100
AcDb2dPolyline
 66
     1
 10
0.0
 20
0.0
 30
0.0
 70
     1
 71
     3
  0
VERTEX
  5
561
100
AcDbEntity
  8
0
370
     0
390
0
100
AcDbVertex
100
AcDb2dVertex
 10
0.489128
 20
-1.961228
 30
0.0
  0
VERTEX
  5
562
100
AcDbEntity
  8
0
370
     0
390
0
100
AcDbVertex
100
AcDb2dVertex
 10
0.25
 20
-2.001083
 30
0.0
  0
VERTEX
  5
563
100
AcDbEntity
  8
0
370
     0
390
0
100
AcDbVertex
100
AcDb2dVertex
 10
0.489128
 20
-2.040937
 30
0.0
  0
SEQEND
  5
564
100
AcDbEntity
  8
0
370
     0
390
0
  0
ENDBLK
  5
565
100
AcDbEntity
  8
0
390
0
100
AcDbBlockEnd
  0
BLOCK
  5
566
100
AcDbEntity
  8
0
370
     0
390
0
100
AcDbBlockBegin
  2
BLOCK18
 70
     0
 10
0.0
 20
0.0
 30
0.0
  3
BLOCK18
  1

  0
LINE
  5
567
100
AcDbEntity
  8
0
370
     5
390
0
 62
     7
 48
0.03937
100
AcDbLine
 10
-0.25
 20
-1.25
 30
0.0
 11
-0.25
 21
0.0625
 31
0.0
210
0.0
220
0.0
230
1.0
  0
LINE
  5
568
100
AcDbEntity
  8
0
370
     5
390
0
 62
     7
 48
0.011
100
AcDbLine
 10
-0.25
 20
0.0625
 30
0.0
 11
-0.69
 21
0.0625
 31
0.0
210
0.0
220
0.0
230
1.0
  0
LINE
  5
569
100
AcDbEntity
  8
0
370
     5
390
0
 62
     7
 48
0.001562
100
AcDbLine
 10
-0.69
 20
0.0625
 30
0.0
 11
-0.69
 21
0.0
 31
0.0
210
0.0
220
0.0
230
1.0
  0
LINE
  5
56A
100
AcDbEntity
  8
0
370
     5
390
0
 62
     7
 48
0.03937
100
AcDbLine
 10
-0.69
 20
0.0
 30
0.0
 11
-1.875
 21
0.0
 31
0.0
210
0.0
220
0.0
230
1.0
  0
LINE
  5
56B
100
AcDbEntity
  8
0
370
     5
390
0
 62
     7
 48
0.03937
100
AcDbLine
 10
-1.875
 20
0.0
 30
0.0
 11
-1.875
 21
-1.25
 31
0.0
210
0.0
220
0.0
230
1.0
  0
LINE
  5
56C
100
AcDbEntity
  8
0
370
     5
390
0
 62
     7
 48
0.03937
100
AcDbLine
 10
-1.875
 20
-1.25
 30
0.0
 11
-0.25
 21
-1.25
 31
0.0
210
0.0
220
0.0
230
1.0
  0
ENDBLK
  5
56D
100
AcDbEntity
  8
0
390
0
100
AcDbBlockEnd
  0
BLOCK
  5
56E
100
AcDbEntity
  8
0
370
     0
390
0
100
AcDbBlockBegin
  2
BLOCK19
 70
     0
 10
0.0
 20
0.0
 30
0.0
  3
BLOCK19
  1

  0
LINE
  5
56F
100
AcDbEntity
  8
0
370
     5
390
0
 62
     7
 48
0.03937
100
AcDbLine
 10
0.25
 20
-1.25
 30
0.0
 11
1.875
 21
-1.25
 31
0.0
210
0.0
220
0.0
230
1.0
  0
LINE
  5
570
100
AcDbEntity
  8
0
370
     5
390
0
 62
     7
 48
0.03937
100
AcDbLine
 10
1.875
 20
-1.25
 30
0.0
 11
1.875
 21
0.0
 31
0.0
210
0.0
220
0.0
230
1.0
  0
LINE
  5
571
100
AcDbEntity
  8
0
370
     5
390
0
 62
     7
 48
0.03937
100
AcDbLine
 10
1.875
 20
0.0
 30
0.0
 11
0.69
 21
0.0
 31
0.0
210
0.0
220
0.0
230
1.0
  0
LINE
  5
572
100
AcDbEntity
  8
0
370
     5
390
0
 62
     7
 48
0.001562
100
AcDbLine
 10
0.69
 20
0.0
 30
0.0
 11
0.69
 21
0.0625
 31
0.0
210
0.0
220
0.0
230
1.0
  0
LINE
  5
573
100
AcDbEntity
  8
0
370
     5
390
0
 62
     7
 48
0.011
100
AcDbLine
 10
0.69
 20
0.0625
 30
0.0
 11
0.25
 21
0.0625
 31
0.0
210
0.0
220
0.0
230
1.0
  0
LINE
  5
574
100
AcDbEntity
  8
0
370
     5
390
0
 62
     7
 48
0.03937
100
AcDbLine
 10
0.25
 20
0.0625
 30
0.0
 11
0.25
 21
-1.25
 31
0.0
210
0.0
220
0.0
230
1.0
  0
ENDBLK
  5
575
100
AcDbEntity
  8
0
390
0
100
AcDbBlockEnd
  0
ENDSEC
  0
SECTION
  2
ENTITIES
  0
VIEWPORT
  5
3B2
100
AcDbEntity
 67
     1
  8
0
370
     0
390
0
 62
     0
 48
0.0
100
AcDbViewport
 10
0.0
 20
0.0
 30
0.0
 40
1000.0
 41
1000.0
 68
     1
 69
     1
 12
0.0
 22
0.0
 13
0.0
 23
0.0
 14
1.0
 24
1.0
 15
1.0
 25
1.0
 16
0.0
 26
0.0
 36
1.0
 17
0.0
 27
0.0
 37
0.0
 42
50.0
 43
0.0
 44
0.0
 45
1000.0
 50
0.0
 51
0.0
 72
   100
 90
        0
340
0
  1

281
     0
 71
     0
 74
     1
110
0.0
120
0.0
130
0.0
111
1.0
121
0.0
131
0.0
112
0.0
122
1.0
132
0.0
345
0
346
0
 79
     0
146
0.0
  0
TEXT
  5
27
100
AcDbEntity
  8
0
370
    13
390
0
 62
     7
 48
0.03937
100
AcDbText
 10
8.263597
 20
0.855562
 30
0.0
 40
0.098425
  1
300-FB-RF-STUDOUT-FLANGE
 72
     5
 11
10.422916
 21
0.855562
 31
0.0
100
AcDbText
  0
TEXT
  5
28
100
AcDbEntity
  8
0
370
    13
390
0
 62
     7
 48
0.03937
100
AcDbText
 10
7.774762
 20
1.08216
 30
0.0
 40
0.06
  1
SIZE:
 72
     5
 11
8.064134
 21
1.08216
 31
0.0
100
AcDbText
  0
TEXT
  5
29
100
AcDbEntity
  8
0
370
    13
390
0
 62
     7
 48
0.03937
100
AcDbText
 10
7.774762
 20
0.894218
 30
0.0
 40
0.06
  1
TYPE:
 72
     5
 11
8.064134
 21
0.894218
 31
0.0
100
AcDbText
  0
POINT
  5
2A
100
AcDbEntity
  8
0
370
     5
390
0
 62
     7
 48
0.03937
100
AcDbPoint
 10
0.0
 20
0.0
 30
0.0
210
0.0
220
0.0
230
1.0
  0
POINT
  5
2B
100
AcDbEntity
  8
0
370
     5
390
0
 62
     7
 48
0.03937
100
AcDbPoint
 10
8.029755
 20
0.53125
 30
0.0
210
0.0
220
0.0
230
1.0
  0
LINE
  5
2C
100
AcDbEntity
  8
1
370
    35
390
0
 62
     7
 48
0.000032
100
AcDbLine
 10
9.035676
 20
0.778761
 30
0.0
 11
9.036922
 21
0.778449
 31
0.0
210
0.0
220
0.0
230
1.0
  0
LINE
  5
2D
100
AcDbEntity
  8
1
370
    35
390
0
 62
     7
 48
0.03937
100
AcDbLine
 10
0.25
 20
0.25
 30
0.0
 11
0.25
 21
8.25
 31
0.0
210
0.0
220
0.0
230
1.0
  0
LINE
  5
2E
100
AcDbEntity
  8
1
370
    35
390
0
 62
     7
 48
0.03937
100
AcDbLine
 10
7.75
 20
1.1875
 30
0.0
 11
10.75
 21
1.1875
 31
0.0
210
0.0
220
0.0
230
1.0
  0
LINE
  5
2F
100
AcDbEntity
  8
1
370
    35
390
0
 62
     7
 48
0.03937
100
AcDbLine
 10
7.75
 20
1.0
 30
0.0
 11
10.75
 21
1.0
 31
0.0
210
0.0
220
0.0
230
1.0
  0
LINE
  5
30
100
AcDbEntity
  8
1
370
    35
390
0
 62
     7
 48
0.03937
100
AcDbLine
 10
0.25
 20
8.25
 30
0.0
 11
10.75
 21
8.25
 31
0.0
210
0.0
220
0.0
230
1.0
  0
LINE
  5
31
100
AcDbEntity
  8
1
370
    35
390
0
 62
     7
 48
0.03937
100
AcDbLine
 10
7.75
 20
0.8125
 30
0.0
 11
10.75
 21
0.8125
 31
0.0
210
0.0
220
0.0
230
1.0
  0
LINE
  5
32
100
AcDbEntity
  8
1
370
    35
390
0
 62
     7
 48
0.03937
100
AcDbLine
 10
0.25
 20
0.25
 30
0.0
 11
10.75
 21
0.25
 31
0.0
210
0.0
220
0.0
230
1.0
  0
LINE
  5
33
100
AcDbEntity
  8
1
370
    35
390
0
 62
     7
 48
0.03937
100
AcDbLine
 10
10.75
 20
8.25
 30
0.0
 11
10.75
 21
0.25
 31
0.0
210
0.0
220
0.0
230
1.0
  0
LINE
  5
34
100
AcDbEntity
  8
1
370
    35
390
0
 62
     7
 48
0.03937
100
AcDbLine
 10
7.75
 20
1.1875
 30
0.0
 11
7.75
 21
0.25
 31
0.0
210
0.0
220
0.0
230
1.0
  0
CIRCLE
  5
35
100
AcDbEntity
  8
0
370
    70
390
0
 62
     7
 48
0.03937
100
AcDbCircle
 10
8.029755
 20
0.53125
 30
0.0
 40
0.2475
210
0.0
220
0.0
230
1.0
  0
CIRCLE
  5
36
100
AcDbEntity
  8
0
370
    70
390
0
 62
     7
 48
0.03937
100
AcDbCircle
 10
8.029755
 20
0.53125
 30
0.0
 40
0.195
210
0.0
220
0.0
230
1.0
  0
CIRCLE
  5
37
100
AcDbEntity
  8
0
370
    35
390
0
 62
     7
 48
0.03937
100
AcDbCircle
 10
8.029755
 20
0.7525
 30
0.0
 40
0.015
210
0.0
220
0.0
230
1.0
  0
CIRCLE
  5
38
100
AcDbEntity
  8
0
370
    35
390
0
 62
     7
 48
0.03937
100
AcDbCircle
 10
8.251005
 20
0.53125
 30
0.0
 40
0.015
210
0.0
220
0.0
230
1.0
  0
CIRCLE
  5
39
100
AcDbEntity
  8
0
370
    35
390
0
 62
     7
 48
0.03937
100
AcDbCircle
 10
8.186202
 20
0.687697
 30
0.0
 40
0.015
210
0.0
220
0.0
230
1.0
  0
CIRCLE
  5
3A
100
AcDbEntity
  8
0
370
    35
390
0
 62
     7
 48
0.03937
100
AcDbCircle
 10
8.029755
 20
0.31
 30
0.0
 40
0.015
210
0.0
220
0.0
230
1.0
  0
CIRCLE
  5
3B
100
AcDbEntity
  8
0
370
    35
390
0
 62
     7
 48
0.03937
100
AcDbCircle
 10
8.186202
 20
0.374803
 30
0.0
 40
0.015
210
0.0
220
0.0
230
1.0
  0
CIRCLE
  5
3C
100
AcDbEntity
  8
0
370
    35
390
0
 62
     7
 48
0.03937
100
AcDbCircle
 10
7.808505
 20
0.53125
 30
0.0
 40
0.015
210
0.0
220
0.0
230
1.0
  0
CIRCLE
  5
3D
100
AcDbEntity
  8
0
370
    35
390
0
 62
     7
 48
0.03937
100
AcDbCircle
 10
7.873308
 20
0.687697
 30
0.0
 40
0.015
210
0.0
220
0.0
230
1.0
  0
CIRCLE
  5
3E
100
AcDbEntity
  8
0
370
    35
390
0
 62
     7
 48
0.03937
100
AcDbCircle
 10
7.873308
 20
0.374803
 30
0.0
 40
0.015
210
0.0
220
0.0
230
1.0
  0
POLYLINE
  5
3F
100
AcDbEntity
  8
0
370
    13
390
0
 62
     7
 48
0.03937
100
AcDb2dPolyline
 66
     1
 10
0.0
 20
0.0
 30
0.0
 70
     1
 71
   118
  0
VERTEX
  5
40
100
AcDbEntity
  8
0
370
     0
390
0
100
AcDbVertex
100
AcDb2dVertex
 10
8.029831
 20
0.605292
 30
0.0
  0
VERTEX
  5
41
100
AcDbEntity
  8
0
370
     0
390
0
100
AcDbVertex
100
AcDb2dVertex
 10
8.029019
 20
0.60375
 30
0.0
  0
VERTEX
  5
42
100
AcDbEntity
  8
0
370
     0
390
0
100
AcDbVertex
100
AcDb2dVertex
 10
8.021177
 20
0.589826
 30
0.0
  0
VERTEX
  5
43
100
AcDbEntity
  8
0
370
     0
390
0
100
AcDbVertex
100
AcDb2dVertex
 10
8.020426
 20
0.588405
 30
0.0
  0
VERTEX
  5
44
100
AcDbEntity
  8
0
370
     0
390
0
100
AcDbVertex
100
AcDb2dVertex
 10
8.019684
 20
0.586917
 30
0.0
  0
VERTEX
  5
45
100
AcDbEntity
  8
0
370
     0
390
0
100
AcDbVertex
100
AcDb2dVertex
 10
8.018954
 20
0.58536
 30
0.0
  0
VERTEX
  5
46
100
AcDbEntity
  8
0
370
     0
390
0
100
AcDbVertex
100
AcDb2dVertex
 10
8.018235
 20
0.583734
 30
0.0
  0
VERTEX
  5
47
100
AcDbEntity
  8
0
370
     0
390
0
100
AcDbVertex
100
AcDb2dVertex
 10
8.017528
 20
0.582038
 30
0.0
  0
VERTEX
  5
48
100
AcDbEntity
  8
0
370
     0
390
0
100
AcDbVertex
100
AcDb2dVertex
 10
8.01683
 20
0.580272
 30
0.0
  0
VERTEX
  5
49
100
AcDbEntity
  8
0
370
     0
390
0
100
AcDbVertex
100
AcDb2dVertex
 10
8.016143
 20
0.578438
 30
0.0
  0
VERTEX
  5
4A
100
AcDbEntity
  8
0
370
     0
390
0
100
AcDbVertex
100
AcDb2dVertex
 10
8.015467
 20
0.576534
 30
0.0
  0
VERTEX
  5
4B
100
AcDbEntity
  8
0
370
     0
390
0
100
AcDbVertex
100
AcDb2dVertex
 10
8.014802
 20
0.574562
 30
0.0
  0
VERTEX
  5
4C
100
AcDbEntity
  8
0
370
     0
390
0
100
AcDbVertex
100
AcDb2dVertex
 10
8.014147
 20
0.572519
 30
0.0
  0
VERTEX
  5
4D
100
AcDbEntity
  8
0
370
     0
390
0
100
AcDbVertex
100
AcDb2dVertex
 10
8.012525
 20
0.574142
 30
0.0
  0
VERTEX
  5
4E
100
AcDbEntity
  8
0
370
     0
390
0
100
AcDbVertex
100
AcDb2dVertex
 10
8.011871
 20
0.576531
 30
0.0
  0
VERTEX
  5
4F
100
AcDbEntity
  8
0
370
     0
390
0
100
AcDbVertex
100
AcDb2dVertex
 10
8.011163
 20
0.578771
 30
0.0
  0
VERTEX
  5
50
100
AcDbEntity
  8
0
370
     0
390
0
100
AcDbVertex
100
AcDb2dVertex
 10
8.010404
 20
0.580859
 30
0.0
  0
VERTEX
  5
51
100
AcDbEntity
  8
0
370
     0
390
0
100
AcDbVertex
100
AcDb2dVertex
 10
8.009591
 20
0.582795
 30
0.0
  0
VERTEX
  5
52
100
AcDbEntity
  8
0
370
     0
390
0
100
AcDbVertex
100
AcDb2dVertex
 10
8.008726
 20
0.584579
 30
0.0
  0
VERTEX
  5
53
100
AcDbEntity
  8
0
370
     0
390
0
100
AcDbVertex
100
AcDb2dVertex
 10
8.007806
 20
0.586212
 30
0.0
  0
VERTEX
  5
54
100
AcDbEntity
  8
0
370
     0
390
0
100
AcDbVertex
100
AcDb2dVertex
 10
8.006836
 20
0.587694
 30
0.0
  0
VERTEX
  5
55
100
AcDbEntity
  8
0
370
     0
390
0
100
AcDbVertex
100
AcDb2dVertex
 10
8.00581
 20
0.589025
 30
0.0
  0
VERTEX
  5
56
100
AcDbEntity
  8
0
370
     0
390
0
100
AcDbVertex
100
AcDb2dVertex
 10
8.004733
 20
0.590204
 30
0.0
  0
VERTEX
  5
57
100
AcDbEntity
  8
0
370
     0
390
0
100
AcDbVertex
100
AcDb2dVertex
 10
8.003601
 20
0.591231
 30
0.0
  0
VERTEX
  5
58
100
AcDbEntity
  8
0
370
     0
390
0
100
AcDbVertex
100
AcDb2dVertex
 10
8.002384
 20
0.592136
 30
0.0
  0
VERTEX
  5
59
100
AcDbEntity
  8
0
370
     0
390
0
100
AcDbVertex
100
AcDb2dVertex
 10
8.001043
 20
0.592944
 30
0.0
  0
VERTEX
  5
5A
100
AcDbEntity
  8
0
370
     0
390
0
100
AcDbVertex
100
AcDb2dVertex
 10
7.99958
 20
0.593658
 30
0.0
  0
VERTEX
  5
5B
100
AcDbEntity
  8
0
370
     0
390
0
100
AcDbVertex
100
AcDb2dVertex
 10
7.997995
 20
0.594276
 30
0.0
  0
VERTEX
  5
5C
100
AcDbEntity
  8
0
370
     0
390
0
100
AcDbVertex
100
AcDb2dVertex
 10
7.996287
 20
0.5948
 30
0.0
  0
VERTEX
  5
5D
100
AcDbEntity
  8
0
370
     0
390
0
100
AcDbVertex
100
AcDb2dVertex
 10
7.994457
 20
0.595229
 30
0.0
  0
VERTEX
  5
5E
100
AcDbEntity
  8
0
370
     0
390
0
100
AcDbVertex
100
AcDb2dVertex
 10
7.992506
 20
0.595562
 30
0.0
  0
VERTEX
  5
5F
100
AcDbEntity
  8
0
370
     0
390
0
100
AcDbVertex
100
AcDb2dVertex
 10
7.990431
 20
0.595799
 30
0.0
  0
VERTEX
  5
60
100
AcDbEntity
  8
0
370
     0
390
0
100
AcDbVertex
100
AcDb2dVertex
 10
7.988236
 20
0.595943
 30
0.0
  0
VERTEX
  5
61
100
AcDbEntity
  8
0
370
     0
390
0
100
AcDbVertex
100
AcDb2dVertex
 10
7.985918
 20
0.595991
 30
0.0
  0
VERTEX
  5
62
100
AcDbEntity
  8
0
370
     0
390
0
100
AcDbVertex
100
AcDb2dVertex
 10
7.983971
 20
0.595973
 30
0.0
  0
VERTEX
  5
63
100
AcDbEntity
  8
0
370
     0
390
0
100
AcDbVertex
100
AcDb2dVertex
 10
7.982024
 20
0.59592
 30
0.0
  0
VERTEX
  5
64
100
AcDbEntity
  8
0
370
     0
390
0
100
AcDbVertex
100
AcDb2dVertex
 10
7.980077
 20
0.595835
 30
0.0
  0
VERTEX
  5
65
100
AcDbEntity
  8
0
370
     0
390
0
100
AcDbVertex
100
AcDb2dVertex
 10
7.97813
 20
0.595713
 30
0.0
  0
VERTEX
  5
66
100
AcDbEntity
  8
0
370
     0
390
0
100
AcDbVertex
100
AcDb2dVertex
 10
7.976183
 20
0.595557
 30
0.0
  0
VERTEX
  5
67
100
AcDbEntity
  8
0
370
     0
390
0
100
AcDbVertex
100
AcDb2dVertex
 10
7.974885
 20
0.478313
 30
0.0
  0
VERTEX
  5
68
100
AcDbEntity
  8
0
370
     0
390
0
100
AcDbVertex
100
AcDb2dVertex
 10
7.987647
 20
0.466523
 30
0.0
  0
VERTEX
  5
69
100
AcDbEntity
  8
0
370
     0
390
0
100
AcDbVertex
100
AcDb2dVertex
 10
7.93822
 20
0.466523
 30
0.0
  0
VERTEX
  5
6A
100
AcDbEntity
  8
0
370
     0
390
0
100
AcDbVertex
100
AcDb2dVertex
 10
7.953361
 20
0.479178
 30
0.0
  0
VERTEX
  5
6B
100
AcDbEntity
  8
0
370
     0
390
0
100
AcDbVertex
100
AcDb2dVertex
 10
7.953361
 20
0.586796
 30
0.0
  0
VERTEX
  5
6C
100
AcDbEntity
  8
0
370
     0
390
0
100
AcDbVertex
100
AcDb2dVertex
 10
7.945682
 20
0.586905
 30
0.0
  0
VERTEX
  5
6D
100
AcDbEntity
  8
0
370
     0
390
0
100
AcDbVertex
100
AcDb2dVertex
 10
7.943519
 20
0.58686
 30
0.0
  0
VERTEX
  5
6E
100
AcDbEntity
  8
0
370
     0
390
0
100
AcDbVertex
100
AcDb2dVertex
 10
7.941484
 20
0.58673
 30
0.0
  0
VERTEX
  5
6F
100
AcDbEntity
  8
0
370
     0
390
0
100
AcDbVertex
100
AcDb2dVertex
 10
7.939577
 20
0.586511
 30
0.0
  0
VERTEX
  5
70
100
AcDbEntity
  8
0
370
     0
390
0
100
AcDbVertex
100
AcDb2dVertex
 10
7.937799
 20
0.586203
 30
0.0
  0
VERTEX
  5
71
100
AcDbEntity
  8
0
370
     0
390
0
100
AcDbVertex
100
AcDb2dVertex
 10
7.936151
 20
0.585809
 30
0.0
  0
VERTEX
  5
72
100
AcDbEntity
  8
0
370
     0
390
0
100
AcDbVertex
100
AcDb2dVertex
 10
7.93463
 20
0.585327
 30
0.0
  0
VERTEX
  5
73
100
AcDbEntity
  8
0
370
     0
390
0
100
AcDbVertex
100
AcDb2dVertex
 10
7.93324
 20
0.584759
 30
0.0
  0
VERTEX
  5
74
100
AcDbEntity
  8
0
370
     0
390
0
100
AcDbVertex
100
AcDb2dVertex
 10
7.930843
 20
0.583356
 30
0.0
  0
VERTEX
  5
75
100
AcDbEntity
  8
0
370
     0
390
0
100
AcDbVertex
100
AcDb2dVertex
 10
7.928935
 20
0.581582
 30
0.0
  0
VERTEX
  5
76
100
AcDbEntity
  8
0
370
     0
390
0
100
AcDbVertex
100
AcDb2dVertex
 10
7.92736
 20
0.579297
 30
0.0
  0
VERTEX
  5
77
100
AcDbEntity
  8
0
370
     0
390
0
100
AcDbVertex
100
AcDb2dVertex
 10
7.926092
 20
0.57648
 30
0.0
  0
VERTEX
  5
78
100
AcDbEntity
  8
0
370
     0
390
0
100
AcDbVertex
100
AcDb2dVertex
 10
7.925573
 20
0.574872
 30
0.0
  0
VERTEX
  5
79
100
AcDbEntity
  8
0
370
     0
390
0
100
AcDbVertex
100
AcDb2dVertex
 10
7.92513
 20
0.573132
 30
0.0
  0
VERTEX
  5
7A
100
AcDbEntity
  8
0
370
     0
390
0
100
AcDbVertex
100
AcDb2dVertex
 10
7.924766
 20
0.571259
 30
0.0
  0
VERTEX
  5
7B
100
AcDbEntity
  8
0
370
     0
390
0
100
AcDbVertex
100
AcDb2dVertex
 10
7.924478
 20
0.569252
 30
0.0
  0
VERTEX
  5
7C
100
AcDbEntity
  8
0
370
     0
390
0
100
AcDbVertex
100
AcDb2dVertex
 10
7.924266
 20
0.567111
 30
0.0
  0
VERTEX
  5
7D
100
AcDbEntity
  8
0
370
     0
390
0
100
AcDbVertex
100
AcDb2dVertex
 10
7.921454
 20
0.567111
 30
0.0
  0
VERTEX
  5
7E
100
AcDbEntity
  8
0
370
     0
390
0
100
AcDbVertex
100
AcDb2dVertex
 10
7.921734
 20
0.569565
 30
0.0
  0
VERTEX
  5
7F
100
AcDbEntity
  8
0
370
     0
390
0
100
AcDbVertex
100
AcDb2dVertex
 10
7.922096
 20
0.571866
 30
0.0
  0
VERTEX
  5
80
100
AcDbEntity
  8
0
370
     0
390
0
100
AcDbVertex
100
AcDb2dVertex
 10
7.922543
 20
0.574013
 30
0.0
  0
VERTEX
  5
81
100
AcDbEntity
  8
0
370
     0
390
0
100
AcDbVertex
100
AcDb2dVertex
 10
7.923073
 20
0.576006
 30
0.0
  0
VERTEX
  5
82
100
AcDbEntity
  8
0
370
     0
390
0
100
AcDbVertex
100
AcDb2dVertex
 10
7.923684
 20
0.577847
 30
0.0
  0
VERTEX
  5
83
100
AcDbEntity
  8
0
370
     0
390
0
100
AcDbVertex
100
AcDb2dVertex
 10
7.924381
 20
0.579533
 30
0.0
  0
VERTEX
  5
84
100
AcDbEntity
  8
0
370
     0
390
0
100
AcDbVertex
100
AcDb2dVertex
 10
7.92516
 20
0.581064
 30
0.0
  0
VERTEX
  5
85
100
AcDbEntity
  8
0
370
     0
390
0
100
AcDbVertex
100
AcDb2dVertex
 10
7.926023
 20
0.582444
 30
0.0
  0
VERTEX
  5
86
100
AcDbEntity
  8
0
370
     0
390
0
100
AcDbVertex
100
AcDb2dVertex
 10
7.926968
 20
0.58367
 30
0.0
  0
VERTEX
  5
87
100
AcDbEntity
  8
0
370
     0
390
0
100
AcDbVertex
100
AcDb2dVertex
 10
7.929138
 20
0.585687
 30
0.0
  0
VERTEX
  5
88
100
AcDbEntity
  8
0
370
     0
390
0
100
AcDbVertex
100
AcDb2dVertex
 10
7.930418
 20
0.586532
 30
0.0
  0
VERTEX
  5
89
100
AcDbEntity
  8
0
370
     0
390
0
100
AcDbVertex
100
AcDb2dVertex
 10
7.931839
 20
0.587279
 30
0.0
  0
VERTEX
  5
8A
100
AcDbEntity
  8
0
370
     0
390
0
100
AcDbVertex
100
AcDb2dVertex
 10
7.933397
 20
0.587925
 30
0.0
  0
VERTEX
  5
8B
100
AcDbEntity
  8
0
370
     0
390
0
100
AcDbVertex
100
AcDb2dVertex
 10
7.935095
 20
0.588473
 30
0.0
  0
VERTEX
  5
8C
100
AcDbEntity
  8
0
370
     0
390
0
100
AcDbVertex
100
AcDb2dVertex
 10
7.936934
 20
0.588921
 30
0.0
  0
VERTEX
  5
8D
100
AcDbEntity
  8
0
370
     0
390
0
100
AcDbVertex
100
AcDb2dVertex
 10
7.938912
 20
0.589269
 30
0.0
  0
VERTEX
  5
8E
100
AcDbEntity
  8
0
370
     0
390
0
100
AcDbVertex
100
AcDb2dVertex
 10
7.941029
 20
0.589518
 30
0.0
  0
VERTEX
  5
8F
100
AcDbEntity
  8
0
370
     0
390
0
100
AcDbVertex
100
AcDb2dVertex
 10
7.943286
 20
0.589667
 30
0.0
  0
VERTEX
  5
90
100
AcDbEntity
  8
0
370
     0
390
0
100
AcDbVertex
100
AcDb2dVertex
 10
7.945682
 20
0.589716
 30
0.0
  0
VERTEX
  5
91
100
AcDbEntity
  8
0
370
     0
390
0
100
AcDbVertex
100
AcDb2dVertex
 10
7.952171
 20
0.589608
 30
0.0
  0
VERTEX
  5
92
100
AcDbEntity
  8
0
370
     0
390
0
100
AcDbVertex
100
AcDb2dVertex
 10
7.953361
 20
0.594908
 30
0.0
  0
VERTEX
  5
93
100
AcDbEntity
  8
0
370
     0
390
0
100
AcDbVertex
100
AcDb2dVertex
 10
7.951177
 20
0.595142
 30
0.0
  0
VERTEX
  5
94
100
AcDbEntity
  8
0
370
     0
390
0
100
AcDbVertex
100
AcDb2dVertex
 10
7.949034
 20
0.595323
 30
0.0
  0
VERTEX
  5
95
100
AcDbEntity
  8
0
370
     0
390
0
100
AcDbVertex
100
AcDb2dVertex
 10
7.946936
 20
0.595454
 30
0.0
  0
VERTEX
  5
96
100
AcDbEntity
  8
0
370
     0
390
0
100
AcDbVertex
100
AcDb2dVertex
 10
7.944881
 20
0.595532
 30
0.0
  0
VERTEX
  5
97
100
AcDbEntity
  8
0
370
     0
390
0
100
AcDbVertex
100
AcDb2dVertex
 10
7.94287
 20
0.595557
 30
0.0
  0
VERTEX
  5
98
100
AcDbEntity
  8
0
370
     0
390
0
100
AcDbVertex
100
AcDb2dVertex
 10
7.940158
 20
0.5955
 30
0.0
  0
VERTEX
  5
99
100
AcDbEntity
  8
0
370
     0
390
0
100
AcDbVertex
100
AcDb2dVertex
 10
7.9376
 20
0.595331
 30
0.0
  0
VERTEX
  5
9A
100
AcDbEntity
  8
0
370
     0
390
0
100
AcDbVertex
100
AcDb2dVertex
 10
7.9352
 20
0.595046
 30
0.0
  0
VERTEX
  5
9B
100
AcDbEntity
  8
0
370
     0
390
0
100
AcDbVertex
100
AcDb2dVertex
 10
7.932953
 20
0.594648
 30
0.0
  0
VERTEX
  5
9C
100
AcDbEntity
  8
0
370
     0
390
0
100
AcDbVertex
100
AcDb2dVertex
 10
7.930864
 20
0.594138
 30
0.0
  0
VERTEX
  5
9D
100
AcDbEntity
  8
0
370
     0
390
0
100
AcDbVertex
100
AcDb2dVertex
 10
7.92893
 20
0.593513
 30
0.0
  0
VERTEX
  5
9E
100
AcDbEntity
  8
0
370
     0
390
0
100
AcDbVertex
100
AcDb2dVertex
 10
7.927152
 20
0.592775
 30
0.0
  0
VERTEX
  5
9F
100
AcDbEntity
  8
0
370
     0
390
0
100
AcDbVertex
100
AcDb2dVertex
 10
7.92553
 20
0.591923
 30
0.0
  0
VERTEX
  5
A0
100
AcDbEntity
  8
0
370
     0
390
0
100
AcDbVertex
100
AcDb2dVertex
 10
7.924063
 20
0.590958
 30
0.0
  0
VERTEX
  5
A1
100
AcDbEntity
  8
0
370
     0
390
0
100
AcDbVertex
100
AcDb2dVertex
 10
7.922751
 20
0.58988
 30
0.0
  0
VERTEX
  5
A2
100
AcDbEntity
  8
0
370
     0
390
0
100
AcDbVertex
100
AcDb2dVertex
 10
7.921574
 20
0.588665
 30
0.0
  0
VERTEX
  5
A3
100
AcDbEntity
  8
0
370
     0
390
0
100
AcDbVertex
100
AcDb2dVertex
 10
7.920506
 20
0.587294
 30
0.0
  0
VERTEX
  5
A4
100
AcDbEntity
  8
0
370
     0
390
0
100
AcDbVertex
100
AcDb2dVertex
 10
7.919549
 20
0.585767
 30
0.0
  0
VERTEX
  5
A5
100
AcDbEntity
  8
0
370
     0
390
0
100
AcDbVertex
100
AcDb2dVertex
 10
7.918703
 20
0.584081
 30
0.0
  0
VERTEX
  5
A6
100
AcDbEntity
  8
0
370
     0
390
0
100
AcDbVertex
100
AcDb2dVertex
 10
7.917966
 20
0.58224
 30
0.0
  0
VERTEX
  5
A7
100
AcDbEntity
  8
0
370
     0
390
0
100
AcDbVertex
100
AcDb2dVertex
 10
7.917339
 20
0.580242
 30
0.0
  0
VERTEX
  5
A8
100
AcDbEntity
  8
0
370
     0
390
0
100
AcDbVertex
100
AcDb2dVertex
 10
7.916824
 20
0.578087
 30
0.0
  0
VERTEX
  5
A9
100
AcDbEntity
  8
0
370
     0
390
0
100
AcDbVertex
100
AcDb2dVertex
 10
7.916418
 20
0.575775
 30
0.0
  0
VERTEX
  5
AA
100
AcDbEntity
  8
0
370
     0
390
0
100
AcDbVertex
100
AcDb2dVertex
 10
7.916123
 20
0.573306
 30
0.0
  0
VERTEX
  5
AB
100
AcDbEntity
  8
0
370
     0
390
0
100
AcDbVertex
100
AcDb2dVertex
 10
7.915938
 20
0.570681
 30
0.0
  0
VERTEX
  5
AC
100
AcDbEntity
  8
0
370
     0
390
0
100
AcDbVertex
100
AcDb2dVertex
 10
7.913659
 20
0.573722
 30
0.0
  0
VERTEX
  5
AD
100
AcDbEntity
  8
0
370
     0
390
0
100
AcDbVertex
100
AcDb2dVertex
 10
7.912577
 20
0.576833
 30
0.0
  0
VERTEX
  5
AE
100
AcDbEntity
  8
0
370
     0
390
0
100
AcDbVertex
100
AcDb2dVertex
 10
7.911392
 20
0.580013
 30
0.0
  0
VERTEX
  5
AF
100
AcDbEntity
  8
0
370
     0
390
0
100
AcDbVertex
100
AcDb2dVertex
 10
7.910106
 20
0.583262
 30
0.0
  0
VERTEX
  5
B0
100
AcDbEntity
  8
0
370
     0
390
0
100
AcDbVertex
100
AcDb2dVertex
 10
7.908719
 20
0.58658
 30
0.0
  0
VERTEX
  5
B1
100
AcDbEntity
  8
0
370
     0
390
0
100
AcDbVertex
100
AcDb2dVertex
 10
7.907229
 20
0.589967
 30
0.0
  0
VERTEX
  5
B2
100
AcDbEntity
  8
0
370
     0
390
0
100
AcDbVertex
100
AcDb2dVertex
 10
7.905638
 20
0.593424
 30
0.0
  0
VERTEX
  5
B3
100
AcDbEntity
  8
0
370
     0
390
0
100
AcDbVertex
100
AcDb2dVertex
 10
7.903945
 20
0.596951
 30
0.0
  0
VERTEX
  5
B4
100
AcDbEntity
  8
0
370
     0
390
0
100
AcDbVertex
100
AcDb2dVertex
 10
7.902151
 20
0.600546
 30
0.0
  0
VERTEX
  5
B5
100
AcDbEntity
  8
0
370
     0
390
0
100
AcDbVertex
100
AcDb2dVertex
 10
7.900255
 20
0.604209
 30
0.0
  0
SEQEND
  5
B6
100
AcDbEntity
  8
0
370
     0
390
0
  0
POLYLINE
  5
B7
100
AcDbEntity
  8
0
370
    13
390
0
 62
     7
 48
0.03937
100
AcDb2dPolyline
 66
     1
 10
0.0
 20
0.0
 30
0.0
 70
     1
 71
    22
  0
VERTEX
  5
B8
100
AcDbEntity
  8
0
370
     0
390
0
100
AcDbVertex
100
AcDb2dVertex
 10
8.036644
 20
0.598478
 30
0.0
  0
VERTEX
  5
B9
100
AcDbEntity
  8
0
370
     0
390
0
100
AcDbVertex
100
AcDb2dVertex
 10
8.035144
 20
0.596448
 30
0.0
  0
VERTEX
  5
BA
100
AcDbEntity
  8
0
370
     0
390
0
100
AcDbVertex
100
AcDb2dVertex
 10
8.033629
 20
0.594168
 30
0.0
  0
VERTEX
  5
BB
100
AcDbEntity
  8
0
370
     0
390
0
100
AcDbVertex
100
AcDb2dVertex
 10
8.032099
 20
0.591638
 30
0.0
  0
VERTEX
  5
BC
100
AcDbEntity
  8
0
370
     0
390
0
100
AcDbVertex
100
AcDb2dVertex
 10
8.030552
 20
0.588855
 30
0.0
  0
VERTEX
  5
BD
100
AcDbEntity
  8
0
370
     0
390
0
100
AcDbVertex
100
AcDb2dVertex
 10
8.028992
 20
0.585822
 30
0.0
  0
VERTEX
  5
BE
100
AcDbEntity
  8
0
370
     0
390
0
100
AcDbVertex
100
AcDb2dVertex
 10
8.027416
 20
0.582539
 30
0.0
  0
VERTEX
  5
BF
100
AcDbEntity
  8
0
370
     0
390
0
100
AcDbVertex
100
AcDb2dVertex
 10
8.025824
 20
0.579005
 30
0.0
  0
VERTEX
  5
C0
100
AcDbEntity
  8
0
370
     0
390
0
100
AcDbVertex
100
AcDb2dVertex
 10
8.024219
 20
0.575219
 30
0.0
  0
VERTEX
  5
C1
100
AcDbEntity
  8
0
370
     0
390
0
100
AcDbVertex
100
AcDb2dVertex
 10
8.022597
 20
0.571182
 30
0.0
  0
VERTEX
  5
C2
100
AcDbEntity
  8
0
370
     0
390
0
100
AcDbVertex
100
AcDb2dVertex
 10
8.020961
 20
0.566895
 30
0.0
  0
VERTEX
  5
C3
100
AcDbEntity
  8
0
370
     0
390
0
100
AcDbVertex
100
AcDb2dVertex
 10
8.018149
 20
0.567869
 30
0.0
  0
VERTEX
  5
C4
100
AcDbEntity
  8
0
370
     0
390
0
100
AcDbVertex
100
AcDb2dVertex
 10
8.020069
 20
0.573183
 30
0.0
  0
VERTEX
  5
C5
100
AcDbEntity
  8
0
370
     0
390
0
100
AcDbVertex
100
AcDb2dVertex
 10
8.021652
 20
0.577253
 30
0.0
  0
VERTEX
  5
C6
100
AcDbEntity
  8
0
370
     0
390
0
100
AcDbVertex
100
AcDb2dVertex
 10
8.023227
 20
0.581049
 30
0.0
  0
VERTEX
  5
C7
100
AcDbEntity
  8
0
370
     0
390
0
100
AcDbVertex
100
AcDb2dVertex
 10
8.024791
 20
0.584573
 30
0.0
  0
VERTEX
  5
C8
100
AcDbEntity
  8
0
370
     0
390
0
100
AcDbVertex
100
AcDb2dVertex
 10
8.026342
 20
0.587825
 30
0.0
  0
VERTEX
  5
C9
100
AcDbEntity
  8
0
370
     0
390
0
100
AcDbVertex
100
AcDb2dVertex
 10
8.027884
 20
0.590802
 30
0.0
  0
VERTEX
  5
CA
100
AcDbEntity
  8
0
370
     0
390
0
100
AcDbVertex
100
AcDb2dVertex
 10
8.029413
 20
0.593508
 30
0.0
  0
VERTEX
  5
CB
100
AcDbEntity
  8
0
370
     0
390
0
100
AcDbVertex
100
AcDb2dVertex
 10
8.030933
 20
0.595943
 30
0.0
  0
VERTEX
  5
CC
100
AcDbEntity
  8
0
370
     0
390
0
100
AcDbVertex
100
AcDb2dVertex
 10
8.032442
 20
0.598104
 30
0.0
  0
VERTEX
  5
CD
100
AcDbEntity
  8
0
370
     0
390
0
100
AcDbVertex
100
AcDb2dVertex
 10
8.03394
 20
0.599991
 30
0.0
  0
SEQEND
  5
CE
100
AcDbEntity
  8
0
370
     0
390
0
  0
POLYLINE
  5
CF
100
AcDbEntity
  8
0
370
    13
390
0
 62
     7
 48
0.03937
100
AcDb2dPolyline
 66
     1
 10
0.0
 20
0.0
 30
0.0
 70
     1
 71
    34
  0
VERTEX
  5
D0
100
AcDbEntity
  8
0
370
     0
390
0
100
AcDbVertex
100
AcDb2dVertex
 10
8.007766
 20
0.581604
 30
0.0
  0
VERTEX
  5
D1
100
AcDbEntity
  8
0
370
     0
390
0
100
AcDbVertex
100
AcDb2dVertex
 10
8.006072
 20
0.582632
 30
0.0
  0
VERTEX
  5
D2
100
AcDbEntity
  8
0
370
     0
390
0
100
AcDbVertex
100
AcDb2dVertex
 10
8.004322
 20
0.583551
 30
0.0
  0
VERTEX
  5
D3
100
AcDbEntity
  8
0
370
     0
390
0
100
AcDbVertex
100
AcDb2dVertex
 10
8.002516
 20
0.584363
 30
0.0
  0
VERTEX
  5
D4
100
AcDbEntity
  8
0
370
     0
390
0
100
AcDbVertex
100
AcDb2dVertex
 10
8.000652
 20
0.585066
 30
0.0
  0
VERTEX
  5
D5
100
AcDbEntity
  8
0
370
     0
390
0
100
AcDbVertex
100
AcDb2dVertex
 10
7.998734
 20
0.58566
 30
0.0
  0
VERTEX
  5
D6
100
AcDbEntity
  8
0
370
     0
390
0
100
AcDbVertex
100
AcDb2dVertex
 10
7.996758
 20
0.586148
 30
0.0
  0
VERTEX
  5
D7
100
AcDbEntity
  8
0
370
     0
390
0
100
AcDbVertex
100
AcDb2dVertex
 10
7.994728
 20
0.586526
 30
0.0
  0
VERTEX
  5
D8
100
AcDbEntity
  8
0
370
     0
390
0
100
AcDbVertex
100
AcDb2dVertex
 10
7.992641
 20
0.586796
 30
0.0
  0
VERTEX
  5
D9
100
AcDbEntity
  8
0
370
     0
390
0
100
AcDbVertex
100
AcDb2dVertex
 10
7.990496
 20
0.586959
 30
0.0
  0
VERTEX
  5
DA
100
AcDbEntity
  8
0
370
     0
390
0
100
AcDbVertex
100
AcDb2dVertex
 10
7.988297
 20
0.587013
 30
0.0
  0
VERTEX
  5
DB
100
AcDbEntity
  8
0
370
     0
390
0
100
AcDbVertex
100
AcDb2dVertex
 10
7.986785
 20
0.586983
 30
0.0
  0
VERTEX
  5
DC
100
AcDbEntity
  8
0
370
     0
390
0
100
AcDbVertex
100
AcDb2dVertex
 10
7.985234
 20
0.586896
 30
0.0
  0
VERTEX
  5
DD
100
AcDbEntity
  8
0
370
     0
390
0
100
AcDbVertex
100
AcDb2dVertex
 10
7.983644
 20
0.586751
 30
0.0
  0
VERTEX
  5
DE
100
AcDbEntity
  8
0
370
     0
390
0
100
AcDbVertex
100
AcDb2dVertex
 10
7.983538
 20
0.477987
 30
0.0
  0
VERTEX
  5
DF
100
AcDbEntity
  8
0
370
     0
390
0
100
AcDbVertex
100
AcDb2dVertex
 10
8.000735
 20
0.457653
 30
0.0
  0
VERTEX
  5
E0
100
AcDbEntity
  8
0
370
     0
390
0
100
AcDbVertex
100
AcDb2dVertex
 10
7.945466
 20
0.457653
 30
0.0
  0
VERTEX
  5
E1
100
AcDbEntity
  8
0
370
     0
390
0
100
AcDbVertex
100
AcDb2dVertex
 10
7.942978
 20
0.460574
 30
0.0
  0
VERTEX
  5
E2
100
AcDbEntity
  8
0
370
     0
390
0
100
AcDbVertex
100
AcDb2dVertex
 10
7.994786
 20
0.460574
 30
0.0
  0
VERTEX
  5
E3
100
AcDbEntity
  8
0
370
     0
390
0
100
AcDbVertex
100
AcDb2dVertex
 10
7.980293
 20
0.477123
 30
0.0
  0
VERTEX
  5
E4
100
AcDbEntity
  8
0
370
     0
390
0
100
AcDbVertex
100
AcDb2dVertex
 10
7.980293
 20
0.589826
 30
0.0
  0
VERTEX
  5
E5
100
AcDbEntity
  8
0
370
     0
390
0
100
AcDbVertex
100
AcDb2dVertex
 10
7.986134
 20
0.589934
 30
0.0
  0
VERTEX
  5
E6
100
AcDbEntity
  8
0
370
     0
390
0
100
AcDbVertex
100
AcDb2dVertex
 10
7.988171
 20
0.589916
 30
0.0
  0
VERTEX
  5
E7
100
AcDbEntity
  8
0
370
     0
390
0
100
AcDbVertex
100
AcDb2dVertex
 10
7.990086
 20
0.589866
 30
0.0
  0
VERTEX
  5
E8
100
AcDbEntity
  8
0
370
     0
390
0
100
AcDbVertex
100
AcDb2dVertex
 10
7.991879
 20
0.589782
 30
0.0
  0
VERTEX
  5
E9
100
AcDbEntity
  8
0
370
     0
390
0
100
AcDbVertex
100
AcDb2dVertex
 10
7.993549
 20
0.589665
 30
0.0
  0
VERTEX
  5
EA
100
AcDbEntity
  8
0
370
     0
390
0
100
AcDbVertex
100
AcDb2dVertex
 10
7.995098
 20
0.589514
 30
0.0
  0
VERTEX
  5
EB
100
AcDbEntity
  8
0
370
     0
390
0
100
AcDbVertex
100
AcDb2dVertex
 10
7.997828
 20
0.589112
 30
0.0
  0
VERTEX
  5
EC
100
AcDbEntity
  8
0
370
     0
390
0
100
AcDbVertex
100
AcDb2dVertex
 10
8.000069
 20
0.588575
 30
0.0
  0
VERTEX
  5
ED
100
AcDbEntity
  8
0
370
     0
390
0
100
AcDbVertex
100
AcDb2dVertex
 10
8.001862
 20
0.587888
 30
0.0
  0
VERTEX
  5
EE
100
AcDbEntity
  8
0
370
     0
390
0
100
AcDbVertex
100
AcDb2dVertex
 10
8.003455
 20
0.586953
 30
0.0
  0
VERTEX
  5
EF
100
AcDbEntity
  8
0
370
     0
390
0
100
AcDbVertex
100
AcDb2dVertex
 10
8.004886
 20
0.585755
 30
0.0
  0
VERTEX
  5
F0
100
AcDbEntity
  8
0
370
     0
390
0
100
AcDbVertex
100
AcDb2dVertex
 10
8.006157
 20
0.584294
 30
0.0
  0
VERTEX
  5
F1
100
AcDbEntity
  8
0
370
     0
390
0
100
AcDbVertex
100
AcDb2dVertex
 10
8.007269
 20
0.582567
 30
0.0
  0
SEQEND
  5
F2
100
AcDbEntity
  8
0
370
     0
390
0
  0
POLYLINE
  5
F3
100
AcDbEntity
  8
0
370
    13
390
0
 62
     7
 48
0.03937
100
AcDb2dPolyline
 66
     1
 10
0.0
 20
0.0
 30
0.0
 70
     1
 71
   138
  0
VERTEX
  5
F4
100
AcDbEntity
  8
0
370
     0
390
0
100
AcDbVertex
100
AcDb2dVertex
 10
8.03978
 20
0.605292
 30
0.0
  0
VERTEX
  5
F5
100
AcDbEntity
  8
0
370
     0
390
0
100
AcDbVertex
100
AcDb2dVertex
 10
8.152051
 20
0.605292
 30
0.0
  0
VERTEX
  5
F6
100
AcDbEntity
  8
0
370
     0
390
0
100
AcDbVertex
100
AcDb2dVertex
 10
8.150747
 20
0.603555
 30
0.0
  0
VERTEX
  5
F7
100
AcDbEntity
  8
0
370
     0
390
0
100
AcDbVertex
100
AcDb2dVertex
 10
8.149522
 20
0.601895
 30
0.0
  0
VERTEX
  5
F8
100
AcDbEntity
  8
0
370
     0
390
0
100
AcDbVertex
100
AcDb2dVertex
 10
8.148372
 20
0.600311
 30
0.0
  0
VERTEX
  5
F9
100
AcDbEntity
  8
0
370
     0
390
0
100
AcDbVertex
100
AcDb2dVertex
 10
8.1473
 20
0.598802
 30
0.0
  0
VERTEX
  5
FA
100
AcDbEntity
  8
0
370
     0
390
0
100
AcDbVertex
100
AcDb2dVertex
 10
8.146304
 20
0.597369
 30
0.0
  0
VERTEX
  5
FB
100
AcDbEntity
  8
0
370
     0
390
0
100
AcDbVertex
100
AcDb2dVertex
 10
8.145386
 20
0.596012
 30
0.0
  0
VERTEX
  5
FC
100
AcDbEntity
  8
0
370
     0
390
0
100
AcDbVertex
100
AcDb2dVertex
 10
8.144543
 20
0.594729
 30
0.0
  0
VERTEX
  5
FD
100
AcDbEntity
  8
0
370
     0
390
0
100
AcDbVertex
100
AcDb2dVertex
 10
8.143089
 20
0.592394
 30
0.0
  0
VERTEX
  5
FE
100
AcDbEntity
  8
0
370
     0
390
0
100
AcDbVertex
100
AcDb2dVertex
 10
8.14189
 20
0.590261
 30
0.0
  0
VERTEX
  5
FF
100
AcDbEntity
  8
0
370
     0
390
0
100
AcDbVertex
100
AcDb2dVertex
 10
8.140617
 20
0.587735
 30
0.0
  0
VERTEX
  5
100
100
AcDbEntity
  8
0
370
     0
390
0
100
AcDbVertex
100
AcDb2dVertex
 10
8.139935
 20
0.586286
 30
0.0
  0
VERTEX
  5
101
100
AcDbEntity
  8
0
370
     0
390
0
100
AcDbVertex
100
AcDb2dVertex
 10
8.13922
 20
0.584714
 30
0.0
  0
VERTEX
  5
102
100
AcDbEntity
  8
0
370
     0
390
0
100
AcDbVertex
100
AcDb2dVertex
 10
8.138474
 20
0.583019
 30
0.0
  0
VERTEX
  5
103
100
AcDbEntity
  8
0
370
     0
390
0
100
AcDbVertex
100
AcDb2dVertex
 10
8.137697
 20
0.581201
 30
0.0
  0
VERTEX
  5
104
100
AcDbEntity
  8
0
370
     0
390
0
100
AcDbVertex
100
AcDb2dVertex
 10
8.136889
 20
0.57926
 30
0.0
  0
VERTEX
  5
105
100
AcDbEntity
  8
0
370
     0
390
0
100
AcDbVertex
100
AcDb2dVertex
 10
8.136049
 20
0.577196
 30
0.0
  0
VERTEX
  5
106
100
AcDbEntity
  8
0
370
     0
390
0
100
AcDbVertex
100
AcDb2dVertex
 10
8.135177
 20
0.575007
 30
0.0
  0
VERTEX
  5
107
100
AcDbEntity
  8
0
370
     0
390
0
100
AcDbVertex
100
AcDb2dVertex
 10
8.134311
 20
0.572844
 30
0.0
  0
VERTEX
  5
108
100
AcDbEntity
  8
0
370
     0
390
0
100
AcDbVertex
100
AcDb2dVertex
 10
8.132887
 20
0.575682
 30
0.0
  0
VERTEX
  5
109
100
AcDbEntity
  8
0
370
     0
390
0
100
AcDbVertex
100
AcDb2dVertex
 10
8.131463
 20
0.578313
 30
0.0
  0
VERTEX
  5
10A
100
AcDbEntity
  8
0
370
     0
390
0
100
AcDbVertex
100
AcDb2dVertex
 10
8.130044
 20
0.580736
 30
0.0
  0
VERTEX
  5
10B
100
AcDbEntity
  8
0
370
     0
390
0
100
AcDbVertex
100
AcDb2dVertex
 10
8.128628
 20
0.582951
 30
0.0
  0
VERTEX
  5
10C
100
AcDbEntity
  8
0
370
     0
390
0
100
AcDbVertex
100
AcDb2dVertex
 10
8.127215
 20
0.584958
 30
0.0
  0
VERTEX
  5
10D
100
AcDbEntity
  8
0
370
     0
390
0
100
AcDbVertex
100
AcDb2dVertex
 10
8.125804
 20
0.586758
 30
0.0
  0
VERTEX
  5
10E
100
AcDbEntity
  8
0
370
     0
390
0
100
AcDbVertex
100
AcDb2dVertex
 10
8.124398
 20
0.58835
 30
0.0
  0
VERTEX
  5
10F
100
AcDbEntity
  8
0
370
     0
390
0
100
AcDbVertex
100
AcDb2dVertex
 10
8.122994
 20
0.589734
 30
0.0
  0
VERTEX
  5
110
100
AcDbEntity
  8
0
370
     0
390
0
100
AcDbVertex
100
AcDb2dVertex
 10
8.121594
 20
0.59091
 30
0.0
  0
VERTEX
  5
111
100
AcDbEntity
  8
0
370
     0
390
0
100
AcDbVertex
100
AcDb2dVertex
 10
8.120198
 20
0.591881
 30
0.0
  0
VERTEX
  5
112
100
AcDbEntity
  8
0
370
     0
390
0
100
AcDbVertex
100
AcDb2dVertex
 10
8.118707
 20
0.592701
 30
0.0
  0
VERTEX
  5
113
100
AcDbEntity
  8
0
370
     0
390
0
100
AcDbVertex
100
AcDb2dVertex
 10
8.117024
 20
0.593438
 30
0.0
  0
VERTEX
  5
114
100
AcDbEntity
  8
0
370
     0
390
0
100
AcDbVertex
100
AcDb2dVertex
 10
8.11515
 20
0.594086
 30
0.0
  0
VERTEX
  5
115
100
AcDbEntity
  8
0
370
     0
390
0
100
AcDbVertex
100
AcDb2dVertex
 10
8.113085
 20
0.594648
 30
0.0
  0
VERTEX
  5
116
100
AcDbEntity
  8
0
370
     0
390
0
100
AcDbVertex
100
AcDb2dVertex
 10
8.110827
 20
0.595125
 30
0.0
  0
VERTEX
  5
117
100
AcDbEntity
  8
0
370
     0
390
0
100
AcDbVertex
100
AcDb2dVertex
 10
8.108379
 20
0.595514
 30
0.0
  0
VERTEX
  5
118
100
AcDbEntity
  8
0
370
     0
390
0
100
AcDbVertex
100
AcDb2dVertex
 10
8.10574
 20
0.595817
 30
0.0
  0
VERTEX
  5
119
100
AcDbEntity
  8
0
370
     0
390
0
100
AcDbVertex
100
AcDb2dVertex
 10
8.102909
 20
0.596033
 30
0.0
  0
VERTEX
  5
11A
100
AcDbEntity
  8
0
370
     0
390
0
100
AcDbVertex
100
AcDb2dVertex
 10
8.099887
 20
0.596163
 30
0.0
  0
VERTEX
  5
11B
100
AcDbEntity
  8
0
370
     0
390
0
100
AcDbVertex
100
AcDb2dVertex
 10
8.096672
 20
0.596207
 30
0.0
  0
VERTEX
  5
11C
100
AcDbEntity
  8
0
370
     0
390
0
100
AcDbVertex
100
AcDb2dVertex
 10
8.090507
 20
0.596099
 30
0.0
  0
VERTEX
  5
11D
100
AcDbEntity
  8
0
370
     0
390
0
100
AcDbVertex
100
AcDb2dVertex
 10
8.080016
 20
0.596207
 30
0.0
  0
VERTEX
  5
11E
100
AcDbEntity
  8
0
370
     0
390
0
100
AcDbVertex
100
AcDb2dVertex
 10
8.076014
 20
0.596315
 30
0.0
  0
VERTEX
  5
11F
100
AcDbEntity
  8
0
370
     0
390
0
100
AcDbVertex
100
AcDb2dVertex
 10
8.076014
 20
0.545696
 30
0.0
  0
VERTEX
  5
120
100
AcDbEntity
  8
0
370
     0
390
0
100
AcDbVertex
100
AcDb2dVertex
 10
8.082612
 20
0.545696
 30
0.0
  0
VERTEX
  5
121
100
AcDbEntity
  8
0
370
     0
390
0
100
AcDbVertex
100
AcDb2dVertex
 10
8.082612
 20
0.590366
 30
0.0
  0
VERTEX
  5
122
100
AcDbEntity
  8
0
370
     0
390
0
100
AcDbVertex
100
AcDb2dVertex
 10
8.085749
 20
0.590474
 30
0.0
  0
VERTEX
  5
123
100
AcDbEntity
  8
0
370
     0
390
0
100
AcDbVertex
100
AcDb2dVertex
 10
8.088465
 20
0.590591
 30
0.0
  0
VERTEX
  5
124
100
AcDbEntity
  8
0
370
     0
390
0
100
AcDbVertex
100
AcDb2dVertex
 10
8.091251
 20
0.590682
 30
0.0
  0
VERTEX
  5
125
100
AcDbEntity
  8
0
370
     0
390
0
100
AcDbVertex
100
AcDb2dVertex
 10
8.094107
 20
0.590747
 30
0.0
  0
VERTEX
  5
126
100
AcDbEntity
  8
0
370
     0
390
0
100
AcDbVertex
100
AcDb2dVertex
 10
8.097032
 20
0.590786
 30
0.0
  0
VERTEX
  5
127
100
AcDbEntity
  8
0
370
     0
390
0
100
AcDbVertex
100
AcDb2dVertex
 10
8.100026
 20
0.590798
 30
0.0
  0
VERTEX
  5
128
100
AcDbEntity
  8
0
370
     0
390
0
100
AcDbVertex
100
AcDb2dVertex
 10
8.104273
 20
0.590684
 30
0.0
  0
VERTEX
  5
129
100
AcDbEntity
  8
0
370
     0
390
0
100
AcDbVertex
100
AcDb2dVertex
 10
8.108189
 20
0.59034
 30
0.0
  0
VERTEX
  5
12A
100
AcDbEntity
  8
0
370
     0
390
0
100
AcDbVertex
100
AcDb2dVertex
 10
8.111775
 20
0.589767
 30
0.0
  0
VERTEX
  5
12B
100
AcDbEntity
  8
0
370
     0
390
0
100
AcDbVertex
100
AcDb2dVertex
 10
8.115029
 20
0.588965
 30
0.0
  0
VERTEX
  5
12C
100
AcDbEntity
  8
0
370
     0
390
0
100
AcDbVertex
100
AcDb2dVertex
 10
8.117954
 20
0.587933
 30
0.0
  0
VERTEX
  5
12D
100
AcDbEntity
  8
0
370
     0
390
0
100
AcDbVertex
100
AcDb2dVertex
 10
8.120546
 20
0.586671
 30
0.0
  0
VERTEX
  5
12E
100
AcDbEntity
  8
0
370
     0
390
0
100
AcDbVertex
100
AcDb2dVertex
 10
8.122807
 20
0.58518
 30
0.0
  0
VERTEX
  5
12F
100
AcDbEntity
  8
0
370
     0
390
0
100
AcDbVertex
100
AcDb2dVertex
 10
8.124737
 20
0.583461
 30
0.0
  0
VERTEX
  5
130
100
AcDbEntity
  8
0
370
     0
390
0
100
AcDbVertex
100
AcDb2dVertex
 10
8.126338
 20
0.581511
 30
0.0
  0
VERTEX
  5
131
100
AcDbEntity
  8
0
370
     0
390
0
100
AcDbVertex
100
AcDb2dVertex
 10
8.127607
 20
0.579333
 30
0.0
  0
VERTEX
  5
132
100
AcDbEntity
  8
0
370
     0
390
0
100
AcDbVertex
100
AcDb2dVertex
 10
8.125449
 20
0.581235
 30
0.0
  0
VERTEX
  5
133
100
AcDbEntity
  8
0
370
     0
390
0
100
AcDbVertex
100
AcDb2dVertex
 10
8.123219
 20
0.582873
 30
0.0
  0
VERTEX
  5
134
100
AcDbEntity
  8
0
370
     0
390
0
100
AcDbVertex
100
AcDb2dVertex
 10
8.120915
 20
0.584246
 30
0.0
  0
VERTEX
  5
135
100
AcDbEntity
  8
0
370
     0
390
0
100
AcDbVertex
100
AcDb2dVertex
 10
8.118538
 20
0.585356
 30
0.0
  0
VERTEX
  5
136
100
AcDbEntity
  8
0
370
     0
390
0
100
AcDbVertex
100
AcDb2dVertex
 10
8.116087
 20
0.586202
 30
0.0
  0
VERTEX
  5
137
100
AcDbEntity
  8
0
370
     0
390
0
100
AcDbVertex
100
AcDb2dVertex
 10
8.113329
 20
0.586844
 30
0.0
  0
VERTEX
  5
138
100
AcDbEntity
  8
0
370
     0
390
0
100
AcDbVertex
100
AcDb2dVertex
 10
8.111747
 20
0.587112
 30
0.0
  0
VERTEX
  5
139
100
AcDbEntity
  8
0
370
     0
390
0
100
AcDbVertex
100
AcDb2dVertex
 10
8.110031
 20
0.587343
 30
0.0
  0
VERTEX
  5
13A
100
AcDbEntity
  8
0
370
     0
390
0
100
AcDbVertex
100
AcDb2dVertex
 10
8.108179
 20
0.58754
 30
0.0
  0
VERTEX
  5
13B
100
AcDbEntity
  8
0
370
     0
390
0
100
AcDbVertex
100
AcDb2dVertex
 10
8.106191
 20
0.5877
 30
0.0
  0
VERTEX
  5
13C
100
AcDbEntity
  8
0
370
     0
390
0
100
AcDbVertex
100
AcDb2dVertex
 10
8.104068
 20
0.587826
 30
0.0
  0
VERTEX
  5
13D
100
AcDbEntity
  8
0
370
     0
390
0
100
AcDbVertex
100
AcDb2dVertex
 10
8.101811
 20
0.587915
 30
0.0
  0
VERTEX
  5
13E
100
AcDbEntity
  8
0
370
     0
390
0
100
AcDbVertex
100
AcDb2dVertex
 10
8.099417
 20
0.587969
 30
0.0
  0
VERTEX
  5
13F
100
AcDbEntity
  8
0
370
     0
390
0
100
AcDbVertex
100
AcDb2dVertex
 10
8.09689
 20
0.587987
 30
0.0
  0
VERTEX
  5
140
100
AcDbEntity
  8
0
370
     0
390
0
100
AcDbVertex
100
AcDb2dVertex
 10
8.094938
 20
0.587964
 30
0.0
  0
VERTEX
  5
141
100
AcDbEntity
  8
0
370
     0
390
0
100
AcDbVertex
100
AcDb2dVertex
 10
8.092805
 20
0.5879
 30
0.0
  0
VERTEX
  5
142
100
AcDbEntity
  8
0
370
     0
390
0
100
AcDbVertex
100
AcDb2dVertex
 10
8.090491
 20
0.587792
 30
0.0
  0
VERTEX
  5
143
100
AcDbEntity
  8
0
370
     0
390
0
100
AcDbVertex
100
AcDb2dVertex
 10
8.087994
 20
0.58764
 30
0.0
  0
VERTEX
  5
144
100
AcDbEntity
  8
0
370
     0
390
0
100
AcDbVertex
100
AcDb2dVertex
 10
8.085316
 20
0.587445
 30
0.0
  0
VERTEX
  5
145
100
AcDbEntity
  8
0
370
     0
390
0
100
AcDbVertex
100
AcDb2dVertex
 10
8.085316
 20
0.545696
 30
0.0
  0
VERTEX
  5
146
100
AcDbEntity
  8
0
370
     0
390
0
100
AcDbVertex
100
AcDb2dVertex
 10
8.101647
 20
0.545696
 30
0.0
  0
VERTEX
  5
147
100
AcDbEntity
  8
0
370
     0
390
0
100
AcDbVertex
100
AcDb2dVertex
 10
8.118953
 20
0.563975
 30
0.0
  0
VERTEX
  5
148
100
AcDbEntity
  8
0
370
     0
390
0
100
AcDbVertex
100
AcDb2dVertex
 10
8.118953
 20
0.518655
 30
0.0
  0
VERTEX
  5
149
100
AcDbEntity
  8
0
370
     0
390
0
100
AcDbVertex
100
AcDb2dVertex
 10
8.100782
 20
0.53661
 30
0.0
  0
VERTEX
  5
14A
100
AcDbEntity
  8
0
370
     0
390
0
100
AcDbVertex
100
AcDb2dVertex
 10
8.076014
 20
0.53661
 30
0.0
  0
VERTEX
  5
14B
100
AcDbEntity
  8
0
370
     0
390
0
100
AcDbVertex
100
AcDb2dVertex
 10
8.076014
 20
0.482097
 30
0.0
  0
VERTEX
  5
14C
100
AcDbEntity
  8
0
370
     0
390
0
100
AcDbVertex
100
AcDb2dVertex
 10
8.089859
 20
0.468038
 30
0.0
  0
VERTEX
  5
14D
100
AcDbEntity
  8
0
370
     0
390
0
100
AcDbVertex
100
AcDb2dVertex
 10
8.036753
 20
0.468038
 30
0.0
  0
VERTEX
  5
14E
100
AcDbEntity
  8
0
370
     0
390
0
100
AcDbVertex
100
AcDb2dVertex
 10
8.054382
 20
0.482097
 30
0.0
  0
VERTEX
  5
14F
100
AcDbEntity
  8
0
370
     0
390
0
100
AcDbVertex
100
AcDb2dVertex
 10
8.054382
 20
0.528606
 30
0.0
  0
VERTEX
  5
150
100
AcDbEntity
  8
0
370
     0
390
0
100
AcDbVertex
100
AcDb2dVertex
 10
8.052737
 20
0.528543
 30
0.0
  0
VERTEX
  5
151
100
AcDbEntity
  8
0
370
     0
390
0
100
AcDbVertex
100
AcDb2dVertex
 10
8.051134
 20
0.528356
 30
0.0
  0
VERTEX
  5
152
100
AcDbEntity
  8
0
370
     0
390
0
100
AcDbVertex
100
AcDb2dVertex
 10
8.049571
 20
0.528042
 30
0.0
  0
VERTEX
  5
153
100
AcDbEntity
  8
0
370
     0
390
0
100
AcDbVertex
100
AcDb2dVertex
 10
8.048048
 20
0.527603
 30
0.0
  0
VERTEX
  5
154
100
AcDbEntity
  8
0
370
     0
390
0
100
AcDbVertex
100
AcDb2dVertex
 10
8.046567
 20
0.527039
 30
0.0
  0
VERTEX
  5
155
100
AcDbEntity
  8
0
370
     0
390
0
100
AcDbVertex
100
AcDb2dVertex
 10
8.045129
 20
0.526349
 30
0.0
  0
VERTEX
  5
156
100
AcDbEntity
  8
0
370
     0
390
0
100
AcDbVertex
100
AcDb2dVertex
 10
8.04373
 20
0.525533
 30
0.0
  0
VERTEX
  5
157
100
AcDbEntity
  8
0
370
     0
390
0
100
AcDbVertex
100
AcDb2dVertex
 10
8.042372
 20
0.524592
 30
0.0
  0
VERTEX
  5
158
100
AcDbEntity
  8
0
370
     0
390
0
100
AcDbVertex
100
AcDb2dVertex
 10
8.041057
 20
0.523526
 30
0.0
  0
VERTEX
  5
159
100
AcDbEntity
  8
0
370
     0
390
0
100
AcDbVertex
100
AcDb2dVertex
 10
8.03978
 20
0.522333
 30
0.0
  0
VERTEX
  5
15A
100
AcDbEntity
  8
0
370
     0
390
0
100
AcDbVertex
100
AcDb2dVertex
 10
8.037725
 20
0.524604
 30
0.0
  0
VERTEX
  5
15B
100
AcDbEntity
  8
0
370
     0
390
0
100
AcDbVertex
100
AcDb2dVertex
 10
8.039021
 20
0.52592
 30
0.0
  0
VERTEX
  5
15C
100
AcDbEntity
  8
0
370
     0
390
0
100
AcDbVertex
100
AcDb2dVertex
 10
8.0404
 20
0.527097
 30
0.0
  0
VERTEX
  5
15D
100
AcDbEntity
  8
0
370
     0
390
0
100
AcDbVertex
100
AcDb2dVertex
 10
8.041859
 20
0.528135
 30
0.0
  0
VERTEX
  5
15E
100
AcDbEntity
  8
0
370
     0
390
0
100
AcDbVertex
100
AcDb2dVertex
 10
8.043403
 20
0.529035
 30
0.0
  0
VERTEX
  5
15F
100
AcDbEntity
  8
0
370
     0
390
0
100
AcDbVertex
100
AcDb2dVertex
 10
8.045027
 20
0.529796
 30
0.0
  0
VERTEX
  5
160
100
AcDbEntity
  8
0
370
     0
390
0
100
AcDbVertex
100
AcDb2dVertex
 10
8.046733
 20
0.53042
 30
0.0
  0
VERTEX
  5
161
100
AcDbEntity
  8
0
370
     0
390
0
100
AcDbVertex
100
AcDb2dVertex
 10
8.048522
 20
0.530904
 30
0.0
  0
VERTEX
  5
162
100
AcDbEntity
  8
0
370
     0
390
0
100
AcDbVertex
100
AcDb2dVertex
 10
8.050394
 20
0.531249
 30
0.0
  0
VERTEX
  5
163
100
AcDbEntity
  8
0
370
     0
390
0
100
AcDbVertex
100
AcDb2dVertex
 10
8.052347
 20
0.531458
 30
0.0
  0
VERTEX
  5
164
100
AcDbEntity
  8
0
370
     0
390
0
100
AcDbVertex
100
AcDb2dVertex
 10
8.054382
 20
0.531527
 30
0.0
  0
VERTEX
  5
165
100
AcDbEntity
  8
0
370
     0
390
0
100
AcDbVertex
100
AcDb2dVertex
 10
8.054382
 20
0.53661
 30
0.0
  0
VERTEX
  5
166
100
AcDbEntity
  8
0
370
     0
390
0
100
AcDbVertex
100
AcDb2dVertex
 10
8.052773
 20
0.536748
 30
0.0
  0
VERTEX
  5
167
100
AcDbEntity
  8
0
370
     0
390
0
100
AcDbVertex
100
AcDb2dVertex
 10
8.051138
 20
0.536826
 30
0.0
  0
VERTEX
  5
168
100
AcDbEntity
  8
0
370
     0
390
0
100
AcDbVertex
100
AcDb2dVertex
 10
8.049152
 20
0.536744
 30
0.0
  0
VERTEX
  5
169
100
AcDbEntity
  8
0
370
     0
390
0
100
AcDbVertex
100
AcDb2dVertex
 10
8.047222
 20
0.536498
 30
0.0
  0
VERTEX
  5
16A
100
AcDbEntity
  8
0
370
     0
390
0
100
AcDbVertex
100
AcDb2dVertex
 10
8.045345
 20
0.536087
 30
0.0
  0
VERTEX
  5
16B
100
AcDbEntity
  8
0
370
     0
390
0
100
AcDbVertex
100
AcDb2dVertex
 10
8.043522
 20
0.535512
 30
0.0
  0
VERTEX
  5
16C
100
AcDbEntity
  8
0
370
     0
390
0
100
AcDbVertex
100
AcDb2dVertex
 10
8.041754
 20
0.534771
 30
0.0
  0
VERTEX
  5
16D
100
AcDbEntity
  8
0
370
     0
390
0
100
AcDbVertex
100
AcDb2dVertex
 10
8.04004
 20
0.533868
 30
0.0
  0
VERTEX
  5
16E
100
AcDbEntity
  8
0
370
     0
390
0
100
AcDbVertex
100
AcDb2dVertex
 10
8.038381
 20
0.532799
 30
0.0
  0
VERTEX
  5
16F
100
AcDbEntity
  8
0
370
     0
390
0
100
AcDbVertex
100
AcDb2dVertex
 10
8.036774
 20
0.531566
 30
0.0
  0
VERTEX
  5
170
100
AcDbEntity
  8
0
370
     0
390
0
100
AcDbVertex
100
AcDb2dVertex
 10
8.035222
 20
0.530168
 30
0.0
  0
VERTEX
  5
171
100
AcDbEntity
  8
0
370
     0
390
0
100
AcDbVertex
100
AcDb2dVertex
 10
8.033725
 20
0.528606
 30
0.0
  0
VERTEX
  5
172
100
AcDbEntity
  8
0
370
     0
390
0
100
AcDbVertex
100
AcDb2dVertex
 10
8.032967
 20
0.530337
 30
0.0
  0
VERTEX
  5
173
100
AcDbEntity
  8
0
370
     0
390
0
100
AcDbVertex
100
AcDb2dVertex
 10
8.034058
 20
0.533022
 30
0.0
  0
VERTEX
  5
174
100
AcDbEntity
  8
0
370
     0
390
0
100
AcDbVertex
100
AcDb2dVertex
 10
8.03538
 20
0.535451
 30
0.0
  0
VERTEX
  5
175
100
AcDbEntity
  8
0
370
     0
390
0
100
AcDbVertex
100
AcDb2dVertex
 10
8.036938
 20
0.537626
 30
0.0
  0
VERTEX
  5
176
100
AcDbEntity
  8
0
370
     0
390
0
100
AcDbVertex
100
AcDb2dVertex
 10
8.03873
 20
0.539544
 30
0.0
  0
VERTEX
  5
177
100
AcDbEntity
  8
0
370
     0
390
0
100
AcDbVertex
100
AcDb2dVertex
 10
8.040755
 20
0.541208
 30
0.0
  0
VERTEX
  5
178
100
AcDbEntity
  8
0
370
     0
390
0
100
AcDbVertex
100
AcDb2dVertex
 10
8.043013
 20
0.542615
 30
0.0
  0
VERTEX
  5
179
100
AcDbEntity
  8
0
370
     0
390
0
100
AcDbVertex
100
AcDb2dVertex
 10
8.045504
 20
0.543768
 30
0.0
  0
VERTEX
  5
17A
100
AcDbEntity
  8
0
370
     0
390
0
100
AcDbVertex
100
AcDb2dVertex
 10
8.048231
 20
0.544665
 30
0.0
  0
VERTEX
  5
17B
100
AcDbEntity
  8
0
370
     0
390
0
100
AcDbVertex
100
AcDb2dVertex
 10
8.051189
 20
0.545309
 30
0.0
  0
VERTEX
  5
17C
100
AcDbEntity
  8
0
370
     0
390
0
100
AcDbVertex
100
AcDb2dVertex
 10
8.054382
 20
0.545696
 30
0.0
  0
VERTEX
  5
17D
100
AcDbEntity
  8
0
370
     0
390
0
100
AcDbVertex
100
AcDb2dVertex
 10
8.054382
 20
0.591339
 30
0.0
  0
SEQEND
  5
17E
100
AcDbEntity
  8
0
370
     0
390
0
  0
POLYLINE
  5
17F
100
AcDbEntity
  8
0
370
    13
390
0
 62
     7
 48
0.03937
100
AcDb2dPolyline
 66
     1
 10
0.0
 20
0.0
 30
0.0
 70
     1
 71
    22
  0
VERTEX
  5
180
100
AcDbEntity
  8
0
370
     0
390
0
100
AcDbVertex
100
AcDb2dVertex
 10
8.160271
 20
0.598694
 30
0.0
  0
VERTEX
  5
181
100
AcDbEntity
  8
0
370
     0
390
0
100
AcDbVertex
100
AcDb2dVertex
 10
8.157292
 20
0.595112
 30
0.0
  0
VERTEX
  5
182
100
AcDbEntity
  8
0
370
     0
390
0
100
AcDbVertex
100
AcDb2dVertex
 10
8.154542
 20
0.59159
 30
0.0
  0
VERTEX
  5
183
100
AcDbEntity
  8
0
370
     0
390
0
100
AcDbVertex
100
AcDb2dVertex
 10
8.152022
 20
0.588129
 30
0.0
  0
VERTEX
  5
184
100
AcDbEntity
  8
0
370
     0
390
0
100
AcDbVertex
100
AcDb2dVertex
 10
8.149732
 20
0.584729
 30
0.0
  0
VERTEX
  5
185
100
AcDbEntity
  8
0
370
     0
390
0
100
AcDbVertex
100
AcDb2dVertex
 10
8.147671
 20
0.581388
 30
0.0
  0
VERTEX
  5
186
100
AcDbEntity
  8
0
370
     0
390
0
100
AcDbVertex
100
AcDb2dVertex
 10
8.145838
 20
0.578109
 30
0.0
  0
VERTEX
  5
187
100
AcDbEntity
  8
0
370
     0
390
0
100
AcDbVertex
100
AcDb2dVertex
 10
8.144234
 20
0.57489
 30
0.0
  0
VERTEX
  5
188
100
AcDbEntity
  8
0
370
     0
390
0
100
AcDbVertex
100
AcDb2dVertex
 10
8.142862
 20
0.571733
 30
0.0
  0
VERTEX
  5
189
100
AcDbEntity
  8
0
370
     0
390
0
100
AcDbVertex
100
AcDb2dVertex
 10
8.141717
 20
0.568634
 30
0.0
  0
VERTEX
  5
18A
100
AcDbEntity
  8
0
370
     0
390
0
100
AcDbVertex
100
AcDb2dVertex
 10
8.140802
 20
0.565596
 30
0.0
  0
VERTEX
  5
18B
100
AcDbEntity
  8
0
370
     0
390
0
100
AcDbVertex
100
AcDb2dVertex
 10
8.138531
 20
0.567111
 30
0.0
  0
VERTEX
  5
18C
100
AcDbEntity
  8
0
370
     0
390
0
100
AcDbVertex
100
AcDb2dVertex
 10
8.139469
 20
0.570503
 30
0.0
  0
VERTEX
  5
18D
100
AcDbEntity
  8
0
370
     0
390
0
100
AcDbVertex
100
AcDb2dVertex
 10
8.140637
 20
0.573882
 30
0.0
  0
VERTEX
  5
18E
100
AcDbEntity
  8
0
370
     0
390
0
100
AcDbVertex
100
AcDb2dVertex
 10
8.142038
 20
0.577251
 30
0.0
  0
VERTEX
  5
18F
100
AcDbEntity
  8
0
370
     0
390
0
100
AcDbVertex
100
AcDb2dVertex
 10
8.14367
 20
0.58061
 30
0.0
  0
VERTEX
  5
190
100
AcDbEntity
  8
0
370
     0
390
0
100
AcDbVertex
100
AcDb2dVertex
 10
8.145533
 20
0.583958
 30
0.0
  0
VERTEX
  5
191
100
AcDbEntity
  8
0
370
     0
390
0
100
AcDbVertex
100
AcDb2dVertex
 10
8.147629
 20
0.587294
 30
0.0
  0
VERTEX
  5
192
100
AcDbEntity
  8
0
370
     0
390
0
100
AcDbVertex
100
AcDb2dVertex
 10
8.149955
 20
0.590619
 30
0.0
  0
VERTEX
  5
193
100
AcDbEntity
  8
0
370
     0
390
0
100
AcDbVertex
100
AcDb2dVertex
 10
8.152513
 20
0.593936
 30
0.0
  0
VERTEX
  5
194
100
AcDbEntity
  8
0
370
     0
390
0
100
AcDbVertex
100
AcDb2dVertex
 10
8.155303
 20
0.597239
 30
0.0
  0
VERTEX
  5
195
100
AcDbEntity
  8
0
370
     0
390
0
100
AcDbVertex
100
AcDb2dVertex
 10
8.158324
 20
0.600533
 30
0.0
  0
SEQEND
  5
196
100
AcDbEntity
  8
0
370
     0
390
0
  0
POLYLINE
  5
197
100
AcDbEntity
  8
0
370
    13
390
0
 62
     7
 48
0.03937
100
AcDb2dPolyline
 66
     1
 10
0.0
 20
0.0
 30
0.0
 70
     1
 71
     4
  0
VERTEX
  5
198
100
AcDbEntity
  8
0
370
     0
390
0
100
AcDbVertex
100
AcDb2dVertex
 10
8.126849
 20
0.560189
 30
0.0
  0
VERTEX
  5
199
100
AcDbEntity
  8
0
370
     0
390
0
100
AcDbVertex
100
AcDb2dVertex
 10
8.126849
 20
0.513464
 30
0.0
  0
VERTEX
  5
19A
100
AcDbEntity
  8
0
370
     0
390
0
100
AcDbVertex
100
AcDb2dVertex
 10
8.124036
 20
0.515087
 30
0.0
  0
VERTEX
  5
19B
100
AcDbEntity
  8
0
370
     0
390
0
100
AcDbVertex
100
AcDb2dVertex
 10
8.124036
 20
0.561812
 30
0.0
  0
SEQEND
  5
19C
100
AcDbEntity
  8
0
370
     0
390
0
  0
POLYLINE
  5
19D
100
AcDbEntity
  8
0
370
    13
390
0
 62
     7
 48
0.03937
100
AcDb2dPolyline
 66
     1
 10
0.0
 20
0.0
 30
0.0
 70
     1
 71
    10
  0
VERTEX
  5
19E
100
AcDbEntity
  8
0
370
     0
390
0
100
AcDbVertex
100
AcDb2dVertex
 10
8.107488
 20
0.527525
 30
0.0
  0
VERTEX
  5
19F
100
AcDbEntity
  8
0
370
     0
390
0
100
AcDbVertex
100
AcDb2dVertex
 10
8.085316
 20
0.527525
 30
0.0
  0
VERTEX
  5
1A0
100
AcDbEntity
  8
0
370
     0
390
0
100
AcDbVertex
100
AcDb2dVertex
 10
8.085316
 20
0.481233
 30
0.0
  0
VERTEX
  5
1A1
100
AcDbEntity
  8
0
370
     0
390
0
100
AcDbVertex
100
AcDb2dVertex
 10
8.104352
 20
0.457653
 30
0.0
  0
VERTEX
  5
1A2
100
AcDbEntity
  8
0
370
     0
390
0
100
AcDbVertex
100
AcDb2dVertex
 10
8.041727
 20
0.457653
 30
0.0
  0
VERTEX
  5
1A3
100
AcDbEntity
  8
0
370
     0
390
0
100
AcDbVertex
100
AcDb2dVertex
 10
8.039024
 20
0.460574
 30
0.0
  0
VERTEX
  5
1A4
100
AcDbEntity
  8
0
370
     0
390
0
100
AcDbVertex
100
AcDb2dVertex
 10
8.098295
 20
0.460574
 30
0.0
  0
VERTEX
  5
1A5
100
AcDbEntity
  8
0
370
     0
390
0
100
AcDbVertex
100
AcDb2dVertex
 10
8.082612
 20
0.479934
 30
0.0
  0
VERTEX
  5
1A6
100
AcDbEntity
  8
0
370
     0
390
0
100
AcDbVertex
100
AcDb2dVertex
 10
8.082612
 20
0.530445
 30
0.0
  0
VERTEX
  5
1A7
100
AcDbEntity
  8
0
370
     0
390
0
100
AcDbVertex
100
AcDb2dVertex
 10
8.104352
 20
0.530445
 30
0.0
  0
SEQEND
  5
1A8
100
AcDbEntity
  8
0
370
     0
390
0
  0
POLYLINE
  5
1A9
100
AcDbEntity
  8
0
370
    35
390
0
 62
     7
 48
0.03937
100
AcDb2dPolyline
 66
     1
 10
0.0
 20
0.0
 30
0.0
 71
     2
  0
VERTEX
  5
1AA
100
AcDbEntity
  8
0
370
     0
390
0
100
AcDbVertex
100
AcDb2dVertex
 10
2.489862
 20
4.762984
 30
0.0
 42
1.05537
  0
VERTEX
  5
1AB
100
AcDbEntity
  8
0
370
     0
390
0
100
AcDbVertex
100
AcDb2dVertex
 10
2.508837
 20
5.114905
 30
0.0
  0
SEQEND
  5
1AC
100
AcDbEntity
  8
0
370
     0
390
0
  0
POLYLINE
  5
1AD
100
AcDbEntity
  8
0
370
    35
390
0
 62
     7
 48
0.03937
100
AcDb2dPolyline
 66
     1
 10
0.0
 20
0.0
 30
0.0
 71
     2
  0
VERTEX
  5
1AE
100
AcDbEntity
  8
0
370
     0
390
0
100
AcDbVertex
100
AcDb2dVertex
 10
2.508837
 20
5.114905
 30
0.0
 42
0.947537
  0
VERTEX
  5
1AF
100
AcDbEntity
  8
0
370
     0
390
0
100
AcDbVertex
100
AcDb2dVertex
 10
2.489862
 20
4.762984
 30
0.0
  0
SEQEND
  5
1B0
100
AcDbEntity
  8
0
370
     0
390
0
  0
SPLINE
  5
1B1
100
AcDbEntity
  8
0
370
    35
390
0
 62
     7
 48
0.03937
100
AcDbSpline
210
0.0
220
0.0
230
1.0
 70
     8
 71
     5
 72
    30
 73
    24
 74
     0
 42
0.0
 43
0.0
 40
0.0
 40
0.0
 40
0.0
 40
0.0
 40
0.0
 40
0.0
 40
5.4131053845163599
 40
5.4131053845163599
 40
5.4131053845163599
 40
7.2088544206052436
 40
7.2088544206052436
 40
7.2088544206052436
 40
12.602042860884371
 40
12.602042860884371
 40
12.602042860884371
 40
13.494903499601522
 40
13.494903499601522
 40
13.494903499601522
 40
14.387764138318664
 40
14.387764138318664
 40
14.387764138318664
 40
16.154372492605297
 40
16.154372492605297
 40
16.154372492605297
 40
17.843827951690731
 40
17.843827951690731
 40
17.843827951690731
 40
17.843827951690731
 40
17.843827951690731
 40
17.843827951690731
 10
2.6940349198301012
 20
4.9372706388452716
 30
0.0
 10
2.6933885454676503
 20
4.9185211437256182
 30
0.0
 10
2.6903687904937899
 20
4.8999018017498797
 30
0.0
 10
2.684997760010905
 20
4.8817208093933306
 30
0.0
 10
2.6747814582708753
 20
4.8587085278959687
 30
0.0
 10
2.6610958754641225
 20
4.8380928671256918
 30
0.0
 10
2.6574756287153094
 20
4.8331101714208975
 30
0.0
 10
2.6422017189795208
 20
4.8138465404049038
 30
0.0
 10
2.6237531065808311
 20
4.7972661316620737
 30
0.0
 10
2.6083864912043055
 20
4.7866775593477806
 30
0.0
 10
2.5891534265017127
 20
4.7768186234920886
 30
0.0
 10
2.5690223062544018
 20
4.7699986073561984
 30
0.0
 10
2.5661477626435847
 20
4.7690916925062679
 30
0.0
 10
2.5603528175869514
 20
4.7673976891503305
 30
0.0
 10
2.5545247386637699
 20
4.7659575531289651
 30
0.0
 10
2.5516144619693284
 20
4.7653035489440718
 30
0.0
 10
2.5429832382994113
 20
4.7635509836723111
 30
0.0
 10
2.5344626967073181
 20
4.7623629990494107
 30
0.0
 10
2.5288548288280768
 20
4.7618073275876851
 30
0.0
 10
2.5178645978338809
 20
4.7611452680011848
 30
0.0
 10
2.5066633949883439
 20
4.7613482660922992
 30
0.0
 10
2.5010962713981773
 20
4.761660381235048
 30
0.0
 10
2.4954614217719526
 20
4.7622103909055298
 30
0.0
 10
2.4898626520677696
 20
4.762983925168621
 30
0.0
  0
SPLINE
  5
1B2
100
AcDbEntity
  8
0
370
    35
390
0
 62
     7
 48
0.03937
100
AcDbSpline
210
0.0
220
0.0
230
1.0
 70
     8
 71
     5
 72
    21
 73
    15
 74
     0
 42
0.0
 43
0.0
 40
0.0
 40
0.0
 40
0.0
 40
0.0
 40
0.0
 40
0.0
 40
6.8785971015841332
 40
6.8785971015841332
 40
6.8785971015841332
 40
9.151065706410078
 40
9.151065706410078
 40
9.151065706410078
 40
10.277172455807214
 40
10.277172455807214
 40
10.277172455807214
 40
11.380523103756618
 40
11.380523103756618
 40
11.380523103756618
 40
11.380523103756618
 40
11.380523103756618
 40
11.380523103756618
 10
2.6003233841355424
 20
5.1058987166865686
 30
0.0
 10
2.6213583942825514
 20
5.0936482904439782
 30
0.0
 10
2.6403706818039425
 20
5.0780823729099334
 30
0.0
 10
2.6573031408121772
 20
5.0592407742780869
 30
0.0
 10
2.67513657058762
 20
5.0301890832813907
 30
0.0
 10
2.6859163872382021
 20
4.99923103554897
 30
0.0
 10
2.6881569585211027
 20
4.9914502824395495
 30
0.0
 10
2.6908490630355435
 20
4.9797992640211408
 30
0.0
 10
2.6925913325485746
 20
4.9680876531678324
 30
0.0
 10
2.6930656993845359
 20
4.9641992707942286
 30
0.0
 10
2.6938014571029107
 20
4.9564850562911609
 30
0.0
 10
2.6941340652506565
 20
4.9487508873502097
 30
0.0
 10
2.694199814521558
 20
4.944919446675601
 30
0.0
 10
2.6941666700065872
 20
4.9410923393516146
 30
0.0
 10
2.6940349198301012
 20
4.9372706388452716
 30
0.0
  0
CIRCLE
  5
1B3
100
AcDbEntity
  8
0
370
    35
390
0
 62
     7
 48
0.03937
100
AcDbCircle
 10
2.508837
 20
4.938433
 30
0.0
 40
0.226654
210
0.0
220
0.0
230
1.0
  0
POLYLINE
  5
1B4
100
AcDbEntity
  8
0
370
    35
390
0
 62
     7
 48
0.03937
100
AcDb2dPolyline
 66
     1
 10
0.0
 20
0.0
 30
0.0
 71
     2
  0
VERTEX
  5
1B5
100
AcDbEntity
  8
0
370
     0
390
0
100
AcDbVertex
100
AcDb2dVertex
 10
2.409483
 20
4.756568
 30
0.0
 42
0.089172
  0
VERTEX
  5
1B6
100
AcDbEntity
  8
0
370
     0
390
0
100
AcDbVertex
100
AcDb2dVertex
 10
2.47873
 20
4.731523
 30
0.0
  0
SEQEND
  5
1B7
100
AcDbEntity
  8
0
370
     0
390
0
  0
POLYLINE
  5
1B8
100
AcDbEntity
  8
0
370
    35
390
0
 62
     7
 48
0.03937
100
AcDb2dPolyline
 66
     1
 10
0.0
 20
0.0
 30
0.0
 71
     2
  0
VERTEX
  5
1B9
100
AcDbEntity
  8
0
370
     0
390
0
100
AcDbVertex
100
AcDb2dVertex
 10
2.461894
 20
4.768315
 30
0.0
 42
0.055723
  0
VERTEX
  5
1BA
100
AcDbEntity
  8
0
370
     0
390
0
100
AcDbVertex
100
AcDb2dVertex
 10
2.478735
 20
4.731525
 30
0.0
  0
SEQEND
  5
1BB
100
AcDbEntity
  8
0
370
     0
390
0
  0
SPLINE
  5
1BC
100
AcDbEntity
  8
0
370
    35
390
0
 62
     7
 48
0.03937
100
AcDbSpline
210
0.0
220
0.0
230
1.0
 70
     8
 71
     5
 72
    33
 73
    27
 74
     0
 42
0.0
 43
0.0
 40
0.0
 40
0.0
 40
0.0
 40
0.0
 40
0.0
 40
0.0
 40
6.5299602813557955
 40
6.5299602813557955
 40
6.5299602813557955
 40
9.4348609109651704
 40
9.4348609109651704
 40
9.4348609109651704
 40
13.05504936098302
 40
13.05504936098302
 40
13.05504936098302
 40
15.241997239131504
 40
15.241997239131504
 40
15.241997239131504
 40
18.913234993769606
 40
18.913234993769606
 40
18.913234993769606
 40
20.402079047902841
 40
20.402079047902841
 40
20.402079047902841
 40
21.868690860272434
 40
21.868690860272434
 40
21.868690860272434
 40
22.645919193616656
 40
22.645919193616656
 40
22.645919193616656
 40
22.645919193616656
 40
22.645919193616656
 40
22.645919193616656
 10
2.3072058850101529
 20
4.9387960747226831
 30
0.0
 10
2.3078713054402793
 20
4.9628142941577984
 30
0.0
 10
2.3121138286870102
 20
4.986669745287994
 30
0.0
 10
2.3198986986005505
 20
5.0096946541801568
 30
0.0
 10
2.3359445233197329
 20
5.0406823430612242
 30
0.0
 10
2.3578545759356988
 20
5.0671084068619576
 30
0.0
 10
2.3651408021655018
 20
5.0748004049044351
 30
0.0
 10
2.3826829089787878
 20
5.0909793605826916
 30
0.0
 10
2.4025125112102832
 20
5.1043766525150138
 30
0.0
 10
2.4140727830801358
 20
5.1108270758498646
 30
0.0
 10
2.4332763536015647
 20
5.1195284526878293
 30
0.0
 10
2.453283787013492
 20
5.1255423598738874
 30
0.0
 10
2.4608668139485785
 20
5.1274093537835963
 30
0.0
 10
2.4812898468390601
 20
5.1313609143606405
 30
0.0
 10
2.501363546263327
 20
5.1325302347093444
 30
0.0
 10
2.513830920921762
 20
5.1322683198522281
 30
0.0
 10
2.5313270963986345
 20
5.1305266471888737
 30
0.0
 10
2.5489241523356423
 20
5.1266587229789273
 30
0.0
 10
2.5540103000606313
 20
5.125359478502201
 30
0.0
 10
2.5640662012097675
 20
5.1224158657321572
 30
0.0
 10
2.5739377084113535
 20
5.1187775381435268
 30
0.0
 10
2.5787729657468943
 20
5.1168046353794514
 30
0.0
 10
2.5860391250685466
 20
5.1135482390435714
 30
0.0
 10
2.5931157719139595
 20
5.1099241061683909
 30
0.0
 10
2.5955439722940703
 20
5.108624793960673
 30
0.0
 10
2.5979465904904151
 20
5.107282920213926
 30
0.0
 10
2.6003233841355429
 20
5.1058987166865686
 30
0.0
  0
SPLINE
  5
1BD
100
AcDbEntity
  8
0
370
    35
390
0
 62
     7
 48
0.03937
100
AcDbSpline
210
0.0
220
0.0
230
1.0
 70
     8
 71
     5
 72
    15
 73
     9
 74
     0
 42
0.0
 43
0.0
 40
0.0
 40
0.0
 40
0.0
 40
0.0
 40
0.0
 40
0.0
 40
7.1141820636510609
 40
7.1141820636510609
 40
7.1141820636510609
 40
11.815669593018068
 40
11.815669593018068
 40
11.815669593018068
 40
11.815669593018068
 40
11.815669593018068
 40
11.815669593018068
 10
2.4094834869308444
 20
4.7565686280405028
 30
0.0
 10
2.3864200620444671
 20
4.7699338420001078
 30
0.0
 10
2.3655730061582587
 20
4.7869699376675223
 30
0.0
 10
2.3477237440131287
 20
4.8071943414294491
 30
0.0
 10
2.3240829239278393
 20
4.8448586624041106
 30
0.0
 10
2.3113459579266546
 20
4.8869326194938285
 30
0.0
 10
2.3081020014812559
 20
4.9041260924166323
 30
0.0
 10
2.3067267908370974
 20
4.9215032652278454
 30
0.0
 10
2.3072058850101524
 20
4.9387960747226831
 30
0.0
  0
CIRCLE
  5
1BE
100
AcDbEntity
  8
0
370
    35
390
0
 62
     7
 48
0.03937
100
AcDbCircle
 10
3.283566
 20
5.713163
 30
0.0
 40
1.568177
210
0.0
220
0.0
230
1.0
  0
CIRCLE
  5
1BF
100
AcDbEntity
  8
0
370
    35
390
0
 62
     7
 48
0.03937
100
AcDbCircle
 10
4.058295
 20
4.938433
 30
0.0
 40
0.226654
210
0.0
220
0.0
230
1.0
  0
CIRCLE
  5
1C0
100
AcDbEntity
  8
0
370
    35
390
0
 62
     7
 48
0.03937
100
AcDbCircle
 10
4.058295
 20
6.487892
 30
0.0
 40
0.226654
210
0.0
220
0.0
230
1.0
  0
CIRCLE
  5
1C1
100
AcDbEntity
  8
0
370
    35
390
0
 62
     7
 48
0.03937
100
AcDbCircle
 10
2.508837
 20
6.487892
 30
0.0
 40
0.226654
210
0.0
220
0.0
230
1.0
  0
CIRCLE
  5
1C2
100
AcDbEntity
  8
0
370
    35
390
0
 62
     7
 48
0.03937
100
AcDbCircle
 10
3.283566
 20
5.713163
 30
0.0
 40
0.577089
210
0.0
220
0.0
230
1.0
  0
POLYLINE
  5
1C3
100
AcDbEntity
  8
0
370
    35
390
0
 62
     7
 48
0.03937
100
AcDb2dPolyline
 66
     1
 10
0.0
 20
0.0
 30
0.0
 71
     2
  0
VERTEX
  5
1C4
100
AcDbEntity
  8
0
370
     0
390
0
100
AcDbVertex
100
AcDb2dVertex
 10
4.228411
 20
4.891497
 30
0.0
 42
0.040393
  0
VERTEX
  5
1C5
100
AcDbEntity
  8
0
370
     0
390
0
100
AcDbVertex
100
AcDb2dVertex
 10
4.233745
 20
4.919459
 30
0.0
  0
SEQEND
  5
1C6
100
AcDbEntity
  8
0
370
     0
390
0
  0
SPLINE
  5
1C7
100
AcDbEntity
  8
0
370
    35
390
0
 62
     7
 48
0.03937
100
AcDbSpline
210
0.0
220
0.0
230
1.0
 70
     8
 71
     5
 72
    30
 73
    24
 74
     0
 42
0.0
 43
0.0
 40
0.0
 40
0.0
 40
0.0
 40
0.0
 40
0.0
 40
0.0
 40
5.4131060875685586
 40
5.4131060875685586
 40
5.4131060875685586
 40
7.2088553533116784
 40
7.2088553533116784
 40
7.2088553533116784
 40
12.602044449153087
 40
12.602044449153087
 40
12.602044449153087
 40
13.494905199747793
 40
13.494905199747793
 40
13.494905199747793
 40
14.387765950342487
 40
14.387765950342487
 40
14.387765950342487
 40
16.154374304897598
 40
16.154374304897598
 40
16.154374304897598
 40
17.843829652479585
 40
17.843829652479585
 40
17.843829652479585
 40
17.843829652479585
 40
17.843829652479585
 40
17.843829652479585
 10
4.0594579128241106
 20
5.123631527909426
 30
0.0
 10
4.0782074103789423
 20
5.1229851534630244
 30
0.0
 10
4.0968267547561039
 20
5.1199653977887589
 30
0.0
 10
4.11500774930325
 20
5.1145943659992064
 30
0.0
 10
4.1380200332187043
 20
5.1043780618197294
 30
0.0
 10
4.1586356956025812
 20
5.0906924758400276
 30
0.0
 10
4.1636183916512017
 20
5.0870722282640255
 30
0.0
 10
4.1828820237998716
 20
5.0717983150721899
 30
0.0
 10
4.1994624326723748
 20
5.0533496987202833
 30
0.0
 10
4.2100510042393493
 20
5.0379830804300214
 30
0.0
 10
4.2199099385825605
 20
5.0187500125886162
 30
0.0
 10
4.2267299525282294
 20
4.9986188890665613
 30
0.0
 10
4.2276368670544526
 20
4.99574434499457
 30
0.0
 10
4.229330869764925
 20
4.9899493988361998
 30
0.0
 10
4.2307710049248444
 20
4.9841213194466096
 30
0.0
 10
4.2314250086084177
 20
4.9812110427981429
 30
0.0
 10
4.2331775720950713
 20
4.9725798209737899
 30
0.0
 10
4.2343655548441523
 20
4.9640592839698199
 30
0.0
 10
4.2349212252409538
 20
4.9584514204873109
 30
0.0
 10
4.2355832835628613
 20
4.9474611980902896
 30
0.0
 10
4.2353802853579348
 20
4.936260000752517
 30
0.0
 10
4.235068170361715
 20
4.9306928787336162
 30
0.0
 10
4.2345181607128
 20
4.9250580294817707
 30
0.0
 10
4.233744626500763
 20
4.9194592601471037
 30
0.0
  0
SPLINE
  5
1C8
100
AcDbEntity
  8
0
370
    35
390
0
 62
     7
 48
0.03937
100
AcDbSpline
210
0.0
220
0.0
230
1.0
 70
     8
 71
     5
 72
    21
 73
    15
 74
     0
 42
0.0
 43
0.0
 40
0.0
 40
0.0
 40
0.0
 40
0.0
 40
0.0
 40
0.0
 40
6.8785965274481038
 40
6.8785965274481038
 40
6.8785965274481038
 40
9.1510648656912768
 40
9.1510648656912768
 40
9.1510648656912768
 40
10.27717141981508
 40
10.27717141981508
 40
10.27717141981508
 40
11.380521858224158
 40
11.380521858224158
 40
11.380521858224158
 40
11.380521858224158
 40
11.380521858224158
 40
11.380521858224158
 10
3.8908298349828137
 20
5.0299199922148672
 30
0.0
 10
3.9030802602028984
 20
5.0509550006061463
 30
0.0
 10
3.9186461761612268
 20
5.0699672867096854
 30
0.0
 10
3.9374877756274844
 20
5.086899749241705
 30
0.0
 10
3.9665394736661517
 20
5.1047331818088013
 30
0.0
 10
3.9974975239937143
 20
5.1155129977941787
 30
0.0
 10
4.0052782771656945
 20
5.1177535686801345
 30
0.0
 10
4.016929294754279
 20
5.1204456724638225
 30
0.0
 10
4.0286409041532814
 20
5.1221879413565601
 30
0.0
 10
4.0325292858481516
 20
5.1226623079959914
 30
0.0
 10
4.0402434989637781
 20
5.1233980653940012
 30
0.0
 10
4.0479776665020921
 20
5.1237306733674641
 30
0.0
 10
4.0518091064474113
 20
5.1237964225882999
 30
0.0
 10
4.0556362130435577
 20
5.1237632780608902
 30
0.0
 10
4.0594579128241106
 20
5.123631527909426
 30
0.0
  0
POLYLINE
  5
1C9
100
AcDbEntity
  8
0
370
    35
390
0
 62
     7
 48
0.03937
100
AcDb2dPolyline
 66
     1
 10
0.0
 20
0.0
 30
0.0
 71
     2
  0
VERTEX
  5
1CA
100
AcDbEntity
  8
0
370
     0
390
0
100
AcDbVertex
100
AcDb2dVertex
 10
4.240161
 20
4.839079
 30
0.0
 42
0.089172
  0
VERTEX
  5
1CB
100
AcDbEntity
  8
0
370
     0
390
0
100
AcDbVertex
100
AcDb2dVertex
 10
4.265206
 20
4.908326
 30
0.0
  0
SEQEND
  5
1CC
100
AcDbEntity
  8
0
370
     0
390
0
  0
POLYLINE
  5
1CD
100
AcDbEntity
  8
0
370
    35
390
0
 62
     7
 48
0.03937
100
AcDb2dPolyline
 66
     1
 10
0.0
 20
0.0
 30
0.0
 71
     2
  0
VERTEX
  5
1CE
100
AcDbEntity
  8
0
370
     0
390
0
100
AcDbVertex
100
AcDb2dVertex
 10
4.228413
 20
4.891491
 30
0.0
 42
0.055723
  0
VERTEX
  5
1CF
100
AcDbEntity
  8
0
370
     0
390
0
100
AcDbVertex
100
AcDb2dVertex
 10
4.265204
 20
4.908331
 30
0.0
  0
SEQEND
  5
1D0
100
AcDbEntity
  8
0
370
     0
390
0
  0
SPLINE
  5
1D1
100
AcDbEntity
  8
0
370
    35
390
0
 62
     7
 48
0.03937
100
AcDbSpline
210
0.0
220
0.0
230
1.0
 70
     8
 71
     5
 72
    33
 73
    27
 74
     0
 42
0.0
 43
0.0
 40
0.0
 40
0.0
 40
0.0
 40
0.0
 40
0.0
 40
0.0
 40
6.5299602860542816
 40
6.5299602860542816
 40
6.5299602860542816
 40
9.4348609180641887
 40
9.4348609180641887
 40
9.4348609180641887
 40
13.055049319385777
 40
13.055049319385777
 40
13.055049319385777
 40
15.241995866501926
 40
15.241995866501926
 40
15.241995866501926
 40
18.91324065057092
 40
18.91324065057092
 40
18.91324065057092
 40
20.402084847936759
 40
20.402084847936759
 40
20.402084847936759
 40
21.868700906344053
 40
21.868700906344053
 40
21.868700906344053
 40
22.645870289884048
 40
22.645870289884048
 40
22.645870289884048
 40
22.645870289884048
 40
22.645870289884048
 40
22.645870289884048
 10
4.0579324769466991
 20
4.7368024930894777
 30
0.0
 10
4.0339142574943017
 20
4.7374679135200832
 30
0.0
 10
4.0100588063470592
 20
4.7417104367725962
 30
0.0
 10
3.9870338974844053
 20
4.7494953066928218
 30
0.0
 10
3.9560462086457879
 20
4.7655411313713367
 30
0.0
 10
3.9296201448029264
 20
4.7874511840168807
 30
0.0
 10
3.9219281467228355
 20
4.794737410272762
 30
0.0
 10
3.9057491909745372
 20
4.8122795171799231
 30
0.0
 10
3.8923518989124286
 20
4.8321091196717516
 30
0.0
 10
3.8859014756104528
 20
4.8436693915791666
 30
0.0
 10
3.877200100830072
 20
4.8628729576895964
 30
0.0
 10
3.8711861944924064
 20
4.8828803861487096
 30
0.0
 10
3.8693191966602791
 20
4.8904634249741772
 30
0.0
 10
3.8653676190884285
 20
4.9108865344644377
 30
0.0
 10
3.8641982944043765
 20
4.9309604862497247
 30
0.0
 10
3.8644602391446954
 20
4.9434280707586362
 30
0.0
 10
3.8662020097767904
 20
4.9609245055865951
 30
0.0
 10
3.8700700485203496
 20
4.9785216757508843
 30
0.0
 10
3.8713693238777429
 20
4.9836078365555716
 30
0.0
 10
3.8743129972624089
 20
4.9936637548862075
 30
0.0
 10
3.8779513797468752
 20
5.0035352517094465
 30
0.0
 10
3.8799243124043694
 20
5.0083705098947027
 30
0.0
 10
3.8831806680005672
 20
5.0156364738133945
 30
0.0
 10
3.886804741142877
 20
5.0227129325034428
 30
0.0
 10
3.8881039612609571
 20
5.0251409448321018
 30
0.0
 10
3.8894457364420134
 20
5.0275433788404706
 30
0.0
 10
3.8908298349828137
 20
5.0299199922148672
 30
0.0
  0
SPLINE
  5
1D2
100
AcDbEntity
  8
0
370
    35
390
0
 62
     7
 48
0.03937
100
AcDbSpline
210
0.0
220
0.0
230
1.0
 70
     8
 71
     5
 72
    15
 73
     9
 74
     0
 42
0.0
 43
0.0
 40
0.0
 40
0.0
 40
0.0
 40
0.0
 40
0.0
 40
0.0
 40
7.1141820635502819
 40
7.1141820635502819
 40
7.1141820635502819
 40
11.815669592724541
 40
11.815669592724541
 40
11.815669592724541
 40
11.815669592724541
 40
11.815669592724541
 40
11.815669592724541
 10
4.2401599236288794
 20
4.8390800950101696
 30
0.0
 10
4.2267947096694654
 20
4.8160166701241192
 30
0.0
 10
4.2097586140021575
 20
4.7951696142382199
 30
0.0
 10
4.1895342102396755
 20
4.777320352091742
 30
0.0
 10
4.1518698892652832
 20
4.7536795320076379
 30
0.0
 10
4.1097959321770743
 20
4.7409425660062672
 30
0.0
 10
4.0926024592513253
 20
4.7376986095603684
 30
0.0
 10
4.0752252864408289
 20
4.7363233989164417
 30
0.0
 10
4.0579324769467
 20
4.7368024930894768
 30
0.0
  0
POLYLINE
  5
1D3
100
AcDbEntity
  8
0
370
    35
390
0
 62
     7
 48
0.03937
100
AcDb2dPolyline
 66
     1
 10
0.0
 20
0.0
 30
0.0
 71
     2
  0
VERTEX
  5
1D4
100
AcDbEntity
  8
0
370
     0
390
0
100
AcDbVertex
100
AcDb2dVertex
 10
4.105232
 20
6.658008
 30
0.0
 42
0.040393
  0
VERTEX
  5
1D5
100
AcDbEntity
  8
0
370
     0
390
0
100
AcDbVertex
100
AcDb2dVertex
 10
4.077269
 20
6.663341
 30
0.0
  0
SEQEND
  5
1D6
100
AcDbEntity
  8
0
370
     0
390
0
  0
SPLINE
  5
1D7
100
AcDbEntity
  8
0
370
    35
390
0
 62
     7
 48
0.03937
100
AcDbSpline
210
0.0
220
0.0
230
1.0
 70
     8
 71
     5
 72
    30
 73
    24
 74
     0
 42
0.0
 43
0.0
 40
0.0
 40
0.0
 40
0.0
 40
0.0
 40
0.0
 40
0.0
 40
5.4131060515053679
 40
5.4131060515053679
 40
5.4131060515053679
 40
7.2088553082492091
 40
7.2088553082492091
 40
7.2088553082492091
 40
12.602044298021287
 40
12.602044298021287
 40
12.602044298021287
 40
13.494905043286764
 40
13.494905043286764
 40
13.494905043286764
 40
14.387765788552237
 40
14.387765788552237
 40
14.387765788552237
 40
16.15437416350921
 40
16.15437416350921
 40
16.15437416350921
 40
17.843829543773111
 40
17.843829543773111
 40
17.843829543773111
 40
17.843829543773111
 40
17.843829543773111
 40
17.843829543773111
 10
3.8730970237599567
 20
6.4890545209034345
 30
0.0
 10
3.8737433982020524
 20
6.5078040183333536
 30
0.0
 10
3.8767631538404026
 20
6.5264233625873365
 30
0.0
 10
3.8821341855600497
 20
6.544604356959538
 30
0.0
 10
3.8923504895370558
 20
6.5676166406517433
 30
0.0
 10
3.9060360753239149
 20
6.5882323029578416
 30
0.0
 10
3.9096563228576122
 20
6.5932149990016926
 30
0.0
 10
3.9249302357362081
 20
6.6124786309476544
 30
0.0
 10
3.9433788513737915
 20
6.6290590393957709
 30
0.0
 10
3.9587454688522561
 20
6.6396476106989315
 30
0.0
 10
3.977978535758556
 20
6.6495065450813948
 30
0.0
 10
3.9981096587441085
 20
6.6563265593539054
 30
0.0
 10
4.0009842027827354
 20
6.6572334739411279
 30
0.0
 10
4.0067791488537621
 20
6.6589274767711624
 30
0.0
 10
4.0126072282408938
 20
6.6603676120736912
 30
0.0
 10
4.0155175049226104
 20
6.6610216158358133
 30
0.0
 10
4.0241487270657599
 20
6.662774179590226
 30
0.0
 10
4.03266926471448
 20
6.6639621626035224
 30
0.0
 10
4.0382771287868273
 20
6.6645178331484605
 30
0.0
 10
4.0492673523316833
 20
6.6651798916528024
 30
0.0
 10
4.0604685504492437
 20
6.6649768934741527
 30
0.0
 10
4.0660356727177467
 20
6.6646647784623196
 30
0.0
 10
4.0716705220793097
 20
6.6641147688070879
 30
0.0
 10
4.077269291522283
 20
6.663341234580086
 30
0.0
  0
SPLINE
  5
1D8
100
AcDbEntity
  8
0
370
    35
390
0
 62
     7
 48
0.03937
100
AcDbSpline
210
0.0
220
0.0
230
1.0
 70
     8
 71
     5
 72
    21
 73
    15
 74
     0
 42
0.0
 43
0.0
 40
0.0
 40
0.0
 40
0.0
 40
0.0
 40
0.0
 40
0.0
 40
6.878596893838564
 40
6.878596893838564
 40
6.878596893838564
 40
9.151065402182148
 40
9.151065402182148
 40
9.151065402182148
 40
10.277172080905515
 40
10.277172080905515
 40
10.277172080905515
 40
11.38052265301763
 40
11.38052265301763
 40
11.38052265301763
 40
11.38052265301763
 40
11.38052265301763
 40
11.38052265301763
 10
3.9668085594545159
 20
6.3204264430621384
 30
0.0
 10
3.9457735499428006
 20
6.3326768689347448
 30
0.0
 10
3.926761262934221
 20
6.3482427858984938
 30
0.0
 10
3.9098288026512074
 20
6.3670843848320162
 30
0.0
 10
3.891995371865534
 20
6.3961360783774657
 30
0.0
 10
3.8812155554555181
 20
6.4270941270492719
 30
0.0
 10
3.8789749843162986
 20
6.4348748801813178
 30
0.0
 10
3.8762828800663041
 20
6.4465258982994058
 30
0.0
 10
3.874540610777768
 20
6.4582375086263593
 30
0.0
 10
3.8740662440129321
 20
6.4621258907543178
 30
0.0
 10
3.8733304864105058
 20
6.469840104755237
 30
0.0
 10
3.8729978783258372
 20
6.4775742731885444
 30
0.0
 10
3.8729321290730532
 20
6.4814057135992051
 30
0.0
 10
3.8729652735925271
 20
6.485232820659772
 30
0.0
 10
3.8730970237599571
 20
6.4890545209034354
 30
0.0
  0
POLYLINE
  5
1D9
100
AcDbEntity
  8
0
370
    35
390
0
 62
     7
 48
0.03937
100
AcDb2dPolyline
 66
     1
 10
0.0
 20
0.0
 30
0.0
 71
     2
  0
VERTEX
  5
1DA
100
AcDbEntity
  8
0
370
     0
390
0
100
AcDbVertex
100
AcDb2dVertex
 10
4.157649
 20
6.669758
 30
0.0
 42
0.089172
  0
VERTEX
  5
1DB
100
AcDbEntity
  8
0
370
     0
390
0
100
AcDbVertex
100
AcDb2dVertex
 10
4.088402
 20
6.694802
 30
0.0
  0
SEQEND
  5
1DC
100
AcDbEntity
  8
0
370
     0
390
0
  0
POLYLINE
  5
1DD
100
AcDbEntity
  8
0
370
    35
390
0
 62
     7
 48
0.03937
100
AcDb2dPolyline
 66
     1
 10
0.0
 20
0.0
 30
0.0
 71
     2
  0
VERTEX
  5
1DE
100
AcDbEntity
  8
0
370
     0
390
0
100
AcDbVertex
100
AcDb2dVertex
 10
4.105238
 20
6.65801
 30
0.0
 42
0.055723
  0
VERTEX
  5
1DF
100
AcDbEntity
  8
0
370
     0
390
0
100
AcDbVertex
100
AcDb2dVertex
 10
4.088397
 20
6.694801
 30
0.0
  0
SEQEND
  5
1E0
100
AcDbEntity
  8
0
370
     0
390
0
  0
SPLINE
  5
1E1
100
AcDbEntity
  8
0
370
    35
390
0
 62
     7
 48
0.03937
100
AcDbSpline
210
0.0
220
0.0
230
1.0
 70
     8
 71
     5
 72
    33
 73
    27
 74
     0
 42
0.0
 43
0.0
 40
0.0
 40
0.0
 40
0.0
 40
0.0
 40
0.0
 40
0.0
 40
6.529960282312909
 40
6.529960282312909
 40
6.529960282312909
 40
9.434860912727471
 40
9.434860912727471
 40
9.434860912727471
 40
13.055049340682123
 40
13.055049340682123
 40
13.055049340682123
 40
15.241996780897557
 40
15.241996780897557
 40
15.241996780897557
 40
18.913236829675682
 40
18.913236829675682
 40
18.913236829675682
 40
20.402080929955552
 40
20.402080929955552
 40
20.402080929955552
 40
21.86869412889116
 40
21.86869412889116
 40
21.86869412889116
 40
22.645903219593844
 40
22.645903219593844
 40
22.645903219593844
 40
22.645903219593844
 40
22.645903219593844
 40
22.645903219593844
 10
4.2599260585799055
 20
6.4875290850260239
 30
0.0
 10
4.2592606381496818
 20
6.463510865587387
 30
0.0
 10
4.2550181149014596
 20
6.4396554144537976
 30
0.0
 10
4.2472332449881955
 20
6.4166305055775474
 30
0.0
 10
4.2311874202889088
 20
6.3856428167153556
 30
0.0
 10
4.2092773676660773
 20
6.3592167528989165
 30
0.0
 10
4.2019911414262436
 20
6.3515247548396738
 30
0.0
 10
4.1844490345728946
 20
6.3353457991283157
 30
0.0
 10
4.1646194322254217
 20
6.3219485071353878
 30
0.0
 10
4.1530591603397404
 20
6.3154980838143793
 30
0.0
 10
4.133855591271498
 20
6.30679670765893
 30
0.0
 10
4.1138481595124121
 20
6.3007828007604481
 30
0.0
 10
4.1062651287074097
 20
6.2989158055720189
 30
0.0
 10
4.0858420708227055
 20
6.2949642394449699
 30
0.0
 10
4.0657682890180551
 20
6.2937949176759815
 30
0.0
 10
4.0533008458477706
 20
6.294056842285852
 30
0.0
 10
4.0358045856996281
 20
6.2957985469290305
 30
0.0
 10
4.0182074924725226
 20
6.2996665085256396
 30
0.0
 10
4.0131213404788637
 20
6.3009657630821883
 30
0.0
 10
4.0030654337202467
 20
6.3039093956381276
 30
0.0
 10
3.9931939299065657
 20
6.3075477411455667
 30
0.0
 10
3.9883586722911426
 20
6.3095206536684199
 30
0.0
 10
3.9810925767519629
 20
6.3127770367068319
 30
0.0
 10
3.9740159913233275
 20
6.3164011500848094
 30
0.0
 10
3.9715878523278207
 20
6.3177004322323551
 30
0.0
 10
3.9691852942549177
 20
6.3190422738049312
 30
0.0
 10
3.9668085594545159
 20
6.3204264430621384
 30
0.0
  0
SPLINE
  5
1E2
100
AcDbEntity
  8
0
370
    35
390
0
 62
     7
 48
0.03937
100
AcDbSpline
210
0.0
220
0.0
230
1.0
 70
     8
 71
     5
 72
    15
 73
     9
 74
     0
 42
0.0
 43
0.0
 40
0.0
 40
0.0
 40
0.0
 40
0.0
 40
0.0
 40
0.0
 40
7.114182063599233
 40
7.114182063599233
 40
7.114182063599233
 40
11.81566959287939
 40
11.81566959287939
 40
11.81566959287939
 40
11.81566959287939
 40
11.81566959287939
 40
11.81566959287939
 10
4.1576484566592136
 20
6.6697565317082042
 30
0.0
 10
4.1807118815454221
 20
6.6563913177486969
 30
0.0
 10
4.2015589374312645
 20
6.6393552220811554
 30
0.0
 10
4.2194081995775754
 20
6.6191308183189266
 30
0.0
 10
4.2430490196618109
 20
6.5814664973446879
 30
0.0
 10
4.255785985663409
 20
6.5393925402554967
 30
0.0
 10
4.2590299421087616
 20
6.5221990673313925
 30
0.0
 10
4.2604051527529521
 20
6.5048218945205418
 30
0.0
 10
4.2599260585799055
 20
6.4875290850260239
 30
0.0
  0
POLYLINE
  5
1E3
100
AcDbEntity
  8
0
370
    35
390
0
 62
     7
 48
0.03937
100
AcDb2dPolyline
 66
     1
 10
0.0
 20
0.0
 30
0.0
 71
     2
  0
VERTEX
  5
1E4
100
AcDbEntity
  8
0
370
     0
390
0
100
AcDbVertex
100
AcDb2dVertex
 10
2.338721
 20
6.534829
 30
0.0
 42
0.040393
  0
VERTEX
  5
1E5
100
AcDbEntity
  8
0
370
     0
390
0
100
AcDbVertex
100
AcDb2dVertex
 10
2.333387
 20
6.506866
 30
0.0
  0
SEQEND
  5
1E6
100
AcDbEntity
  8
0
370
     0
390
0
  0
SPLINE
  5
1E7
100
AcDbEntity
  8
0
370
    35
390
0
 62
     7
 48
0.03937
100
AcDbSpline
210
0.0
220
0.0
230
1.0
 70
     8
 71
     5
 72
    30
 73
    24
 74
     0
 42
0.0
 43
0.0
 40
0.0
 40
0.0
 40
0.0
 40
0.0
 40
0.0
 40
0.0
 40
5.4131068078468925
 40
5.4131068078468925
 40
5.4131068078468925
 40
7.2088563126502141
 40
7.2088563126502141
 40
7.2088563126502141
 40
12.602046186877528
 40
12.602046186877528
 40
12.602046186877528
 40
13.494907056703056
 40
13.494907056703056
 40
13.494907056703056
 40
14.387767926528584
 40
14.387767926528584
 40
14.387767926528584
 40
16.154376266092523
 40
16.154376266092523
 40
16.154376266092523
 40
17.843831475186423
 40
17.843831475186423
 40
17.843831475186423
 40
17.843831475186423
 40
17.843831475186423
 40
17.843831475186423
 10
2.5076740307659477
 20
6.302693631839281
 30
0.0
 10
2.4889245307162717
 20
6.3033400063716911
 30
0.0
 10
2.4703051838789025
 20
6.3063597627636128
 30
0.0
 10
2.4521241871733999
 20
6.3117307958873976
 30
0.0
 10
2.4291119009160385
 20
6.3219471024607694
 30
0.0
 10
2.4084962368721556
 20
6.3356326916499217
 30
0.0
 10
2.4035135404529941
 20
6.3392529400771105
 30
0.0
 10
2.3842499068566743
 20
6.3545268569877509
 30
0.0
 10
2.3676694972980128
 20
6.3729754780004981
 30
0.0
 10
2.3570809260999868
 20
6.3883421000639409
 30
0.0
 10
2.3472219932106957
 20
6.4075751720487748
 30
0.0
 10
2.3404019817146904
 20
6.427706299433118
 30
0.0
 10
2.3394950675648052
 20
6.4305808440043943
 30
0.0
 10
2.3378010656032493
 20
6.4363757913606969
 30
0.0
 10
2.3363609314310514
 20
6.4422038712341054
 30
0.0
 10
2.335706928319186
 20
6.4451141478126983
 30
0.0
 10
2.3339543668607838
 20
6.4537453675100727
 30
0.0
 10
2.3327663862284802
 20
6.4622658993337296
 30
0.0
 10
2.3322107170332873
 20
6.4678737578709891
 30
0.0
 10
2.3315486601430964
 20
6.47886397060297
 30
0.0
 10
2.3317516584841109
 20
6.4900651617158243
 30
0.0
 10
2.3320637733185272
 20
6.4956322819390131
 30
0.0
 10
2.3326137829406668
 20
6.5012671307258865
 30
0.0
 10
2.3333873170892967
 20
6.5068658996016104
 30
0.0
  0
SPLINE
  5
1E8
100
AcDbEntity
  8
0
370
    35
390
0
 62
     7
 48
0.03937
100
AcDbSpline
210
0.0
220
0.0
230
1.0
 70
     8
 71
     5
 72
    21
 73
    15
 74
     0
 42
0.0
 43
0.0
 40
0.0
 40
0.0
 40
0.0
 40
0.0
 40
0.0
 40
0.0
 40
6.8785966281660569
 40
6.8785966281660569
 40
6.8785966281660569
 40
9.1510650131438176
 40
9.1510650131438176
 40
9.1510650131438176
 40
10.277171601500742
 40
10.277171601500742
 40
10.277171601500742
 40
11.38052207664337
 40
11.38052207664337
 40
11.38052207664337
 40
11.38052207664337
 40
11.38052207664337
 40
11.38052207664337
 10
2.6763021086072447
 20
6.3964051675338407
 30
0.0
 10
2.664051683207787
 20
6.3753701588345617
 30
0.0
 10
2.6484857669731658
 20
6.356357872482171
 30
0.0
 10
2.6296441676540367
 20
6.3394254105687962
 30
0.0
 10
2.6005924708494588
 20
6.3215919784909289
 30
0.0
 10
2.5696344209766631
 20
6.3108121623887552
 30
0.0
 10
2.5618536678156265
 20
6.3085715914332052
 30
0.0
 10
2.5502026500815265
 20
6.3058794875213717
 30
0.0
 10
2.5384910404275662
 20
6.3041372185198892
 30
0.0
 10
2.5346026586137049
 20
6.3036628518460001
 30
0.0
 10
2.5268884452548495
 20
6.3029270943918334
 30
0.0
 10
2.5191542774706464
 20
6.3025944863878136
 30
0.0
 10
2.5153228373974761
 20
6.3025287371582088
 30
0.0
 10
2.5114957306737358
 20
6.3025618816834301
 30
0.0
 10
2.5076740307659477
 20
6.302693631839281
 30
0.0
  0
POLYLINE
  5
1E9
100
AcDbEntity
  8
0
370
    35
390
0
 62
     7
 48
0.03937
100
AcDb2dPolyline
 66
     1
 10
0.0
 20
0.0
 30
0.0
 71
     2
  0
VERTEX
  5
1EA
100
AcDbEntity
  8
0
370
     0
390
0
100
AcDbVertex
100
AcDb2dVertex
 10
2.326971
 20
6.587246
 30
0.0
 42
0.089172
  0
VERTEX
  5
1EB
100
AcDbEntity
  8
0
370
     0
390
0
100
AcDbVertex
100
AcDb2dVertex
 10
2.301926
 20
6.517999
 30
0.0
  0
SEQEND
  5
1EC
100
AcDbEntity
  8
0
370
     0
390
0
  0
POLYLINE
  5
1ED
100
AcDbEntity
  8
0
370
    35
390
0
 62
     7
 48
0.03937
100
AcDb2dPolyline
 66
     1
 10
0.0
 20
0.0
 30
0.0
 71
     2
  0
VERTEX
  5
1EE
100
AcDbEntity
  8
0
370
     0
390
0
100
AcDbVertex
100
AcDb2dVertex
 10
2.338719
 20
6.534834
 30
0.0
 42
0.055723
  0
VERTEX
  5
1EF
100
AcDbEntity
  8
0
370
     0
390
0
100
AcDbVertex
100
AcDb2dVertex
 10
2.301928
 20
6.517994
 30
0.0
  0
SEQEND
  5
1F0
100
AcDbEntity
  8
0
370
     0
390
0
  0
SPLINE
  5
1F1
100
AcDbEntity
  8
0
370
    35
390
0
 62
     7
 48
0.03937
100
AcDbSpline
210
0.0
220
0.0
230
1.0
 70
     8
 71
     5
 72
    33
 73
    27
 74
     0
 42
0.0
 43
0.0
 40
0.0
 40
0.0
 40
0.0
 40
0.0
 40
0.0
 40
0.0
 40
6.5299602806157333
 40
6.5299602806157333
 40
6.5299602806157333
 40
9.434860909610137
 40
9.434860909610137
 40
9.434860909610137
 40
13.055049367516411
 40
13.055049367516411
 40
13.055049367516411
 40
15.241995871827594
 40
15.241995871827594
 40
15.241995871827594
 40
18.913241061657988
 40
18.913241061657988
 40
18.913241061657988
 40
20.402085271728119
 40
20.402085271728119
 40
20.402085271728119
 40
21.868701569786634
 40
21.868701569786634
 40
21.868701569786634
 40
22.645867593870978
 40
22.645867593870978
 40
22.645867593870978
 40
22.645867593870978
 40
22.645867593870978
 40
22.645867593870978
 10
2.5091994666433588
 20
6.6895226666592293
 30
0.0
 10
2.5332176860757527
 20
6.6888572462291789
 30
0.0
 10
2.5570731372033406
 20
6.684614722982988
 30
0.0
 10
2.580098046101527
 20
6.6768298530713697
 30
0.0
 10
2.6110857349902368
 20
6.6607840283433832
 30
0.0
 10
2.6375117987828389
 20
6.6388739757331532
 30
0.0
 10
2.6452037968195081
 20
6.6315877495071396
 30
0.0
 10
2.6613827524857792
 20
6.6140456427095193
 30
0.0
 10
2.6747800443966461
 20
6.5942160405208874
 30
0.0
 10
2.6812304677366838
 20
6.5826557686572107
 30
0.0
 10
2.6899318425263345
 20
6.5634522026774444
 30
0.0
 10
2.6959457489393381
 20
6.5434447741593358
 30
0.0
 10
2.6978127470186912
 20
6.5358617345521157
 30
0.0
 10
2.7017643255620505
 20
6.5154386205919996
 30
0.0
 10
2.7029336504660613
 20
6.4953646544172736
 30
0.0
 10
2.7026717040156978
 20
6.4828970580247329
 30
0.0
 10
2.7009299278093026
 20
6.4654006084974034
 30
0.0
 10
2.6970618825420627
 20
6.4478034318344291
 30
0.0
 10
2.6957626054228108
 20
6.442717270275546
 30
0.0
 10
2.6928189285819446
 20
6.4326613509627535
 30
0.0
 10
2.6891805429643623
 20
6.4227898547222075
 30
0.0
 10
2.6872076086048784
 20
6.4179545964939582
 30
0.0
 10
2.6839512553334028
 20
6.4106886437186814
 30
0.0
 10
2.6803271855989794
 20
6.4036121957586127
 30
0.0
 10
2.6790279707289608
 20
6.4011841941466976
 30
0.0
 10
2.6776862011650278
 20
6.3987817706348942
 30
0.0
 10
2.6763021086072443
 20
6.3964051675338407
 30
0.0
  0
SPLINE
  5
1F2
100
AcDbEntity
  8
0
370
    35
390
0
 62
     7
 48
0.03937
100
AcDbSpline
210
0.0
220
0.0
230
1.0
 70
     8
 71
     5
 72
    15
 73
     9
 74
     0
 42
0.0
 43
0.0
 40
0.0
 40
0.0
 40
0.0
 40
0.0
 40
0.0
 40
0.0
 40
7.1141820635451367
 40
7.1141820635451367
 40
7.1141820635451367
 40
11.815669592766554
 40
11.815669592766554
 40
11.815669592766554
 40
11.815669592766554
 40
11.815669592766554
 40
11.815669592766554
 10
2.3269720199611785
 20
6.5872450647385374
 30
0.0
 10
2.3403372339205837
 20
6.610308489624571
 30
0.0
 10
2.3573733295878752
 20
6.6311555455104569
 30
0.0
 10
2.3775977333506919
 20
6.649004807657076
 30
0.0
 10
2.4152620543247578
 20
6.6726456277411073
 30
0.0
 10
2.4573360114134384
 20
6.6853825937425828
 30
0.0
 10
2.4745294843384245
 20
6.688626550188391
 30
0.0
 10
2.4919066571490562
 20
6.6900017608322697
 30
0.0
 10
2.5091994666433588
 20
6.6895226666592293
 30
0.0
  0
CIRCLE
  5
1F3
100
AcDbEntity
  8
0
370
    35
390
0
 62
     7
 48
0.03937
100
AcDbCircle
 10
3.283566
 20
5.713163
 30
0.0
 40
0.20909
210
0.0
220
0.0
230
1.0
  0
POLYLINE
  5
1F4
100
AcDbEntity
  8
0
370
    35
390
0
 62
     7
 48
0.03937
100
AcDb2dPolyline
 66
     1
 10
0.0
 20
0.0
 30
0.0
 71
     2
  0
VERTEX
  5
1F5
100
AcDbEntity
  8
0
370
     0
390
0
100
AcDbVertex
100
AcDb2dVertex
 10
2.333387
 20
6.506867
 30
0.0
 42
1.055371
  0
VERTEX
  5
1F6
100
AcDbEntity
  8
0
370
     0
390
0
100
AcDbVertex
100
AcDb2dVertex
 10
2.685309
 20
6.487892
 30
0.0
  0
SEQEND
  5
1F7
100
AcDbEntity
  8
0
370
     0
390
0
  0
POLYLINE
  5
1F8
100
AcDbEntity
  8
0
370
    35
390
0
 62
     7
 48
0.03937
100
AcDb2dPolyline
 66
     1
 10
0.0
 20
0.0
 30
0.0
 71
     2
  0
VERTEX
  5
1F9
100
AcDbEntity
  8
0
370
     0
390
0
100
AcDbVertex
100
AcDb2dVertex
 10
4.142901
 20
6.642761
 30
0.0
 42
1.287427
  0
VERTEX
  5
1FA
100
AcDbEntity
  8
0
370
     0
390
0
100
AcDbVertex
100
AcDb2dVertex
 10
4.058295
 20
6.31142
 30
0.0
  0
SEQEND
  5
1FB
100
AcDbEntity
  8
0
370
     0
390
0
  0
POLYLINE
  5
1FC
100
AcDbEntity
  8
0
370
    35
390
0
 62
     7
 48
0.03937
100
AcDb2dPolyline
 66
     1
 10
0.0
 20
0.0
 30
0.0
 71
     2
  0
VERTEX
  5
1FD
100
AcDbEntity
  8
0
370
     0
390
0
100
AcDbVertex
100
AcDb2dVertex
 10
4.213164
 20
4.853828
 30
0.0
 42
1.287427
  0
VERTEX
  5
1FE
100
AcDbEntity
  8
0
370
     0
390
0
100
AcDbVertex
100
AcDb2dVertex
 10
3.881823
 20
4.938433
 30
0.0
  0
SEQEND
  5
1FF
100
AcDbEntity
  8
0
370
     0
390
0
  0
POLYLINE
  5
200
100
AcDbEntity
  8
0
370
    35
390
0
 62
     7
 48
0.03937
100
AcDb2dPolyline
 66
     1
 10
0.0
 20
0.0
 30
0.0
 71
     2
  0
VERTEX
  5
201
100
AcDbEntity
  8
0
370
     0
390
0
100
AcDbVertex
100
AcDb2dVertex
 10
3.881823
 20
4.938433
 30
0.0
 42
0.873704
  0
VERTEX
  5
202
100
AcDbEntity
  8
0
370
     0
390
0
100
AcDbVertex
100
AcDb2dVertex
 10
4.228411
 20
4.891497
 30
0.0
  0
SEQEND
  5
203
100
AcDbEntity
  8
0
370
     0
390
0
  0
POLYLINE
  5
204
100
AcDbEntity
  8
0
370
    35
390
0
 62
     7
 48
0.03937
100
AcDb2dPolyline
 66
     1
 10
0.0
 20
0.0
 30
0.0
 71
     2
  0
VERTEX
  5
205
100
AcDbEntity
  8
0
370
     0
390
0
100
AcDbVertex
100
AcDb2dVertex
 10
4.058295
 20
6.31142
 30
0.0
 42
0.873704
  0
VERTEX
  5
206
100
AcDbEntity
  8
0
370
     0
390
0
100
AcDbVertex
100
AcDb2dVertex
 10
4.105232
 20
6.658008
 30
0.0
  0
SEQEND
  5
207
100
AcDbEntity
  8
0
370
     0
390
0
  0
POLYLINE
  5
208
100
AcDbEntity
  8
0
370
    35
390
0
 62
     7
 48
0.03937
100
AcDb2dPolyline
 66
     1
 10
0.0
 20
0.0
 30
0.0
 71
     2
  0
VERTEX
  5
209
100
AcDbEntity
  8
0
370
     0
390
0
100
AcDbVertex
100
AcDb2dVertex
 10
2.685309
 20
6.487892
 30
0.0
 42
0.873704
  0
VERTEX
  5
20A
100
AcDbEntity
  8
0
370
     0
390
0
100
AcDbVertex
100
AcDb2dVertex
 10
2.338721
 20
6.534829
 30
0.0
  0
SEQEND
  5
20B
100
AcDbEntity
  8
0
370
     0
390
0
  0
LINE
  5
20C
100
AcDbEntity
  8
0
370
    35
390
0
 62
     7
 48
0.03937
100
AcDbLine
 10
3.074476
 20
1.440895
 30
0.0
 11
3.074476
 21
2.538619
 31
0.0
210
0.0
220
0.0
230
1.0
  0
LINE
  5
20D
100
AcDbEntity
  8
0
370
    35
390
0
 62
     7
 48
0.0092
100
AcDbLine
 10
3.074476
 20
2.538619
 30
0.0
 11
2.706477
 21
2.538619
 31
0.0
210
0.0
220
0.0
230
1.0
  0
LINE
  5
20E
100
AcDbEntity
  8
0
370
    35
390
0
 62
     7
 48
0.001307
100
AcDbLine
 10
2.706477
 20
2.486346
 30
0.0
 11
2.706477
 21
2.538619
 31
0.0
210
0.0
220
0.0
230
1.0
  0
LINE
  5
20F
100
AcDbEntity
  8
0
370
    35
390
0
 62
     7
 48
0.03937
100
AcDbLine
 10
2.706477
 20
2.486346
 30
0.0
 11
1.715389
 21
2.486346
 31
0.0
210
0.0
220
0.0
230
1.0
  0
LINE
  5
210
100
AcDbEntity
  8
0
370
    35
390
0
 62
     7
 48
0.03937
100
AcDbLine
 10
1.715389
 20
1.440895
 30
0.0
 11
1.715389
 21
2.486346
 31
0.0
210
0.0
220
0.0
230
1.0
  0
LINE
  5
211
100
AcDbEntity
  8
0
370
    35
390
0
 62
     7
 48
0.03937
100
AcDbLine
 10
3.074476
 20
1.440895
 30
0.0
 11
1.715389
 21
1.440895
 31
0.0
210
0.0
220
0.0
230
1.0
  0
LINE
  5
212
100
AcDbEntity
  8
0
370
    35
390
0
 62
     7
 48
0.03937
100
AcDbLine
 10
4.851743
 20
1.440895
 30
0.0
 11
3.492656
 21
1.440895
 31
0.0
210
0.0
220
0.0
230
1.0
  0
LINE
  5
213
100
AcDbEntity
  8
0
370
    35
390
0
 62
     7
 48
0.03937
100
AcDbLine
 10
4.851743
 20
1.440895
 30
0.0
 11
4.851743
 21
2.486346
 31
0.0
210
0.0
220
0.0
230
1.0
  0
LINE
  5
214
100
AcDbEntity
  8
0
370
    35
390
0
 62
     7
 48
0.03937
100
AcDbLine
 10
4.851743
 20
2.486346
 30
0.0
 11
3.860655
 21
2.486346
 31
0.0
210
0.0
220
0.0
230
1.0
  0
LINE
  5
215
100
AcDbEntity
  8
0
370
    35
390
0
 62
     7
 48
0.001307
100
AcDbLine
 10
3.860655
 20
2.486346
 30
0.0
 11
3.860655
 21
2.538619
 31
0.0
210
0.0
220
0.0
230
1.0
  0
LINE
  5
216
100
AcDbEntity
  8
0
370
    35
390
0
 62
     7
 48
0.0092
100
AcDbLine
 10
3.860655
 20
2.538619
 30
0.0
 11
3.492656
 21
2.538619
 31
0.0
210
0.0
220
0.0
230
1.0
  0
LINE
  5
217
100
AcDbEntity
  8
0
370
    35
390
0
 62
     7
 48
0.03937
100
AcDbLine
 10
3.492656
 20
1.440895
 30
0.0
 11
3.492656
 21
2.538619
 31
0.0
210
0.0
220
0.0
230
1.0
  0
POLYLINE
  5
218
100
AcDbEntity
  8
0
370
    35
390
0
 62
     7
 48
0.03937
100
AcDb2dPolyline
 66
     1
 10
0.0
 20
0.0
 30
0.0
 71
     2
  0
VERTEX
  5
219
100
AcDbEntity
  8
0
370
     0
390
0
100
AcDbVertex
100
AcDb2dVertex
 10
7.27353
 20
4.780298
 30
0.0
 42
0.021265
  0
VERTEX
  5
21A
100
AcDbEntity
  8
0
370
     0
390
0
100
AcDbVertex
100
AcDb2dVertex
 10
7.272865
 20
4.756472
 30
0.0
  0
SEQEND
  5
21B
100
AcDbEntity
  8
0
370
     0
390
0
  0
SPLINE
  5
21C
100
AcDbEntity
  8
0
370
    35
390
0
 62
     7
 48
0.03937
100
AcDbSpline
210
0.0
220
0.0
230
1.0
 70
     8
 71
     5
 72
    15
 73
     9
 74
     0
 42
0.0
 43
0.0
 40
0.0
 40
0.0
 40
0.0
 40
0.0
 40
0.0
 40
0.0
 40
6.0750571418143773
 40
6.0750571418143773
 40
6.0750571418143773
 40
8.7478998641118224
 40
8.7478998641118224
 40
8.7478998641118224
 40
8.7478998641118224
 40
8.7478998641118224
 40
8.7478998641118224
 10
7.3401314459909148
 20
4.563181029102596
 30
0.0
 10
7.3228759377679973
 20
4.5845659133941208
 30
0.0
 10
7.307992075063666
 20
4.6092923555971952
 30
0.0
 10
7.2958170587310729
 20
4.6361055300712657
 30
0.0
 10
7.2823905784603715
 20
4.6765779493427004
 30
0.0
 10
7.2754073568712947
 20
4.7182596215678698
 30
0.0
 10
7.2738978477013783
 20
4.7310439244240721
 30
0.0
 10
7.2730398552825104
 20
4.7438085532735528
 30
0.0
 10
7.272864509465653
 20
4.7564716513186118
 30
0.0
  0
POLYLINE
  5
21D
100
AcDbEntity
  8
0
370
    35
390
0
 62
     7
 48
0.03937
100
AcDb2dPolyline
 66
     1
 10
0.0
 20
0.0
 30
0.0
 71
     2
  0
VERTEX
  5
21E
100
AcDbEntity
  8
0
370
     0
390
0
100
AcDbVertex
100
AcDb2dVertex
 10
7.272118
 20
4.770322
 30
0.0
 42
0.029225
  0
VERTEX
  5
21F
100
AcDbEntity
  8
0
370
     0
390
0
100
AcDbVertex
100
AcDb2dVertex
 10
7.270598
 20
4.743382
 30
0.0
  0
SEQEND
  5
220
100
AcDbEntity
  8
0
370
     0
390
0
  0
POLYLINE
  5
221
100
AcDbEntity
  8
0
370
    35
390
0
 62
     7
 48
0.03937
100
AcDb2dPolyline
 66
     1
 10
0.0
 20
0.0
 30
0.0
 71
     2
  0
VERTEX
  5
222
100
AcDbEntity
  8
0
370
     0
390
0
100
AcDbVertex
100
AcDb2dVertex
 10
7.273636
 20
4.780923
 30
0.0
 42
0.012962
  0
VERTEX
  5
223
100
AcDbEntity
  8
0
370
     0
390
0
100
AcDbVertex
100
AcDb2dVertex
 10
7.27212
 20
4.770321
 30
0.0
  0
SEQEND
  5
224
100
AcDbEntity
  8
0
370
     0
390
0
  0
SPLINE
  5
225
100
AcDbEntity
  8
0
370
    35
390
0
 62
     7
 48
0.03937
100
AcDbSpline
210
0.0
220
0.0
230
1.0
 70
     8
 71
     5
 72
    15
 73
     9
 74
     0
 42
0.0
 43
0.0
 40
0.0
 40
0.0
 40
0.0
 40
0.0
 40
0.0
 40
0.0
 40
6.0893412752480716
 40
6.0893412752480716
 40
6.0893412752480716
 40
10.058297527973876
 40
10.058297527973876
 40
10.058297527973876
 40
10.058297527973876
 40
10.058297527973876
 40
10.058297527973876
 10
7.2693693120821816
 20
4.739926057039999
 30
0.0
 10
7.2696488199248774
 20
4.718118714424012
 30
0.0
 10
7.2723077755864161
 20
4.6958008989035225
 30
0.0
 10
7.2772054988250501
 20
4.6736261947088806
 30
0.0
 10
7.2886675860135242
 20
4.6381676803621703
 30
0.0
 10
7.3051953587406695
 20
4.6061218339633561
 30
0.0
 10
7.312497528947727
 20
4.5940678256497867
 30
0.0
 10
7.3205094820501424
 20
4.5828942044442638
 30
0.0
 10
7.3290362973192815
 20
4.5728632483708216
 30
0.0
  0
POLYLINE
  5
226
100
AcDbEntity
  8
0
370
    35
390
0
 62
     7
 48
0.03937
100
AcDb2dPolyline
 66
     1
 10
0.0
 20
0.0
 30
0.0
 71
     2
  0
VERTEX
  5
227
100
AcDbEntity
  8
0
370
     0
390
0
100
AcDbVertex
100
AcDb2dVertex
 10
7.272677
 20
4.782214
 30
0.0
 42
0.047347
  0
VERTEX
  5
228
100
AcDbEntity
  8
0
370
     0
390
0
100
AcDbVertex
100
AcDb2dVertex
 10
7.269378
 20
4.739926
 30
0.0
  0
SEQEND
  5
229
100
AcDbEntity
  8
0
370
     0
390
0
  0
SPLINE
  5
22A
100
AcDbEntity
  8
0
370
    35
390
0
 62
     7
 48
0.03937
100
AcDbSpline
210
0.0
220
0.0
230
1.0
 70
     8
 71
     5
 72
    15
 73
     9
 74
     0
 42
0.0
 43
0.0
 40
0.0
 40
0.0
 40
0.0
 40
0.0
 40
0.0
 40
0.0
 40
6.1917420815886466
 40
6.1917420815886466
 40
6.1917420815886466
 40
10.230219858425581
 40
10.230219858425581
 40
10.230219858425581
 40
10.230219858425581
 40
10.230219858425581
 40
10.230219858425581
 10
7.2705959931941697
 20
4.7433820744067736
 30
0.0
 10
7.2706085961037399
 20
4.7212692570276014
 30
0.0
 10
7.2730935035067157
 20
4.6985718853017442
 30
0.0
 10
7.2779040799229842
 20
4.6760010081637473
 30
0.0
 10
7.2893367734396532
 20
4.6398788769128227
 30
0.0
 10
7.3060618723856248
 20
4.6071565831320269
 30
0.0
 10
7.3134737312282567
 20
4.5948533700424505
 30
0.0
 10
7.321614096902807
 20
4.5834690701212901
 30
0.0
 10
7.3302827844541856
 20
4.5732706969564498
 30
0.0
  0
POLYLINE
  5
22B
100
AcDbEntity
  8
0
370
    35
390
0
 62
     7
 48
0.03937
100
AcDb2dPolyline
 66
     1
 10
0.0
 20
0.0
 30
0.0
 71
     2
  0
VERTEX
  5
22C
100
AcDbEntity
  8
0
370
     0
390
0
100
AcDbVertex
100
AcDb2dVertex
 10
7.330283
 20
4.573271
 30
0.0
 42
0.010949
  0
VERTEX
  5
22D
100
AcDbEntity
  8
0
370
     0
390
0
100
AcDbVertex
100
AcDb2dVertex
 10
7.335653
 20
4.567223
 30
0.0
  0
SEQEND
  5
22E
100
AcDbEntity
  8
0
370
     0
390
0
  0
LINE
  5
22F
100
AcDbEntity
  8
0
370
    35
390
0
 62
     7
 48
0.00016
100
AcDbLine
 10
7.335653
 20
4.567223
 30
0.0
 11
7.340103
 21
4.562603
 31
0.0
210
0.0
220
0.0
230
1.0
  0
POLYLINE
  5
230
100
AcDbEntity
  8
0
370
    35
390
0
 62
     7
 48
0.03937
100
AcDb2dPolyline
 66
     1
 10
0.0
 20
0.0
 30
0.0
 71
     2
  0
VERTEX
  5
231
100
AcDbEntity
  8
0
370
     0
390
0
100
AcDbVertex
100
AcDb2dVertex
 10
7.225026
 20
4.764443
 30
0.0
 42
0.021265
  0
VERTEX
  5
232
100
AcDbEntity
  8
0
370
     0
390
0
100
AcDbVertex
100
AcDb2dVertex
 10
7.224361
 20
4.740617
 30
0.0
  0
SEQEND
  5
233
100
AcDbEntity
  8
0
370
     0
390
0
  0
SPLINE
  5
234
100
AcDbEntity
  8
0
370
    35
390
0
 62
     7
 48
0.03937
100
AcDbSpline
210
0.0
220
0.0
230
1.0
 70
     8
 71
     5
 72
    15
 73
     9
 74
     0
 42
0.0
 43
0.0
 40
0.0
 40
0.0
 40
0.0
 40
0.0
 40
0.0
 40
0.0
 40
6.1922134285176469
 40
6.1922134285176469
 40
6.1922134285176469
 40
8.9240813189801678
 40
8.9240813189801678
 40
8.9240813189801678
 40
8.9240813189801678
 40
8.9240813189801678
 40
8.9240813189801678
 10
7.2941541977422188
 20
4.5442468781495666
 30
0.0
 10
7.2762869021646273
 20
4.5656413710140207
 30
0.0
 10
7.2608480774076334
 20
4.5906277264516158
 30
0.0
 10
7.2482158911802701
 20
4.6178434618833792
 30
0.0
 10
7.2342654340117809
 20
4.6590473645773551
 30
0.0
 10
7.2270036001856219
 20
4.7015575056517944
 30
0.0
 10
7.2254313607373044
 20
4.7146250080907226
 30
0.0
 10
7.2245390131071296
 20
4.727673811094502
 30
0.0
 10
7.2243597950759249
 20
4.7406165520391914
 30
0.0
  0
POLYLINE
  5
235
100
AcDbEntity
  8
0
370
    35
390
0
 62
     7
 48
0.03937
100
AcDb2dPolyline
 66
     1
 10
0.0
 20
0.0
 30
0.0
 71
     2
  0
VERTEX
  5
236
100
AcDbEntity
  8
0
370
     0
390
0
100
AcDbVertex
100
AcDb2dVertex
 10
7.329037
 20
4.572864
 30
0.0
 42
0.02268
  0
VERTEX
  5
237
100
AcDbEntity
  8
0
370
     0
390
0
100
AcDbVertex
100
AcDb2dVertex
 10
7.340021
 20
4.561042
 30
0.0
  0
SEQEND
  5
238
100
AcDbEntity
  8
0
370
     0
390
0
  0
POLYLINE
  5
239
100
AcDbEntity
  8
0
370
    35
390
0
 62
     7
 48
0.03937
100
AcDb2dPolyline
 66
     1
 10
0.0
 20
0.0
 30
0.0
 71
     2
  0
VERTEX
  5
23A
100
AcDbEntity
  8
0
370
     0
390
0
100
AcDbVertex
100
AcDb2dVertex
 10
7.223613
 20
4.754467
 30
0.0
 42
0.029225
  0
VERTEX
  5
23B
100
AcDbEntity
  8
0
370
     0
390
0
100
AcDbVertex
100
AcDb2dVertex
 10
7.222093
 20
4.727527
 30
0.0
  0
SEQEND
  5
23C
100
AcDbEntity
  8
0
370
     0
390
0
  0
ELLIPSE
  5
23D
100
AcDbEntity
  8
0
370
    35
390
0
 62
     7
 48
0.03937
100
AcDbEllipse
 10
7.348352
 20
4.679745
 30
0.0
 11
0.0557518612500147
 21
-0.1798260444661413
 31
0.0
210
0.0
220
0.0
230
1.0
 40
0.62998
 41
3.6958683582495002
 42
4.0994452116056026
  0
SPLINE
  5
23E
100
AcDbEntity
  8
0
370
    35
390
0
 62
     7
 48
0.03937
100
AcDbSpline
210
0.0
220
0.0
230
1.0
 70
     8
 71
     5
 72
    15
 73
     9
 74
     0
 42
0.0
 43
0.0
 40
0.0
 40
0.0
 40
0.0
 40
0.0
 40
0.0
 40
0.0
 40
6.0893406409790751
 40
6.0893406409790751
 40
6.0893406409790751
 40
10.058294960374138
 40
10.058294960374138
 40
10.058294960374138
 40
10.058294960374138
 40
10.058294960374138
 40
10.058294960374138
 10
7.2208645976924535
 20
4.7240709577605804
 30
0.0
 10
7.2211441055248207
 20
4.7022636174203241
 30
0.0
 10
7.2238030605713535
 20
4.6799457980935504
 30
0.0
 10
7.2287007873418982
 20
4.6577710876393397
 30
0.0
 10
7.2401628773080509
 20
4.6223125723177807
 30
0.0
 10
7.2566906509134705
 20
4.590266726501369
 30
0.0
 10
7.2639928194117331
 20
4.5782127210658476
 30
0.0
 10
7.2720047704275634
 20
4.5670391026258752
 30
0.0
 10
7.280531583122908
 20
4.5570081491546039
 30
0.0
  0
ELLIPSE
  5
23F
100
AcDbEntity
  8
0
370
    35
390
0
 62
     7
 48
0.03937
100
AcDbEllipse
 10
7.345721
 20
4.680591
 30
0.0
 11
0.0541336205276543
 21
-0.178571103629298
 31
0.0
210
0.0
220
0.0
230
1.0
 40
0.630192
 41
3.6941368719228054
 42
4.2821151720491111
  0
SPLINE
  5
240
100
AcDbEntity
  8
0
370
    35
390
0
 62
     7
 48
0.03937
100
AcDbSpline
210
0.0
220
0.0
230
1.0
 70
     8
 71
     5
 72
    15
 73
     9
 74
     0
 42
0.0
 43
0.0
 40
0.0
 40
0.0
 40
0.0
 40
0.0
 40
0.0
 40
0.0
 40
6.1917442048945022
 40
6.1917442048945022
 40
6.1917442048945022
 40
10.230225330507047
 40
10.230225330507047
 40
10.230225330507047
 40
10.230225330507047
 40
10.230225330507047
 40
10.230225330507047
 10
7.2220912788044416
 20
4.7275269751273541
 30
0.0
 10
7.2221038817265191
 20
4.7054141501640405
 30
0.0
 10
7.2245887893368534
 20
4.6827167778615078
 30
0.0
 10
7.2293993661021725
 20
4.6601459009413402
 30
0.0
 10
7.2408320660427608
 20
4.6240237574473575
 30
0.0
 10
7.2575571672893604
 20
4.5913014648768788
 30
0.0
 10
7.2649690243252545
 20
4.57899825967454
 30
0.0
 10
7.2731093831586318
 20
4.5676139684845145
 30
0.0
 10
7.2817780691151084
 20
4.5574155973667088
 30
0.0
  0
POLYLINE
  5
241
100
AcDbEntity
  8
0
370
    35
390
0
 62
     7
 48
0.03937
100
AcDb2dPolyline
 66
     1
 10
0.0
 20
0.0
 30
0.0
 71
     2
  0
VERTEX
  5
242
100
AcDbEntity
  8
0
370
     0
390
0
100
AcDbVertex
100
AcDb2dVertex
 10
7.281778
 20
4.557416
 30
0.0
 42
0.010949
  0
VERTEX
  5
243
100
AcDbEntity
  8
0
370
     0
390
0
100
AcDbVertex
100
AcDb2dVertex
 10
7.287148
 20
4.551368
 30
0.0
  0
SEQEND
  5
244
100
AcDbEntity
  8
0
370
     0
390
0
  0
ELLIPSE
  5
245
100
AcDbEntity
  8
0
370
    35
390
0
 62
     7
 48
0.03937
100
AcDbEllipse
 10
7.327608
 20
4.672627
 30
0.0
 11
0.04912747793122
 21
-0.1568410217714278
 31
0.0
210
0.0
220
0.0
230
1.0
 40
0.586756
 41
5.3945519141014548
 42
5.7925268915525585
  0
POLYLINE
  5
246
100
AcDbEntity
  8
0
370
    35
390
0
 62
     7
 48
0.03937
100
AcDb2dPolyline
 66
     1
 10
0.0
 20
0.0
 30
0.0
 71
     2
  0
VERTEX
  5
247
100
AcDbEntity
  8
0
370
     0
390
0
100
AcDbVertex
100
AcDb2dVertex
 10
7.176521
 20
4.748588
 30
0.0
 42
0.021265
  0
VERTEX
  5
248
100
AcDbEntity
  8
0
370
     0
390
0
100
AcDbVertex
100
AcDb2dVertex
 10
7.175856
 20
4.724761
 30
0.0
  0
SEQEND
  5
249
100
AcDbEntity
  8
0
370
     0
390
0
  0
SPLINE
  5
24A
100
AcDbEntity
  8
0
370
    35
390
0
 62
     7
 48
0.03937
100
AcDbSpline
210
0.0
220
0.0
230
1.0
 70
     8
 71
     5
 72
    15
 73
     9
 74
     0
 42
0.0
 43
0.0
 40
0.0
 40
0.0
 40
0.0
 40
0.0
 40
0.0
 40
0.0
 40
6.1922119041577428
 40
6.1922119041577428
 40
6.1922119041577428
 40
8.924078887310392
 40
8.924078887310392
 40
8.924078887310392
 40
8.924078887310392
 40
8.924078887310392
 40
8.924078887310392
 10
7.2456494861885146
 20
4.5283917762357966
 30
0.0
 10
7.2277821900740742
 20
4.5497862686463568
 30
0.0
 10
7.2123433628984728
 20
4.5747726252111001
 30
0.0
 10
7.1997111741863407
 20
4.6019883639176316
 30
0.0
 10
7.1857607168232756
 20
4.6431922720029837
 30
0.0
 10
7.1784988846099749
 20
4.6857024141573262
 30
0.0
 10
7.1769266458062697
 20
4.6987699154059888
 30
0.0
 10
7.1760342986552876
 20
4.711818716115304
 30
0.0
 10
7.1758550806861958
 20
4.7247614527597719
 30
0.0
  0
ELLIPSE
  5
24B
100
AcDbEntity
  8
0
370
    35
390
0
 62
     7
 48
0.03937
100
AcDbEllipse
 10
7.326326
 20
4.67247
 30
0.0
 11
0.0491217028465899
 21
-0.1570983510610912
 31
0.0
210
0.0
220
0.0
230
1.0
 40
0.586296
 41
5.3390916443189225
 42
5.8011224589602444
  0
POLYLINE
  5
24C
100
AcDbEntity
  8
0
370
    35
390
0
 62
     7
 48
0.03937
100
AcDb2dPolyline
 66
     1
 10
0.0
 20
0.0
 30
0.0
 71
     2
  0
VERTEX
  5
24D
100
AcDbEntity
  8
0
370
     0
390
0
100
AcDbVertex
100
AcDb2dVertex
 10
7.175109
 20
4.738611
 30
0.0
 42
0.029225
  0
VERTEX
  5
24E
100
AcDbEntity
  8
0
370
     0
390
0
100
AcDbVertex
100
AcDb2dVertex
 10
7.173589
 20
4.711672
 30
0.0
  0
SEQEND
  5
24F
100
AcDbEntity
  8
0
370
     0
390
0
  0
SPLINE
  5
250
100
AcDbEntity
  8
0
370
    35
390
0
 62
     7
 48
0.03937
100
AcDbSpline
210
0.0
220
0.0
230
1.0
 70
     8
 71
     5
 72
    15
 73
     9
 74
     0
 42
0.0
 43
0.0
 40
0.0
 40
0.0
 40
0.0
 40
0.0
 40
0.0
 40
0.0
 40
4.6002349765530717
 40
4.6002349765530717
 40
4.6002349765530717
 40
6.4758975351767489
 40
6.4758975351767489
 40
6.4758975351767489
 40
6.4758975351767489
 40
6.4758975351767489
 40
6.4758975351767489
 10
7.1751108067447671
 20
4.7386112043525195
 30
0.0
 10
7.1769676747249367
 20
4.7544865248083212
 30
0.0
 10
7.180262566546018
 20
4.7698075514903886
 30
0.0
 10
7.1850392453272063
 20
4.7840529711475748
 30
0.0
 10
7.1937331522152252
 20
4.8022060150407029
 30
0.0
 10
7.2051865546625811
 20
4.8171708464770449
 30
0.0
 10
7.2087485468843182
 20
4.8212353951552984
 30
0.0
 10
7.2125245078723372
 20
4.8249717238484378
 30
0.0
 10
7.2165049544929021
 20
4.8283656121775227
 30
0.0
  0
SPLINE
  5
251
100
AcDbEntity
  8
0
370
    35
390
0
 62
     7
 48
0.03937
100
AcDbSpline
210
0.0
220
0.0
230
1.0
 70
     8
 71
     5
 72
    15
 73
     9
 74
     0
 42
0.0
 43
0.0
 40
0.0
 40
0.0
 40
0.0
 40
0.0
 40
0.0
 40
0.0
 40
6.089341731622115
 40
6.089341731622115
 40
6.089341731622115
 40
10.058296076264432
 40
10.058296076264432
 40
10.058296076264432
 40
10.058296076264432
 40
10.058296076264432
 40
10.058296076264432
 10
7.1723598833027244
 20
4.70821585848116
 30
0.0
 10
7.1726393911695991
 20
4.6864085142290968
 30
0.0
 10
7.175298347760906
 20
4.6640906893383223
 30
0.0
 10
7.1801960781708676
 20
4.6419159718944201
 30
0.0
 10
7.1916581745173964
 20
4.6064574494831545
 30
0.0
 10
7.2081859528404593
 20
4.5744116024958039
 30
0.0
 10
7.2154881186079587
 20
4.5623576061154569
 30
0.0
 10
7.2235000620415235
 20
4.5511839980029265
 30
0.0
 10
7.2320268695397152
 20
4.5411530501388224
 30
0.0
  0
SPLINE
  5
252
100
AcDbEntity
  8
0
370
    35
390
0
 62
     7
 48
0.03937
100
AcDbSpline
210
0.0
220
0.0
230
1.0
 70
     8
 71
     5
 72
    18
 73
    12
 74
     0
 42
0.0
 43
0.0
 40
0.0
 40
0.0
 40
0.0
 40
0.0
 40
0.0
 40
0.0
 40
4.2300098930450156
 40
4.2300098930450156
 40
4.2300098930450156
 40
7.4760062764094286
 40
7.4760062764094286
 40
7.4760062764094286
 40
8.2367062055273532
 40
8.2367062055273532
 40
8.2367062055273532
 40
8.2367062055273532
 40
8.2367062055273532
 40
8.2367062055273532
 10
7.1723598833027244
 20
4.70821585848116
 30
0.0
 10
7.1721657209341982
 20
4.723364504426379
 30
0.0
 10
7.1731197640498161
 20
4.73826681328267
 30
0.0
 10
7.1752722040394659
 20
4.7528182167706072
 30
0.0
 10
7.1813426485935521
 20
4.7772763989872864
 30
0.0
 10
7.191195645038416
 20
4.7984243385199195
 30
0.0
 10
7.1961763071190123
 20
4.8068875822687565
 30
0.0
 10
7.2031919308761871
 20
4.8163304339532544
 30
0.0
 10
7.2112201147038917
 20
4.8243468372005447
 30
0.0
 10
7.2127808264296229
 20
4.8258162617480247
 30
0.0
 10
7.2143751109556264
 20
4.8272295261356275
 30
0.0
 10
7.2160023996825515
 20
4.8285856863191334
 30
0.0
  0
SPLINE
  5
253
100
AcDbEntity
  8
0
370
    35
390
0
 62
     7
 48
0.03937
100
AcDbSpline
210
0.0
220
0.0
230
1.0
 70
     8
 71
     5
 72
    15
 73
     9
 74
     0
 42
0.0
 43
0.0
 40
0.0
 40
0.0
 40
0.0
 40
0.0
 40
0.0
 40
0.0
 40
6.1917448702759383
 40
6.1917448702759383
 40
6.1917448702759383
 40
10.230223876337233
 40
10.230223876337233
 40
10.230223876337233
 40
10.230223876337233
 40
10.230223876337233
 40
10.230223876337233
 10
7.1735865644147125
 20
4.7116718758479346
 30
0.0
 10
7.1735991673216359
 20
4.6895590485061858
 30
0.0
 10
7.1760840755064095
 20
4.6668616674770176
 30
0.0
 10
7.180894655152164
 20
4.6442907747266222
 30
0.0
 10
7.1923273622424224
 20
4.6081686230186216
 30
0.0
 10
7.2090524696608602
 20
4.5754463335018629
 30
0.0
 10
7.2164643232750114
 20
4.5631431404403777
 30
0.0
 10
7.2246046746400943
 20
4.5517588614529165
 30
0.0
 10
7.2332733544842851
 20
4.5415604980084812
 30
0.0
  0
POLYLINE
  5
254
100
AcDbEntity
  8
0
370
    35
390
0
 62
     7
 48
0.03937
100
AcDb2dPolyline
 66
     1
 10
0.0
 20
0.0
 30
0.0
 71
     2
  0
VERTEX
  5
255
100
AcDbEntity
  8
0
370
     0
390
0
100
AcDbVertex
100
AcDb2dVertex
 10
7.233273
 20
4.541561
 30
0.0
 42
0.010949
  0
VERTEX
  5
256
100
AcDbEntity
  8
0
370
     0
390
0
100
AcDbVertex
100
AcDb2dVertex
 10
7.238644
 20
4.535512
 30
0.0
  0
SEQEND
  5
257
100
AcDbEntity
  8
0
370
     0
390
0
  0
ELLIPSE
  5
258
100
AcDbEntity
  8
0
370
    35
390
0
 62
     7
 48
0.03937
100
AcDbEllipse
 10
7.279017
 20
4.656224
 30
0.0
 11
0.049249829180998
 21
-0.1562644017009174
 31
0.0
210
0.0
220
0.0
230
1.0
 40
0.586953
 41
5.3921554413244426
 42
5.8567329396692802
  0
POLYLINE
  5
259
100
AcDbEntity
  8
0
370
    35
390
0
 62
     7
 48
0.03937
100
AcDb2dPolyline
 66
     1
 10
0.0
 20
0.0
 30
0.0
 71
     2
  0
VERTEX
  5
25A
100
AcDbEntity
  8
0
370
     0
390
0
100
AcDbVertex
100
AcDb2dVertex
 10
7.285921
 20
4.502009
 30
0.0
 42
0.084723
  0
VERTEX
  5
25B
100
AcDbEntity
  8
0
370
     0
390
0
100
AcDbVertex
100
AcDb2dVertex
 10
7.309751
 20
4.49731
 30
0.0
  0
SEQEND
  5
25C
100
AcDbEntity
  8
0
370
     0
390
0
  0
POLYLINE
  5
25D
100
AcDbEntity
  8
0
370
    35
390
0
 62
     7
 48
0.03937
100
AcDb2dPolyline
 66
     1
 10
0.0
 20
0.0
 30
0.0
 71
     2
  0
VERTEX
  5
25E
100
AcDbEntity
  8
0
370
     0
390
0
100
AcDbVertex
100
AcDb2dVertex
 10
7.128016
 20
4.732733
 30
0.0
 42
0.021265
  0
VERTEX
  5
25F
100
AcDbEntity
  8
0
370
     0
390
0
100
AcDbVertex
100
AcDb2dVertex
 10
7.127351
 20
4.708906
 30
0.0
  0
SEQEND
  5
260
100
AcDbEntity
  8
0
370
     0
390
0
  0
SPLINE
  5
261
100
AcDbEntity
  8
0
370
    35
390
0
 62
     7
 48
0.03937
100
AcDbSpline
210
0.0
220
0.0
230
1.0
 70
     8
 71
     5
 72
    15
 73
     9
 74
     0
 42
0.0
 43
0.0
 40
0.0
 40
0.0
 40
0.0
 40
0.0
 40
0.0
 40
0.0
 40
6.1924438534157149
 40
6.1924438534157149
 40
6.1924438534157149
 40
8.9244282349324635
 40
8.9244282349324635
 40
8.9244282349324635
 40
8.9244282349324635
 40
8.9244282349324635
 40
8.9244282349324635
 10
7.1971498326537935
 20
4.5125306183143072
 30
0.0
 10
7.1792813164312621
 20
4.5339250993846116
 30
0.0
 10
7.1638413780581818
 20
4.5589119563672531
 30
0.0
 10
7.1512082736239808
 20
4.5861284867207086
 30
0.0
 10
7.1372567652705712
 20
4.627333842445231
 30
0.0
 10
7.1299943733705042
 20
4.6698456289588943
 30
0.0
 10
7.1284220082819427
 20
4.6829136941454239
 30
0.0
 10
7.127529591968031
 20
4.6959630606403504
 30
0.0
 10
7.1273503662964686
 20
4.7089063534803515
 30
0.0
  0
POLYLINE
  5
262
100
AcDbEntity
  8
0
370
    35
390
0
 62
     7
 48
0.03937
100
AcDb2dPolyline
 66
     1
 10
0.0
 20
0.0
 30
0.0
 71
     2
  0
VERTEX
  5
263
100
AcDbEntity
  8
0
370
     0
390
0
100
AcDbVertex
100
AcDb2dVertex
 10
7.284675
 20
4.501603
 30
0.0
 42
0.087954
  0
VERTEX
  5
264
100
AcDbEntity
  8
0
370
     0
390
0
100
AcDbVertex
100
AcDb2dVertex
 10
7.309295
 20
4.496894
 30
0.0
  0
SEQEND
  5
265
100
AcDbEntity
  8
0
370
     0
390
0
  0
ELLIPSE
  5
266
100
AcDbEntity
  8
0
370
    35
390
0
 62
     7
 48
0.03937
100
AcDbEllipse
 10
7.277777
 20
4.656373
 30
0.0
 11
0.0491792007652232
 21
-0.1568432059179933
 31
0.0
210
0.0
220
0.0
230
1.0
 40
0.586356
 41
5.3379855401883187
 42
5.8582588962577038
  0
POLYLINE
  5
267
100
AcDbEntity
  8
0
370
    35
390
0
 62
     7
 48
0.03937
100
AcDb2dPolyline
 66
     1
 10
0.0
 20
0.0
 30
0.0
 71
     2
  0
VERTEX
  5
268
100
AcDbEntity
  8
0
370
     0
390
0
100
AcDbVertex
100
AcDb2dVertex
 10
7.126604
 20
4.722756
 30
0.0
 42
0.029225
  0
VERTEX
  5
269
100
AcDbEntity
  8
0
370
     0
390
0
100
AcDbVertex
100
AcDb2dVertex
 10
7.125084
 20
4.695817
 30
0.0
  0
SEQEND
  5
26A
100
AcDbEntity
  8
0
370
     0
390
0
  0
SPLINE
  5
26B
100
AcDbEntity
  8
0
370
    35
390
0
 62
     7
 48
0.03937
100
AcDbSpline
210
0.0
220
0.0
230
1.0
 70
     8
 71
     5
 72
    15
 73
     9
 74
     0
 42
0.0
 43
0.0
 40
0.0
 40
0.0
 40
0.0
 40
0.0
 40
0.0
 40
0.0
 40
4.4696396722540728
 40
4.4696396722540728
 40
4.4696396722540728
 40
8.7169320474285961
 40
8.7169320474285961
 40
8.7169320474285961
 40
8.7169320474285961
 40
8.7169320474285961
 40
8.7169320474285961
 10
7.1266060931396327
 20
4.7227561171820618
 30
0.0
 10
7.1284102472552204
 20
4.738180757344078
 30
0.0
 10
7.1315719368546659
 20
4.7530821297037811
 30
0.0
 10
7.1361407812794093
 20
4.7670104378518792
 30
0.0
 10
7.1476286010267511
 20
4.7916670551087499
 30
0.0
 10
7.1641072745766792
 20
4.8106060845696277
 30
0.0
 10
7.1732838483436066
 20
4.8182268077448294
 30
0.0
 10
7.1834363580610976
 20
4.8238742389363143
 30
0.0
 10
7.1941798457130819
 20
4.8274831355289205
 30
0.0
  0
SPLINE
  5
26C
100
AcDbEntity
  8
0
370
    35
390
0
 62
     7
 48
0.03937
100
AcDbSpline
210
0.0
220
0.0
230
1.0
 70
     8
 71
     5
 72
    18
 73
    12
 74
     0
 42
0.0
 43
0.0
 40
0.0
 40
0.0
 40
0.0
 40
0.0
 40
0.0
 40
0.0
 40
5.4077198304327645
 40
5.4077198304327645
 40
5.4077198304327645
 40
7.5566892750821104
 40
7.5566892750821104
 40
7.5566892750821104
 40
10.705188090014062
 40
10.705188090014062
 40
10.705188090014062
 40
10.705188090014062
 40
10.705188090014062
 40
10.705188090014062
 10
7.1250818500249844
 20
4.6958167765685142
 30
0.0
 10
7.1250928570993075
 20
4.676503969367956
 30
0.0
 10
7.1269897021538791
 20
4.6567452721792799
 30
0.0
 10
7.1306766182205186
 20
4.6369293912035268
 30
0.0
 10
7.1382081475566865
 20
4.6097908970450243
 30
0.0
 10
7.1486701912235153
 20
4.5843831087400453
 30
0.0
 10
7.1518914143350214
 20
4.5772765753938804
 30
0.0
 10
7.1603790126364002
 20
4.5602171156736304
 30
0.0
 10
7.1702294846354091
 20
4.544317390592683
 30
0.0
 10
7.1765236292261081
 20
4.5353999361733726
 30
0.0
 10
7.1831841180616252
 20
4.5271494128222134
 30
0.0
 10
7.1901329160470624
 20
4.5196641630746903
 30
0.0
  0
ELLIPSE
  5
26D
100
AcDbEntity
  8
0
370
    35
390
0
 62
     7
 48
0.03937
100
AcDbEllipse
 10
7.230671
 20
4.641328
 30
0.0
 11
0.0490311261257288
 21
-0.1572750217680967
 31
0.0
210
0.0
220
0.0
230
1.0
 40
0.586647
 41
5.3962754012390732
 42
5.7477355758833459
  0
ELLIPSE
  5
26E
100
AcDbEntity
  8
0
370
    35
390
0
 62
     7
 48
0.03937
100
AcDbEllipse
 10
7.229387
 20
4.653333
 30
0.0
 11
0.0548298521804249
 21
-0.1677382319197837
 31
0.0
210
0.0
220
0.0
230
1.0
 40
0.608973
 41
5.5978119020297417
 42
5.7592964183432969
  0
SPLINE
  5
26F
100
AcDbEntity
  8
0
370
    35
390
0
 62
     7
 48
0.03937
100
AcDbSpline
210
0.0
220
0.0
230
1.0
 70
     8
 71
     5
 72
    18
 73
    12
 74
     0
 42
0.0
 43
0.0
 40
0.0
 40
0.0
 40
0.0
 40
0.0
 40
0.0
 40
0.0
 40
6.1831078574136873
 40
6.1831078574136873
 40
6.1831078574136873
 40
9.8320445236159628
 40
9.8320445236159628
 40
9.8320445236159628
 40
12.150943945299343
 40
12.150943945299343
 40
12.150943945299343
 40
12.150943945299343
 40
12.150943945299343
 40
12.150943945299343
 10
7.1238551689129963
 20
4.6923607592017404
 30
0.0
 10
7.1241389807416846
 20
4.6702176167183094
 30
0.0
 10
7.1268760849018067
 20
4.6475481518715602
 30
0.0
 10
7.1319187684054777
 20
4.6250524229001391
 30
0.0
 10
7.1432560476394169
 20
4.5904759320594684
 30
0.0
 10
7.1594362196378389
 20
4.5591704749861437
 30
0.0
 10
7.1661005214160118
 20
4.5480564498223179
 30
0.0
 10
7.1779904159899557
 20
4.53106138606163
 30
0.0
 10
7.1911058177747371
 20
4.5165611669187378
 30
0.0
 10
7.1963024568049194
 20
4.5114002828012012
 30
0.0
 10
7.201682695994176
 20
4.5066326327002333
 30
0.0
 10
7.2071798412193626
 20
4.5023388581106474
 30
0.0
  0
SPLINE
  5
270
100
AcDbEntity
  8
0
370
    35
390
0
 62
     7
 48
0.03937
100
AcDbSpline
210
0.0
220
0.0
230
1.0
 70
     8
 71
     5
 72
    18
 73
    12
 74
     0
 42
0.0
 43
0.0
 40
0.0
 40
0.0
 40
0.0
 40
0.0
 40
0.0
 40
0.0
 40
4.3365349279867083
 40
4.3365349279867083
 40
4.3365349279867083
 40
7.4565952339100061
 40
7.4565952339100061
 40
7.4565952339100061
 40
10.448902156789226
 40
10.448902156789226
 40
10.448902156789226
 40
10.448902156789226
 40
10.448902156789226
 40
10.448902156789226
 10
7.1238551689129954
 20
4.6923607592017396
 30
0.0
 10
7.1236561169229606
 20
4.7078908959891876
 30
0.0
 10
7.1246638289952351
 20
4.7231621320452231
 30
0.0
 10
7.1269327518522214
 20
4.7380581718435151
 30
0.0
 10
7.133154222911295
 20
4.7623501066644076
 30
0.0
 10
7.1431269897216412
 20
4.7832809564122529
 30
0.0
 10
7.1479571637032731
 20
4.7913852787498339
 30
0.0
 10
7.1586764512672891
 20
4.8057591939920732
 30
0.0
 10
7.1717564768736759
 20
4.8168228657686791
 30
0.0
 10
7.1786533629947114
 20
4.8213067242679317
 30
0.0
 10
7.1859421943310009
 20
4.8247934172143836
 30
0.0
 10
7.1935217573770123
 20
4.8272706620281305
 30
0.0
  0
POLYLINE
  5
271
100
AcDbEntity
  8
0
370
    35
390
0
 62
     7
 48
0.03937
100
AcDb2dPolyline
 66
     1
 10
0.0
 20
0.0
 30
0.0
 71
     2
  0
VERTEX
  5
272
100
AcDbEntity
  8
0
370
     0
390
0
100
AcDbVertex
100
AcDb2dVertex
 10
7.210656
 20
4.830762
 30
0.0
 42
0.057117
  0
VERTEX
  5
273
100
AcDbEntity
  8
0
370
     0
390
0
100
AcDbVertex
100
AcDb2dVertex
 10
7.193522
 20
4.827271
 30
0.0
  0
SEQEND
  5
274
100
AcDbEntity
  8
0
370
     0
390
0
  0
SPLINE
  5
275
100
AcDbEntity
  8
0
370
    35
390
0
 62
     7
 48
0.03937
100
AcDbSpline
210
0.0
220
0.0
230
1.0
 70
     8
 71
     5
 72
    24
 73
    18
 74
     0
 42
0.0
 43
0.0
 40
0.0
 40
0.0
 40
0.0
 40
0.0
 40
0.0
 40
0.0
 40
2.6524232815496895
 40
2.6524232815496895
 40
2.6524232815496895
 40
7.8118935405538128
 40
7.8118935405538128
 40
7.8118935405538128
 40
9.0824484727945674
 40
9.0824484727945674
 40
9.0824484727945674
 40
11.612354326547534
 40
11.612354326547534
 40
11.612354326547534
 40
12.848644042917801
 40
12.848644042917801
 40
12.848644042917801
 40
12.848644042917801
 40
12.848644042917801
 40
12.848644042917801
 10
7.3394067422068874
 20
4.5524407571960444
 30
0.0
 10
7.3375849915159668
 20
4.5448820541460746
 30
0.0
 10
7.3353590720849695
 20
4.5376553352545805
 30
0.0
 10
7.3327259898253656
 20
4.5308020734759973
 30
0.0
 10
7.3239008045388641
 20
4.5120203933170613
 30
0.0
 10
7.3118499902950571
 20
4.4973021558489785
 30
0.0
 10
7.3025593500361685
 20
4.4896469150746139
 30
0.0
 10
7.2896191540042716
 20
4.4832296617038123
 30
0.0
 10
7.275750957503063
 20
4.4807089224536378
 30
0.0
 10
7.2729753936378749
 20
4.4803606299221919
 30
0.0
 10
7.2645630294500512
 20
4.4797779396946966
 30
0.0
 10
7.2561750563634808
 20
4.4805206895539191
 30
0.0
 10
7.2506750481951281
 20
4.4815503333882365
 30
0.0
 10
7.2425637446370192
 20
4.4837537429150744
 30
0.0
 10
7.234169644711316
 20
4.4871859137112891
 30
0.0
 10
7.231376391151545
 20
4.488452404127619
 30
0.0
 10
7.2285624796821022
 20
4.4898604521682373
 30
0.0
 10
7.2257638943775113
 20
4.4913888171254488
 30
0.0
  0
POLYLINE
  5
276
100
AcDbEntity
  8
0
370
    35
390
0
 62
     7
 48
0.03937
100
AcDb2dPolyline
 66
     1
 10
0.0
 20
0.0
 30
0.0
 71
     2
  0
VERTEX
  5
277
100
AcDbEntity
  8
0
370
     0
390
0
100
AcDbVertex
100
AcDb2dVertex
 10
7.080265
 20
4.72546
 30
0.0
 42
0.029532
  0
VERTEX
  5
278
100
AcDbEntity
  8
0
370
     0
390
0
100
AcDbVertex
100
AcDb2dVertex
 10
7.078848
 20
4.693051
 30
0.0
  0
SEQEND
  5
279
100
AcDbEntity
  8
0
370
     0
390
0
  0
ELLIPSE
  5
27A
100
AcDbEntity
  8
0
370
    35
390
0
 62
     7
 48
0.03937
100
AcDbEllipse
 10
7.191554
 20
4.640966
 30
0.0
 11
-0.0704212793407354
 21
0.2154363073472103
 31
0.0
210
0.0
220
0.0
230
1.0
 40
0.608973
 41
5.407838321750436
 42
10.300142937124635
  0
ELLIPSE
  5
27B
100
AcDbEntity
  8
0
370
    35
390
0
 62
     7
 48
0.03937
100
AcDbEllipse
 10
7.191554
 20
4.640966
 30
0.0
 11
-0.0704212793407354
 21
0.2154363073472103
 31
0.0
210
0.0
220
0.0
230
1.0
 40
0.608973
 41
4.016957629945046
 42
5.3670233043288675
  0
POLYLINE
  5
27C
100
AcDbEntity
  8
0
370
    35
390
0
 62
     7
 48
0.03937
100
AcDb2dPolyline
 66
     1
 10
0.0
 20
0.0
 30
0.0
 71
     2
  0
VERTEX
  5
27D
100
AcDbEntity
  8
0
370
     0
390
0
100
AcDbVertex
100
AcDb2dVertex
 10
7.155399
 20
4.488993
 30
0.0
 42
0.072834
  0
VERTEX
  5
27E
100
AcDbEntity
  8
0
370
     0
390
0
100
AcDbVertex
100
AcDb2dVertex
 10
7.195442
 20
4.455915
 30
0.0
  0
SEQEND
  5
27F
100
AcDbEntity
  8
0
370
     0
390
0
  0
LINE
  5
280
100
AcDbEntity
  8
0
370
    35
390
0
 62
     7
 48
0.000193
100
AcDbLine
 10
7.155375
 20
4.488972
 30
0.0
 11
7.150243
 21
4.494715
 31
0.0
210
0.0
220
0.0
230
1.0
  0
POLYLINE
  5
281
100
AcDbEntity
  8
0
370
    35
390
0
 62
     7
 48
0.03937
100
AcDb2dPolyline
 66
     1
 10
0.0
 20
0.0
 30
0.0
 71
     2
  0
VERTEX
  5
282
100
AcDbEntity
  8
0
370
     0
390
0
100
AcDbVertex
100
AcDb2dVertex
 10
7.207178
 20
4.502339
 30
0.0
 42
0.032209
  0
VERTEX
  5
283
100
AcDbEntity
  8
0
370
     0
390
0
100
AcDbVertex
100
AcDb2dVertex
 10
7.19546
 20
4.455942
 30
0.0
  0
SEQEND
  5
284
100
AcDbEntity
  8
0
370
     0
390
0
  0
SPLINE
  5
285
100
AcDbEntity
  8
0
370
    35
390
0
 62
     7
 48
0.03937
100
AcDbSpline
210
0.0
220
0.0
230
1.0
 70
     8
 71
     5
 72
    15
 73
     9
 74
     0
 42
0.0
 43
0.0
 40
0.0
 40
0.0
 40
0.0
 40
0.0
 40
0.0
 40
0.0
 40
5.5633942613087504
 40
5.5633942613087504
 40
5.5633942613087504
 40
9.4302267443571512
 40
9.4302267443571512
 40
9.4302267443571512
 40
9.4302267443571512
 40
9.4302267443571512
 40
9.4302267443571512
 10
7.1560960746031572
 20
4.4881922167730686
 30
0.0
 10
7.1393468140298459
 20
4.5063072792708363
 30
0.0
 10
7.1244646079987977
 20
4.5276143567711227
 30
0.0
 10
7.1117845751509439
 20
4.5510440758352164
 30
0.0
 10
7.0942243741955968
 20
4.5931323810076972
 30
0.0
 10
7.0837987712106703
 20
4.6376995972758106
 30
0.0
 10
7.0807817632605046
 20
4.6561990521447063
 30
0.0
 10
7.079099326725184
 20
4.67473140378958
 30
0.0
 10
7.0788456519067378
 20
4.6930512542009319
 30
0.0
  0
POLYLINE
  5
286
100
AcDbEntity
  8
0
370
    35
390
0
 62
     7
 48
0.03937
100
AcDb2dPolyline
 66
     1
 10
0.0
 20
0.0
 30
0.0
 71
     2
  0
VERTEX
  5
287
100
AcDbEntity
  8
0
370
     0
390
0
100
AcDbVertex
100
AcDb2dVertex
 10
7.079916
 20
4.722554
 30
0.0
 42
0.031972
  0
VERTEX
  5
288
100
AcDbEntity
  8
0
370
     0
390
0
100
AcDbVertex
100
AcDb2dVertex
 10
7.07833
 20
4.690058
 30
0.0
  0
SEQEND
  5
289
100
AcDbEntity
  8
0
370
     0
390
0
  0
SPLINE
  5
28A
100
AcDbEntity
  8
0
370
    35
390
0
 62
     7
 48
0.03937
100
AcDbSpline
210
0.0
220
0.0
230
1.0
 70
     8
 71
     5
 72
    36
 73
    30
 74
     0
 42
0.0
 43
0.0
 40
0.0
 40
0.0
 40
0.0
 40
0.0
 40
0.0
 40
0.0
 40
3.7927099722541597
 40
3.7927099722541597
 40
3.7927099722541597
 40
5.6317407608916792
 40
5.6317407608916792
 40
5.6317407608916792
 40
9.23399283340963
 40
9.23399283340963
 40
9.23399283340963
 40
10.123173442003351
 40
10.123173442003351
 40
10.123173442003351
 40
11.012354050597072
 40
11.012354050597072
 40
11.012354050597072
 40
12.789857455312513
 40
12.789857455312513
 40
12.789857455312513
 40
16.349234927992743
 40
16.349234927992743
 40
16.349234927992743
 40
17.216168752780103
 40
17.216168752780103
 40
17.216168752780103
 40
18.083102577567463
 40
18.083102577567463
 40
18.083102577567463
 40
18.083102577567463
 40
18.083102577567463
 40
18.083102577567463
 10
7.0799193308678516
 20
4.7225540075475578
 30
0.0
 10
7.0814010057332277
 20
4.7354006478878619
 30
0.0
 10
7.0837437403226327
 20
4.7478605770468301
 30
0.0
 10
7.0869691931740437
 20
4.7597450346200985
 30
0.0
 10
7.0930399404905895
 20
4.7762503954787823
 30
0.0
 10
7.1009121884609021
 20
4.790742709199491
 30
0.0
 10
7.1036757048831758
 20
4.7952546943927032
 30
0.0
 10
7.1124032744211991
 20
4.8078953529532056
 30
0.0
 10
7.1227770824521697
 20
4.818369207388626
 30
0.0
 10
7.1303167197591524
 20
4.8242044265618285
 30
0.0
 10
7.1404204330642562
 20
4.8299318323231457
 30
0.0
 10
7.1511268456618629
 20
4.8336719226288674
 30
0.0
 10
7.153269292336784
 20
4.8343345165295606
 30
0.0
 10
7.1575906982446247
 20
4.8355024624219434
 30
0.0
 10
7.1619850556321047
 20
4.8363586692269891
 30
0.0
 10
7.1641987617741121
 20
4.8367092017941804
 30
0.0
 10
7.1708949266624131
 20
4.8375286718785313
 30
0.0
 10
7.1776972641068832
 20
4.837652608150929
 30
0.0
 10
7.1822244772411583
 20
4.8374270357119444
 30
0.0
 10
7.1956743754504711
 20
4.8359167327037484
 30
0.0
 10
7.2087994358156315
 20
4.8320392401278207
 30
0.0
 10
7.2175346167863443
 20
4.8285169385881703
 30
0.0
 10
7.2285373671819864
 20
4.822802552338584
 30
0.0
 10
7.2395131693027812
 20
4.8154607311597415
 30
0.0
 10
7.2416597433582783
 20
4.8139608728817072
 30
0.0
 10
7.2459346159172409
 20
4.810844607490167
 30
0.0
 10
7.2501533341133717
 20
4.8075117518933617
 30
0.0
 10
7.2522430416528385
 20
4.8057959039494893
 30
0.0
 10
7.2543145260555102
 20
4.8040304723306582
 30
0.0
 10
7.2563664566809276
 20
4.8022171526038697
 30
0.0
  0
ELLIPSE
  5
28B
100
AcDbEntity
  8
0
370
    35
390
0
 62
     7
 48
0.03937
100
AcDbEllipse
 10
7.191554
 20
4.640966
 30
0.0
 11
-0.0704212793407355
 21
0.2154363073472104
 31
0.0
210
0.0
220
0.0
230
1.0
 40
0.608973
 41
5.3670233043288667
 42
5.407838321750436
  0
SPLINE
  5
28C
100
AcDbEntity
  8
0
370
    35
390
0
 62
     7
 48
0.03937
100
AcDbSpline
210
0.0
220
0.0
230
1.0
 70
     8
 71
     5
 72
    15
 73
     9
 74
     0
 42
0.0
 43
0.0
 40
0.0
 40
0.0
 40
0.0
 40
0.0
 40
0.0
 40
0.0
 40
10.514303302501032
 40
10.514303302501032
 40
10.514303302501032
 40
11.684359104596796
 40
11.684359104596796
 40
11.684359104596796
 40
11.684359104596796
 40
11.684359104596796
 40
11.684359104596796
 10
7.1502430647068529
 20
4.4947149195645641
 30
0.0
 10
7.1267745656767802
 20
4.5218817680078285
 30
0.0
 10
7.1069370846899158
 20
4.5554075384619006
 30
0.0
 10
7.091997252286002
 20
4.5926710832301492
 30
0.0
 10
7.0815852050706969
 20
4.6356717376729959
 30
0.0
 10
7.0787244106804135
 20
4.6775711976600398
 30
0.0
 10
7.0785143796799526
 20
4.6817539226483609
 30
0.0
 10
7.0783816953505205
 20
4.6859170532548013
 30
0.0
 10
7.0783269648876121
 20
4.6900583756770358
 30
0.0
  0
ELLIPSE
  5
28D
100
AcDbEntity
  8
0
370
    35
390
0
 62
     7
 48
0.03937
100
AcDbEllipse
 10
7.660145
 20
5.210145
 30
0.0
 11
-0.4872320987597
 21
1.4905648571070829
 31
0.0
210
0.0
220
0.0
230
1.0
 40
0.608973
 41
3.1415595233209004
 42
6.2831521769106891
  0
ELLIPSE
  5
28E
100
AcDbEntity
  8
0
370
    35
390
0
 62
     7
 48
0.03937
100
AcDbEllipse
 10
7.660145
 20
5.210145
 30
0.0
 11
-0.4872320987597
 21
1.4905648571070829
 31
0.0
210
0.0
220
0.0
230
1.0
 40
0.608973
 41
6.2831521769106899
 42
7.9378196311237641
  0
ELLIPSE
  5
28F
100
AcDbEntity
  8
0
370
    35
390
0
 62
     7
 48
0.03937
100
AcDbEllipse
 10
7.660145
 20
5.210145
 30
0.0
 11
-0.4872320987597
 21
1.4905648571070829
 31
0.0
210
0.0
220
0.0
230
1.0
 40
0.608973
 41
1.6546343239441785
 42
3.1415595233209004
  0
ELLIPSE
  5
290
100
AcDbEntity
  8
0
370
    35
390
0
 62
     7
 48
0.03937
100
AcDbEllipse
 10
7.660145
 20
5.210145
 30
0.0
 11
-0.1793014123435696
 21
0.5485278674154065
 31
0.0
210
0.0
220
0.0
230
1.0
 40
0.608973
 41
3.1415475425254571
 42
4.7962269775339692
  0
ELLIPSE
  5
291
100
AcDbEntity
  8
0
370
    35
390
0
 62
     7
 48
0.03937
100
AcDbEllipse
 10
7.660145
 20
5.210145
 30
0.0
 11
-0.1793014123435696
 21
0.5485278674154065
 31
0.0
210
0.0
220
0.0
230
1.0
 40
0.608973
 41
4.7962269775339692
 42
6.2831401961152498
  0
ELLIPSE
  5
292
100
AcDbEntity
  8
0
370
    35
390
0
 62
     7
 48
0.03937
100
AcDbEllipse
 10
8.206496
 20
4.31374
 30
0.0
 11
-0.0704212793407354
 21
0.2154363073472103
 31
0.0
210
0.0
220
0.0
230
1.0
 40
0.608973
 41
0.6546343239441776
 42
4.0169576299450434
  0
ELLIPSE
  5
293
100
AcDbEntity
  8
0
370
    35
390
0
 62
     7
 48
0.03937
100
AcDbEllipse
 10
8.206496
 20
4.31374
 30
0.0
 11
-0.0704212793407352
 21
0.2154363073472104
 31
0.0
210
0.0
220
0.0
230
1.0
 40
0.608973
 41
4.0169576299450451
 42
5.4078383217504351
  0
ELLIPSE
  5
294
100
AcDbEntity
  8
0
370
    35
390
0
 62
     7
 48
0.03937
100
AcDbEllipse
 10
8.206496
 20
4.31374
 30
0.0
 11
-0.0704212793407352
 21
0.2154363073472104
 31
0.0
210
0.0
220
0.0
230
1.0
 40
0.608973
 41
5.4078383217504351
 42
6.9378196311237641
  0
ELLIPSE
  5
295
100
AcDbEntity
  8
0
370
    35
390
0
 62
     7
 48
0.03937
100
AcDbEllipse
 10
8.128736
 20
5.779323
 30
0.0
 11
-0.0704212793407354
 21
0.2154363073472103
 31
0.0
210
0.0
220
0.0
230
1.0
 40
0.608973
 41
4.0169576299450451
 42
5.4078383217504342
  0
ELLIPSE
  5
296
100
AcDbEntity
  8
0
370
    35
390
0
 62
     7
 48
0.03937
100
AcDbEllipse
 10
8.128736
 20
5.779323
 30
0.0
 11
-0.0704212793407354
 21
0.2154363073472103
 31
0.0
210
0.0
220
0.0
230
1.0
 40
0.608973
 41
5.4078383217504342
 42
8.5086159579186642
  0
ELLIPSE
  5
297
100
AcDbEntity
  8
0
370
    35
390
0
 62
     7
 48
0.03937
100
AcDbEllipse
 10
8.128736
 20
5.779323
 30
0.0
 11
-0.0704212793407354
 21
0.2154363073472103
 31
0.0
210
0.0
220
0.0
230
1.0
 40
0.608973
 41
2.2254306507390753
 42
4.0169576299450451
  0
ELLIPSE
  5
298
100
AcDbEntity
  8
0
370
    35
390
0
 62
     7
 48
0.03937
100
AcDbEllipse
 10
7.113794
 20
6.106549
 30
0.0
 11
-0.0704212793407352
 21
0.2154363073472105
 31
0.0
210
0.0
220
0.0
230
1.0
 40
0.608973
 41
5.4078383217504351
 42
10.300142937124635
  0
ELLIPSE
  5
299
100
AcDbEntity
  8
0
370
    35
390
0
 62
     7
 48
0.03937
100
AcDbEllipse
 10
7.113794
 20
6.106549
 30
0.0
 11
-0.0704212793407352
 21
0.2154363073472104
 31
0.0
210
0.0
220
0.0
230
1.0
 40
0.608973
 41
4.0169576299450451
 42
5.4078383217504351
  0
ELLIPSE
  5
29A
100
AcDbEntity
  8
0
370
    35
390
0
 62
     7
 48
0.03937
100
AcDbEllipse
 10
8.448346
 20
5.46779
 30
0.0
 11
-0.4872320987597005
 21
1.4905648571070824
 31
0.0
210
0.0
220
0.0
230
1.0
 40
0.608973
 41
3.1415595233209004
 42
6.2831521769106891
  0
ELLIPSE
  5
29B
100
AcDbEntity
  8
0
370
    35
390
0
 62
     7
 48
0.03937
100
AcDbEllipse
 10
7.620735
 20
5.197262
 30
0.0
 11
-0.1793014123435696
 21
0.5485278674154065
 31
0.0
210
0.0
220
0.0
230
1.0
 40
0.608973
 41
6.2831401961152498
 42
9.4247328497050429
  0
ELLIPSE
  5
29C
100
AcDbEntity
  8
0
370
    35
390
0
 62
     7
 48
0.03937
100
AcDbEllipse
 10
7.620735
 20
5.197262
 30
0.0
 11
-0.1793014123435696
 21
0.5485278674154065
 31
0.0
210
0.0
220
0.0
230
1.0
 40
0.608973
 41
3.1415475425254571
 42
4.796226977533971
  0
ELLIPSE
  5
29D
100
AcDbEntity
  8
0
370
    35
390
0
 62
     7
 48
0.03937
100
AcDbEllipse
 10
7.620735
 20
5.197262
 30
0.0
 11
-0.1793014123435696
 21
0.5485278674154065
 31
0.0
210
0.0
220
0.0
230
1.0
 40
0.608973
 41
4.796226977533971
 42
6.2831401961152498
  0
ELLIPSE
  5
29E
100
AcDbEntity
  8
0
370
    35
390
0
 62
     7
 48
0.03937
100
AcDbEllipse
 10
8.234174
 20
4.320028
 30
0.0
 11
0.0595072391679321
 21
-0.1805217023948668
 31
0.0
210
0.0
220
0.0
230
1.0
 40
0.624422
 41
2.3421845153685035
 42
2.6947819833318047
  0
SPLINE
  5
29F
100
AcDbEntity
  8
0
370
    35
390
0
 62
     7
 48
0.03937
100
AcDbSpline
210
0.0
220
0.0
230
1.0
 70
     8
 71
     5
 72
    18
 73
    12
 74
     0
 42
0.0
 43
0.0
 40
0.0
 40
0.0
 40
0.0
 40
0.0
 40
0.0
 40
0.0
 40
4.2215727824908331
 40
4.2215727824908331
 40
4.2215727824908331
 40
8.3695099364237624
 40
8.3695099364237624
 40
8.3695099364237624
 40
10.414222462181119
 40
10.414222462181119
 40
10.414222462181119
 40
10.414222462181119
 40
10.414222462181119
 40
10.414222462181119
 10
8.1192214475005464
 20
4.444470863622505
 30
0.0
 10
8.1240892184236895
 20
4.4558558629612204
 30
0.0
 10
8.1299689206216819
 20
4.4662404189484199
 30
0.0
 10
8.1369516608941979
 20
4.4757044481488313
 30
0.0
 10
8.1531049589890703
 20
4.4916982563213299
 30
0.0
 10
8.1726057235572434
 20
4.5010791932823544
 30
0.0
 10
8.1827610993010573
 20
4.5038092259184666
 30
0.0
 10
8.198162665443224
 20
4.5052973453795229
 30
0.0
 10
8.2137324830365017
 20
4.5031974370447587
 30
0.0
 10
8.2188775935378562
 20
4.5021310582854541
 30
0.0
 10
8.224054169503745
 20
4.500686235318244
 30
0.0
 10
8.2292150841035685
 20
4.4988834164814371
 30
0.0
  0
POLYLINE
  5
2A0
100
AcDbEntity
  8
0
370
    35
390
0
 62
     7
 48
0.03937
100
AcDb2dPolyline
 66
     1
 10
0.0
 20
0.0
 30
0.0
 71
     2
  0
VERTEX
  5
2A1
100
AcDbEntity
  8
0
370
     0
390
0
100
AcDbVertex
100
AcDb2dVertex
 10
8.345257
 20
4.186142
 30
0.0
 42
0.043687
  0
VERTEX
  5
2A2
100
AcDbEntity
  8
0
370
     0
390
0
100
AcDbVertex
100
AcDb2dVertex
 10
8.353289
 20
4.215379
 30
0.0
  0
SEQEND
  5
2A3
100
AcDbEntity
  8
0
370
     0
390
0
  0
ELLIPSE
  5
2A4
100
AcDbEntity
  8
0
370
    35
390
0
 62
     7
 48
0.03937
100
AcDbEllipse
 10
8.230828
 20
4.310308
 30
0.0
 11
0.0586680237460533
 21
-0.183931743771057
 31
0.0
210
0.0
220
0.0
230
1.0
 40
0.60473
 41
5.3716307341159641
 42
5.8329292937257939
  0
SPLINE
  5
2A5
100
AcDbEntity
  8
0
370
    35
390
0
 62
     7
 48
0.03937
100
AcDbSpline
210
0.0
220
0.0
230
1.0
 70
     8
 71
     5
 72
    24
 73
    18
 74
     0
 42
0.0
 43
0.0
 40
0.0
 40
0.0
 40
0.0
 40
0.0
 40
0.0
 40
0.0
 40
2.7629042135983428
 40
2.7629042135983428
 40
2.7629042135983428
 40
8.4599714240620152
 40
8.4599714240620152
 40
8.4599714240620152
 40
9.8908096208757215
 40
9.8908096208757215
 40
9.8908096208757215
 40
12.676574228336303
 40
12.676574228336303
 40
12.676574228336303
 40
14.02774807944663
 40
14.02774807944663
 40
14.02774807944663
 40
14.02774807944663
 40
14.02774807944663
 40
14.02774807944663
 10
8.1788416399267359
 20
4.1696026064975413
 30
0.0
 10
8.1726688610634266
 20
4.1762688819201488
 30
0.0
 10
8.1667448189829095
 20
4.1833815613491803
 30
0.0
 10
8.1610617031812804
 20
4.1909312563501446
 30
0.0
 10
8.1446313589028776
 20
4.214984975729215
 30
0.0
 10
8.1308738569306396
 20
4.2422212027655855
 30
0.0
 10
8.1230951859022564
 20
4.261506953091641
 30
0.0
 10
8.1153412201197543
 20
4.2862278893796271
 30
0.0
 10
8.1101758088994735
 20
4.3112342463539468
 30
0.0
 10
8.1092722150788692
 20
4.316108476429025
 30
0.0
 10
8.1068586936816907
 20
4.3307896008907951
 30
0.0
 10
8.1054045172331293
 20
4.3450857770814011
 30
0.0
 10
8.1048490686128911
 20
4.3543010495650121
 30
0.0
 10
8.1045807684601794
 20
4.3677551939440349
 30
0.0
 10
8.1051884228380118
 20
4.3810429877263122
 30
0.0
 10
8.1054827398297178
 20
4.3853737206083387
 30
0.0
 10
8.1058772225752254
 20
4.3896944404796061
 30
0.0
 10
8.1063759515331579
 20
4.3940000985436143
 30
0.0
  0
POLYLINE
  5
2A6
100
AcDbEntity
  8
0
370
    35
390
0
 62
     7
 48
0.03937
100
AcDb2dPolyline
 66
     1
 10
0.0
 20
0.0
 30
0.0
 71
     2
  0
VERTEX
  5
2A7
100
AcDbEntity
  8
0
370
     0
390
0
100
AcDbVertex
100
AcDb2dVertex
 10
8.119194
 20
4.444482
 30
0.0
 42
0.071895
  0
VERTEX
  5
2A8
100
AcDbEntity
  8
0
370
     0
390
0
100
AcDbVertex
100
AcDb2dVertex
 10
8.106406
 20
4.393997
 30
0.0
  0
SEQEND
  5
2A9
100
AcDbEntity
  8
0
370
     0
390
0
  0
SPLINE
  5
2AA
100
AcDbEntity
  8
0
370
    35
390
0
 62
     7
 48
0.03937
100
AcDbSpline
210
0.0
220
0.0
230
1.0
 70
     8
 71
     5
 72
    15
 73
     9
 74
     0
 42
0.0
 43
0.0
 40
0.0
 40
0.0
 40
0.0
 40
0.0
 40
0.0
 40
0.0
 40
5.3933592072552621
 40
5.3933592072552621
 40
5.3933592072552621
 40
10.650568062432065
 40
10.650568062432065
 40
10.650568062432065
 40
10.650568062432065
 40
10.650568062432065
 40
10.650568062432065
 10
8.3452503791771786
 20
4.1861439825885549
 30
0.0
 10
8.3394560923248093
 20
4.1707591653369995
 30
0.0
 10
8.3318966070741869
 20
4.1570646495926322
 30
0.0
 10
8.3226262832255724
 20
4.1455343682973504
 30
0.0
 10
8.3013424871479238
 20
4.1280089398415436
 30
0.0
 10
8.275700003070364
 20
4.1216749684535454
 30
0.0
 10
8.2623473261248073
 20
4.1214781268437459
 30
0.0
 10
8.2487371921976678
 20
4.1241026201528532
 30
0.0
 10
8.2352426844540272
 20
4.1292677892386491
 30
0.0
  0
ELLIPSE
  5
2AB
100
AcDbEntity
  8
0
370
    35
390
0
 62
     7
 48
0.03937
100
AcDbEllipse
 10
8.16657
 20
5.79169
 30
0.0
 11
0.0548298521804249
 21
-0.1677382319197837
 31
0.0
210
0.0
220
0.0
230
1.0
 40
0.608973
 41
2.4562192484399503
 42
2.6177037647535051
  0
POLYLINE
  5
2AC
100
AcDbEntity
  8
0
370
    35
390
0
 62
     7
 48
0.03937
100
AcDb2dPolyline
 66
     1
 10
0.0
 20
0.0
 30
0.0
 71
     2
  0
VERTEX
  5
2AD
100
AcDbEntity
  8
0
370
     0
390
0
100
AcDbVertex
100
AcDb2dVertex
 10
8.040123
 20
5.858238
 30
0.0
 42
0.030588
  0
VERTEX
  5
2AE
100
AcDbEntity
  8
0
370
     0
390
0
100
AcDbVertex
100
AcDb2dVertex
 10
8.038622
 20
5.82975
 30
0.0
  0
SEQEND
  5
2AF
100
AcDbEntity
  8
0
370
     0
390
0
  0
SPLINE
  5
2B0
100
AcDbEntity
  8
0
370
    35
390
0
 62
     7
 48
0.03937
100
AcDbSpline
210
0.0
220
0.0
230
1.0
 70
     8
 71
     5
 72
    27
 73
    21
 74
     0
 42
0.0
 43
0.0
 40
0.0
 40
0.0
 40
0.0
 40
0.0
 40
0.0
 40
0.0
 40
4.6675124260986776
 40
4.6675124260986776
 40
4.6675124260986776
 40
9.1611750230864644
 40
9.1611750230864644
 40
9.1611750230864644
 40
10.637645503379728
 40
10.637645503379728
 40
10.637645503379728
 40
11.37571070751412
 40
11.37571070751412
 40
11.37571070751412
 40
13.580752423011116
 40
13.580752423011116
 40
13.580752423011116
 40
14.991103254923818
 40
14.991103254923818
 40
14.991103254923818
 40
14.991103254923818
 40
14.991103254923818
 40
14.991103254923818
 10
8.0401256880478869
 20
5.8582375384756595
 30
0.0
 10
8.0418519710751344
 20
5.8730817225934695
 30
0.0
 10
8.0448255641821333
 20
5.887347481720921
 30
0.0
 10
8.0490742214804172
 20
5.9006428764371126
 30
0.0
 10
8.0597482472528892
 20
5.9242887385282437
 30
0.0
 10
8.0748034786523792
 20
5.9424241882769246
 30
0.0
 10
8.0832196724803058
 20
5.9498565095275371
 30
0.0
 10
8.0956080147763299
 20
5.9573407266967884
 30
0.0
 10
8.1089745917992513
 20
5.9615241275850464
 30
0.0
 10
8.1123361019650506
 20
5.9623566580233716
 30
0.0
 10
8.117435338739039
 20
5.9633012701811587
 30
0.0
 10
8.1226270505044962
 20
5.9637961332198834
 30
0.0
 10
8.1243689736433495
 20
5.963911110896885
 30
0.0
 10
8.131299918306377
 20
5.9641691291440955
 30
0.0
 10
8.1381572225793786
 20
5.9636580644453714
 30
0.0
 10
8.1432267911030873
 20
5.9628845198499727
 30
0.0
 10
8.1514938203157836
 20
5.9610446368515779
 30
0.0
 10
8.1600099346180244
 20
5.9581153833097611
 30
0.0
 10
8.1633873013160958
 20
5.9567961808786523
 30
0.0
 10
8.1668000174082458
 20
5.9552928165063417
 30
0.0
 10
8.1701931006600343
 20
5.9536345277755984
 30
0.0
  0
SPLINE
  5
2B1
100
AcDbEntity
  8
0
370
    35
390
0
 62
     7
 48
0.03937
100
AcDbSpline
210
0.0
220
0.0
230
1.0
 70
     8
 71
     5
 72
    21
 73
    15
 74
     0
 42
0.0
 43
0.0
 40
0.0
 40
0.0
 40
0.0
 40
0.0
 40
0.0
 40
0.0
 40
4.4559757354415916
 40
4.4559757354415916
 40
4.4559757354415916
 40
9.0161338239929947
 40
9.0161338239929947
 40
9.0161338239929947
 40
10.137056375636542
 40
10.137056375636542
 40
10.137056375636542
 40
11.250853175886665
 40
11.250853175886665
 40
11.250853175886665
 40
11.250853175886665
 40
11.250853175886665
 40
11.250853175886665
 10
8.1042253961891539
 20
5.6490730971541785
 30
0.0
 10
8.0949094749069932
 20
5.6599331839868459
 30
0.0
 10
8.0862118008431185
 20
5.671898693979835
 30
0.0
 10
8.0780547998669885
 20
5.6849883633004321
 30
0.0
 10
8.0630412649539132
 20
5.7135828955962999
 30
0.0
 10
8.0518005379075888
 20
5.7446672188113332
 30
0.0
 10
8.0472647028004847
 20
5.7605968118502053
 30
0.0
 10
8.0430228232196601
 20
5.7802795492037751
 30
0.0
 10
8.040507366657268
 20
5.7996527077097104
 30
0.0
 10
8.0400777636497498
 20
5.8034633418339538
 30
0.0
 10
8.0393538886840119
 20
5.8110447548724213
 30
0.0
 10
8.0388973411614053
 20
5.8185803008012895
 30
0.0
 10
8.0387367685411206
 20
5.8223227680091512
 30
0.0
 10
8.0386438322970726
 20
5.8260465524650877
 30
0.0
 10
8.0386189826315562
 20
5.8297495927862295
 30
0.0
  0
POLYLINE
  5
2B2
100
AcDbEntity
  8
0
370
    35
390
0
 62
     7
 48
0.03937
100
AcDb2dPolyline
 66
     1
 10
0.0
 20
0.0
 30
0.0
 71
     2
  0
VERTEX
  5
2B3
100
AcDbEntity
  8
0
370
     0
390
0
100
AcDbVertex
100
AcDb2dVertex
 10
8.189226
 20
5.945232
 30
0.0
 42
0.06512
  0
VERTEX
  5
2B4
100
AcDbEntity
  8
0
370
     0
390
0
100
AcDbVertex
100
AcDb2dVertex
 10
8.151325
 20
5.973023
 30
0.0
  0
SEQEND
  5
2B5
100
AcDbEntity
  8
0
370
     0
390
0
  0
POLYLINE
  5
2B6
100
AcDbEntity
  8
0
370
    35
390
0
 62
     7
 48
0.03937
100
AcDb2dPolyline
 66
     1
 10
0.0
 20
0.0
 30
0.0
 71
     2
  0
VERTEX
  5
2B7
100
AcDbEntity
  8
0
370
     0
390
0
100
AcDbVertex
100
AcDb2dVertex
 10
8.188776
 20
5.942683
 30
0.0
 42
0.016098
  0
VERTEX
  5
2B8
100
AcDbEntity
  8
0
370
     0
390
0
100
AcDbVertex
100
AcDb2dVertex
 10
8.151316
 20
5.973005
 30
0.0
  0
SEQEND
  5
2B9
100
AcDbEntity
  8
0
370
     0
390
0
  0
SPLINE
  5
2BA
100
AcDbEntity
  8
0
370
    35
390
0
 62
     7
 48
0.03937
100
AcDbSpline
210
0.0
220
0.0
230
1.0
 70
     8
 71
     5
 72
    27
 73
    21
 74
     0
 42
0.0
 43
0.0
 40
0.0
 40
0.0
 40
0.0
 40
0.0
 40
0.0
 40
0.0
 40
3.524386546399866
 40
3.524386546399866
 40
3.524386546399866
 40
8.6188189520810798
 40
8.6188189520810798
 40
8.6188189520810798
 40
10.2933992878179
 40
10.2933992878179
 40
10.2933992878179
 40
13.63696371933437
 40
13.63696371933437
 40
13.63696371933437
 40
15.341915696991004
 40
15.341915696991004
 40
15.341915696991004
 40
17.022953574398304
 40
17.022953574398304
 40
17.022953574398304
 40
17.022953574398304
 40
17.022953574398304
 40
17.022953574398304
 10
8.275918216631581
 20
5.6841387353691797
 30
0.0
 10
8.273673508066091
 20
5.673113726115468
 30
0.0
 10
8.270672139469049
 20
5.6626311233071602
 30
0.0
 10
8.2669411760478617
 20
5.6529125757480774
 30
0.0
 10
8.2560770729042385
 20
5.6310522097680176
 30
0.0
 10
8.2409981041374021
 20
5.6144745596871894
 30
0.0
 10
8.2307430675040472
 20
5.6069675774324939
 30
0.0
 10
8.2157582080719607
 20
5.6004765778631764
 30
0.0
 10
8.1997382499485578
 20
5.5985764303635941
 30
0.0
 10
8.1957290641617853
 20
5.5983867028530145
 30
0.0
 10
8.1836445368520767
 20
5.5986495279086412
 30
0.0
 10
8.1717257121449993
 20
5.6012335855454323
 30
0.0
 10
8.1638968759471684
 20
5.6038587077328756
 30
0.0
 10
8.1521749264402406
 20
5.6090753147626655
 30
0.0
 10
8.1403444600377277
 20
5.6164383909756941
 30
0.0
 10
8.1363299604617012
 20
5.6191810165045499
 30
0.0
 10
8.128383115281391
 20
5.6251188001474999
 30
0.0
 10
8.1206177523164715
 20
5.6319213892828675
 30
0.0
 10
8.1168870342045718
 20
5.6354385204165292
 30
0.0
 10
8.1131876808833159
 20
5.6391737713960239
 30
0.0
 10
8.1095708992047673
 20
5.6430762228936731
 30
0.0
  0
POLYLINE
  5
2BB
100
AcDbEntity
  8
0
370
    35
390
0
 62
     7
 48
0.03937
100
AcDb2dPolyline
 66
     1
 10
0.0
 20
0.0
 30
0.0
 71
     2
  0
VERTEX
  5
2BC
100
AcDbEntity
  8
0
370
     0
390
0
100
AcDbVertex
100
AcDb2dVertex
 10
8.104225
 20
5.649073
 30
0.0
 42
0.009602
  0
VERTEX
  5
2BD
100
AcDbEntity
  8
0
370
     0
390
0
100
AcDbVertex
100
AcDb2dVertex
 10
8.109571
 20
5.643076
 30
0.0
  0
SEQEND
  5
2BE
100
AcDbEntity
  8
0
370
     0
390
0
  0
ELLIPSE
  5
2BF
100
AcDbEntity
  8
0
370
    35
390
0
 62
     7
 48
0.03937
100
AcDbEllipse
 10
7.151627
 20
6.118916
 30
0.0
 11
0.0548298521804243
 21
-0.1677382319197839
 31
0.0
210
0.0
220
0.0
230
1.0
 40
0.608973
 41
4.0270155752348469
 42
4.1885000915484021
  0
ELLIPSE
  5
2C0
100
AcDbEntity
  8
0
370
    35
390
0
 62
     7
 48
0.03937
100
AcDbEllipse
 10
7.150482
 20
6.107179
 30
0.0
 11
0.0535747890698123
 21
-0.1683647204677042
 31
0.0
210
0.0
220
0.0
230
1.0
 40
0.604345
 41
5.3738757237537511
 42
5.8254691188893819
  0
SPLINE
  5
2C1
100
AcDbEntity
  8
0
370
    35
390
0
 62
     7
 48
0.03937
100
AcDbSpline
210
0.0
220
0.0
230
1.0
 70
     8
 71
     5
 72
    24
 73
    18
 74
     0
 42
0.0
 43
0.0
 40
0.0
 40
0.0
 40
0.0
 40
0.0
 40
0.0
 40
0.0
 40
3.8555512914753773
 40
3.8555512914753773
 40
3.8555512914753773
 40
8.465623391523728
 40
8.465623391523728
 40
8.465623391523728
 40
9.1232577272810467
 40
9.1232577272810467
 40
9.1232577272810467
 40
11.710097309985912
 40
11.710097309985912
 40
11.710097309985912
 40
12.987089011865546
 40
12.987089011865546
 40
12.987089011865546
 40
12.987089011865546
 40
12.987089011865546
 40
12.987089011865546
 10
7.1031032261490674
 20
5.9782052696930625
 30
0.0
 10
7.0950403368577453
 20
5.986897960477239
 30
0.0
 10
7.0874308831320141
 20
5.9964344176903817
 30
0.0
 10
7.0803103970758139
 20
6.0067137649840756
 30
0.0
 10
7.065890544676261
 20
6.0306193330307547
 30
0.0
 10
7.0542736658003333
 20
6.0571381496201617
 30
0.0
 10
7.0489456679694626
 20
6.0720258249454142
 30
0.0
 10
7.0440227307591723
 20
6.0892559513553168
 30
0.0
 10
7.0404669484078362
 20
6.1066105394546222
 30
0.0
 10
7.040044980210669
 20
6.1087764400068183
 30
0.0
 10
7.0380781749223162
 20
6.1194181061948818
 30
0.0
 10
7.0366735843295976
 20
6.129812966895499
 30
0.0
 10
7.0359012338703488
 20
6.1378257632007287
 30
0.0
 10
7.0351842747245481
 20
6.1497628279321797
 30
0.0
 10
7.0352054168376998
 20
6.1618656949570356
 30
0.0
 10
7.035296725721726
 20
6.1658902513971459
 30
0.0
 10
7.0354792441439216
 20
6.1699227173616249
 30
0.0
 10
7.0357506677201425
 20
6.1739155539791284
 30
0.0
  0
SPLINE
  5
2C2
100
AcDbEntity
  8
0
370
    35
390
0
 62
     7
 48
0.03937
100
AcDbSpline
210
0.0
220
0.0
230
1.0
 70
     8
 71
     5
 72
    18
 73
    12
 74
     0
 42
0.0
 43
0.0
 40
0.0
 40
0.0
 40
0.0
 40
0.0
 40
0.0
 40
0.0
 40
4.1869436593062934
 40
4.1869436593062934
 40
4.1869436593062934
 40
8.2945164099923545
 40
8.2945164099923545
 40
8.2945164099923545
 40
10.32099139686461
 40
10.32099139686461
 40
10.32099139686461
 40
10.32099139686461
 40
10.32099139686461
 40
10.32099139686461
 10
7.2550918113020479
 20
5.9934776311098448
 30
0.0
 10
7.2508835537313177
 20
5.9823201769733858
 30
0.0
 10
7.2456698434303419
 20
5.9721556033614442
 30
0.0
 10
7.2393695786203729
 20
5.9629050974312836
 30
0.0
 10
7.2246030921246627
 20
5.9473562371877104
 30
0.0
 10
7.2064969128944716
 20
5.9384327173905289
 30
0.0
 10
7.1970315482115916
 20
5.9359344997436638
 30
0.0
 10
7.1826435211497488
 20
5.934784010417343
 30
0.0
 10
7.1680757105909239
 20
5.9372079529067028
 30
0.0
 10
7.1632584594305424
 20
5.9383802247489967
 30
0.0
 10
7.1584105635250896
 20
5.9399304805962734
 30
0.0
 10
7.1535783894253377
 20
5.9418370695529568
 30
0.0
  0
LINE
  5
2C3
100
AcDbEntity
  8
0
370
    35
390
0
 62
     7
 48
0.000161
100
AcDbLine
 10
6.989991
 20
6.183052
 30
0.0
 11
6.99064
 21
6.189448
 31
0.0
210
0.0
220
0.0
230
1.0
  0
POLYLINE
  5
2C4
100
AcDbEntity
  8
0
370
    35
390
0
 62
     7
 48
0.03937
100
AcDb2dPolyline
 66
     1
 10
0.0
 20
0.0
 30
0.0
 71
     2
  0
VERTEX
  5
2C5
100
AcDbEntity
  8
0
370
     0
390
0
100
AcDbVertex
100
AcDb2dVertex
 10
7.004293
 20
6.24373
 30
0.0
 42
0.071186
  0
VERTEX
  5
2C6
100
AcDbEntity
  8
0
370
     0
390
0
100
AcDbVertex
100
AcDb2dVertex
 10
6.990672
 20
6.189445
 30
0.0
  0
SEQEND
  5
2C7
100
AcDbEntity
  8
0
370
     0
390
0
  0
POLYLINE
  5
2C8
100
AcDbEntity
  8
0
370
    35
390
0
 62
     7
 48
0.03937
100
AcDb2dPolyline
 66
     1
 10
0.0
 20
0.0
 30
0.0
 71
     2
  0
VERTEX
  5
2C9
100
AcDbEntity
  8
0
370
     0
390
0
100
AcDbVertex
100
AcDb2dVertex
 10
7.037841
 20
6.199239
 30
0.0
 42
0.044723
  0
VERTEX
  5
2CA
100
AcDbEntity
  8
0
370
     0
390
0
100
AcDbVertex
100
AcDb2dVertex
 10
6.989992
 20
6.183051
 30
0.0
  0
SEQEND
  5
2CB
100
AcDbEntity
  8
0
370
     0
390
0
  0
ELLIPSE
  5
2CC
100
AcDbEntity
  8
0
370
    35
390
0
 62
     7
 48
0.03937
100
AcDbEllipse
 10
7.129121
 20
6.108986
 30
0.0
 11
0.0646337428032398
 21
-0.1959110782952626
 31
0.0
210
0.0
220
0.0
230
1.0
 40
0.623315
 41
2.3052449520897436
 42
2.7007114981786859
  0
POLYLINE
  5
2CD
100
AcDbEntity
  8
0
370
    35
390
0
 62
     7
 48
0.03937
100
AcDb2dPolyline
 66
     1
 10
0.0
 20
0.0
 30
0.0
 71
     2
  0
VERTEX
  5
2CE
100
AcDbEntity
  8
0
370
     0
390
0
100
AcDbVertex
100
AcDb2dVertex
 10
7.255095
 20
5.993476
 30
0.0
 42
0.035659
  0
VERTEX
  5
2CF
100
AcDbEntity
  8
0
370
     0
390
0
100
AcDbVertex
100
AcDb2dVertex
 10
7.261325
 20
6.014643
 30
0.0
  0
SEQEND
  5
2D0
100
AcDbEntity
  8
0
370
     0
390
0
  0
SPLINE
  5
2D1
100
AcDbEntity
  8
0
370
    35
390
0
 62
     7
 48
0.03937
100
AcDbSpline
210
0.0
220
0.0
230
1.0
 70
     8
 71
     5
 72
    15
 73
     9
 74
     0
 42
0.0
 43
0.0
 40
0.0
 40
0.0
 40
0.0
 40
0.0
 40
0.0
 40
0.0
 40
6.5058985181637832
 40
6.5058985181637832
 40
6.5058985181637832
 40
10.748141237602216
 40
10.748141237602216
 40
10.748141237602216
 40
10.748141237602216
 40
10.748141237602216
 40
10.748141237602216
 10
7.0043225953549149
 20
6.2437174701264313
 30
0.0
 10
7.0122523016924267
 20
6.2624640213535665
 30
0.0
 10
7.0227233204320694
 20
6.2787727317820101
 30
0.0
 10
7.0356278354902146
 20
6.291831958193141
 30
0.0
 10
7.0602754304747748
 20
6.3067154450950653
 30
0.0
 10
7.088364407035245
 20
6.3100738570111918
 30
0.0
 10
7.0997838813679444
 20
6.309557208175848
 30
0.0
 10
7.1113177328840118
 20
6.3072717278530872
 30
0.0
 10
7.1227781705053062
 20
6.3033550854238696
 30
0.0
  0
ELLIPSE
  5
2D2
100
AcDbEntity
  8
0
370
    35
390
0
 62
     7
 48
0.03937
100
AcDbEllipse
 10
7.620735
 20
5.197262
 30
0.0
 11
-0.0649642798346267
 21
0.1987419809476111
 31
0.0
210
0.0
220
0.0
230
1.0
 40
0.608973
 41
6.2831401961152498
 42
9.4247328497050429
  0
ELLIPSE
  5
2D3
100
AcDbEntity
  8
0
370
    35
390
0
 62
     7
 48
0.03937
100
AcDbEllipse
 10
7.620735
 20
5.197262
 30
0.0
 11
-0.0649642798346267
 21
0.1987419809476111
 31
0.0
210
0.0
220
0.0
230
1.0
 40
0.608973
 41
3.1415475425254566
 42
4.7962269775339692
  0
ELLIPSE
  5
2D4
100
AcDbEntity
  8
0
370
    35
390
0
 62
     7
 48
0.03937
100
AcDbEllipse
 10
7.620735
 20
5.197262
 30
0.0
 11
-0.0649642798346267
 21
0.1987419809476111
 31
0.0
210
0.0
220
0.0
230
1.0
 40
0.608973
 41
4.7962269775339692
 42
6.2831401961152498
  0
POLYLINE
  5
2D5
100
AcDbEntity
  8
0
370
    35
390
0
 62
     7
 48
0.03937
100
AcDb2dPolyline
 66
     1
 10
0.0
 20
0.0
 30
0.0
 71
     2
  0
VERTEX
  5
2D6
100
AcDbEntity
  8
0
370
     0
390
0
100
AcDbVertex
100
AcDb2dVertex
 10
7.187023
 20
6.257957
 30
0.0
 42
0.0339
  0
VERTEX
  5
2D7
100
AcDbEntity
  8
0
370
     0
390
0
100
AcDbVertex
100
AcDb2dVertex
 10
7.182238
 20
6.23195
 30
0.0
  0
SEQEND
  5
2D8
100
AcDbEntity
  8
0
370
     0
390
0
  0
POLYLINE
  5
2D9
100
AcDbEntity
  8
0
370
    35
390
0
 62
     7
 48
0.03937
100
AcDb2dPolyline
 66
     1
 10
0.0
 20
0.0
 30
0.0
 71
     2
  0
VERTEX
  5
2DA
100
AcDbEntity
  8
0
370
     0
390
0
100
AcDbVertex
100
AcDb2dVertex
 10
7.182233
 20
6.231951
 30
0.0
 42
0.030765
  0
VERTEX
  5
2DB
100
AcDbEntity
  8
0
370
     0
390
0
100
AcDbVertex
100
AcDb2dVertex
 10
7.180718
 20
6.203478
 30
0.0
  0
SEQEND
  5
2DC
100
AcDbEntity
  8
0
370
     0
390
0
  0
POLYLINE
  5
2DD
100
AcDbEntity
  8
0
370
    35
390
0
 62
     7
 48
0.03937
100
AcDb2dPolyline
 66
     1
 10
0.0
 20
0.0
 30
0.0
 71
     2
  0
VERTEX
  5
2DE
100
AcDbEntity
  8
0
370
     0
390
0
100
AcDbVertex
100
AcDb2dVertex
 10
7.186137
 20
6.259017
 30
0.0
 42
0.066592
  0
VERTEX
  5
2DF
100
AcDbEntity
  8
0
370
     0
390
0
100
AcDbVertex
100
AcDb2dVertex
 10
7.179495
 20
6.203071
 30
0.0
  0
SEQEND
  5
2E0
100
AcDbEntity
  8
0
370
     0
390
0
  0
POLYLINE
  5
2E1
100
AcDbEntity
  8
0
370
    35
390
0
 62
     7
 48
0.03937
100
AcDb2dPolyline
 66
     1
 10
0.0
 20
0.0
 30
0.0
 71
     2
  0
VERTEX
  5
2E2
100
AcDbEntity
  8
0
370
     0
390
0
100
AcDbVertex
100
AcDb2dVertex
 10
7.145951
 20
6.264358
 30
0.0
 42
0.07051
  0
VERTEX
  5
2E3
100
AcDbEntity
  8
0
370
     0
390
0
100
AcDbVertex
100
AcDb2dVertex
 10
7.133757
 20
6.216092
 30
0.0
  0
SEQEND
  5
2E4
100
AcDbEntity
  8
0
370
     0
390
0
  0
POLYLINE
  5
2E5
100
AcDbEntity
  8
0
370
    35
390
0
 62
     7
 48
0.03937
100
AcDb2dPolyline
 66
     1
 10
0.0
 20
0.0
 30
0.0
 71
     2
  0
VERTEX
  5
2E6
100
AcDbEntity
  8
0
370
     0
390
0
100
AcDbVertex
100
AcDb2dVertex
 10
7.133728
 20
6.216096
 30
0.0
 42
0.030765
  0
VERTEX
  5
2E7
100
AcDbEntity
  8
0
370
     0
390
0
100
AcDbVertex
100
AcDb2dVertex
 10
7.132213
 20
6.187623
 30
0.0
  0
SEQEND
  5
2E8
100
AcDbEntity
  8
0
370
     0
390
0
  0
ELLIPSE
  5
2E9
100
AcDbEntity
  8
0
370
    35
390
0
 62
     7
 48
0.03937
100
AcDbEllipse
 10
7.255092
 20
6.142733
 30
0.0
 11
0.0533368499310771
 21
-0.1779876023436765
 31
0.0
210
0.0
220
0.0
230
1.0
 40
0.62977
 41
3.7927628231493062
 42
4.2777394651294953
  0
POLYLINE
  5
2EA
100
AcDbEntity
  8
0
370
    35
390
0
 62
     7
 48
0.03937
100
AcDb2dPolyline
 66
     1
 10
0.0
 20
0.0
 30
0.0
 71
     2
  0
VERTEX
  5
2EB
100
AcDbEntity
  8
0
370
     0
390
0
100
AcDbVertex
100
AcDb2dVertex
 10
7.097446
 20
6.248503
 30
0.0
 42
0.07051
  0
VERTEX
  5
2EC
100
AcDbEntity
  8
0
370
     0
390
0
100
AcDbVertex
100
AcDb2dVertex
 10
7.085252
 20
6.200237
 30
0.0
  0
SEQEND
  5
2ED
100
AcDbEntity
  8
0
370
     0
390
0
  0
POLYLINE
  5
2EE
100
AcDbEntity
  8
0
370
    35
390
0
 62
     7
 48
0.03937
100
AcDb2dPolyline
 66
     1
 10
0.0
 20
0.0
 30
0.0
 71
     2
  0
VERTEX
  5
2EF
100
AcDbEntity
  8
0
370
     0
390
0
100
AcDbVertex
100
AcDb2dVertex
 10
7.085223
 20
6.20024
 30
0.0
 42
0.030765
  0
VERTEX
  5
2F0
100
AcDbEntity
  8
0
370
     0
390
0
100
AcDbVertex
100
AcDb2dVertex
 10
7.083708
 20
6.171768
 30
0.0
  0
SEQEND
  5
2F1
100
AcDbEntity
  8
0
370
     0
390
0
  0
ELLIPSE
  5
2F2
100
AcDbEntity
  8
0
370
    35
390
0
 62
     7
 48
0.03937
100
AcDbEllipse
 10
7.206587
 20
6.126878
 30
0.0
 11
0.0533369556797288
 21
-0.1779876741942029
 31
0.0
210
0.0
220
0.0
230
1.0
 40
0.62977
 41
3.7927624257763259
 42
4.2777388887268941
  0
SPLINE
  5
2F3
100
AcDbEntity
  8
0
370
    35
390
0
 62
     7
 48
0.03937
100
AcDbSpline
210
0.0
220
0.0
230
1.0
 70
     8
 71
     5
 72
    15
 73
     9
 74
     0
 42
0.0
 43
0.0
 40
0.0
 40
0.0
 40
0.0
 40
0.0
 40
0.0
 40
0.0
 40
5.9139035881190338
 40
5.9139035881190338
 40
5.9139035881190338
 40
9.9495594104072111
 40
9.9495594104072111
 40
9.9495594104072111
 40
9.9495594104072111
 40
9.9495594104072111
 40
9.9495594104072111
 10
8.2243798022522814
 20
4.1890749297950878
 30
0.0
 10
8.2072982636954386
 20
4.2094822438446453
 30
0.0
 10
8.192429613525638
 20
4.2331730769859712
 30
0.0
 10
8.1801072773893022
 20
4.2589551111425719
 30
0.0
 10
8.1638813627562712
 20
4.3045597932972965
 30
0.0
 10
8.1558693439529186
 20
4.3520791125714666
 30
0.0
 10
8.1540434860809725
 20
4.3714625981279873
 30
0.0
 10
8.1537455086094983
 20
4.3906973961905269
 30
0.0
 10
8.155085726143648
 20
4.409472041661485
 30
0.0
  0
SPLINE
  5
2F4
100
AcDbEntity
  8
0
370
    35
390
0
 62
     7
 48
0.03937
100
AcDbSpline
210
0.0
220
0.0
230
1.0
 70
     8
 71
     5
 72
    18
 73
    12
 74
     0
 42
0.0
 43
0.0
 40
0.0
 40
0.0
 40
0.0
 40
0.0
 40
0.0
 40
0.0
 40
2.4313724074705214
 40
2.4313724074705214
 40
2.4313724074705214
 40
6.602495559541202
 40
6.602495559541202
 40
6.602495559541202
 40
8.3385634363221683
 40
8.3385634363221683
 40
8.3385634363221683
 40
8.3385634363221683
 40
8.3385634363221683
 40
8.3385634363221683
 10
8.216484283326345
 20
4.5024403690539456
 30
0.0
 10
8.210475238705838
 20
4.4999623728645224
 30
0.0
 10
8.204725814798504
 20
4.4968407903040104
 30
0.0
 10
8.1992632660159526
 20
4.4930970852423124
 30
0.0
 10
8.1852984959671229
 20
4.4813481752425908
 30
0.0
 10
8.1737638832742192
 20
4.4654229221768951
 30
0.0
 10
8.1676821539603051
 20
4.4539495704958538
 30
0.0
 10
8.1608264226008895
 20
4.4363113460567982
 30
0.0
 10
8.1563776012284741
 20
4.4171157360955648
 30
0.0
 10
8.1552719325217247
 20
4.4113364185729385
 30
0.0
 10
8.1543726757583528
 20
4.4054621585271034
 30
0.0
 10
8.1536750818578057
 20
4.3994992000063746
 30
0.0
  0
POLYLINE
  5
2F5
100
AcDbEntity
  8
0
370
    35
390
0
 62
     7
 48
0.03937
100
AcDb2dPolyline
 66
     1
 10
0.0
 20
0.0
 30
0.0
 71
     2
  0
VERTEX
  5
2F6
100
AcDbEntity
  8
0
370
     0
390
0
100
AcDbVertex
100
AcDb2dVertex
 10
8.153673
 20
4.399499
 30
0.0
 42
0.03076
  0
VERTEX
  5
2F7
100
AcDbEntity
  8
0
370
     0
390
0
100
AcDbVertex
100
AcDb2dVertex
 10
8.152158
 20
4.371032
 30
0.0
  0
SEQEND
  5
2F8
100
AcDbEntity
  8
0
370
     0
390
0
  0
ELLIPSE
  5
2F9
100
AcDbEntity
  8
0
370
    35
390
0
 62
     7
 48
0.03937
100
AcDbEllipse
 10
8.257574
 20
4.31713
 30
0.0
 11
0.0492533238288713
 21
-0.1562882555520646
 31
0.0
210
0.0
220
0.0
230
1.0
 40
0.586891
 41
5.3921520514013643
 42
5.8474486029846036
  0
SPLINE
  5
2FA
100
AcDbEntity
  8
0
370
    35
390
0
 62
     7
 48
0.03937
100
AcDbSpline
210
0.0
220
0.0
230
1.0
 70
     8
 71
     5
 72
    21
 73
    15
 74
     0
 42
0.0
 43
0.0
 40
0.0
 40
0.0
 40
0.0
 40
0.0
 40
0.0
 40
0.0
 40
2.0613539814861279
 40
2.0613539814861279
 40
2.0613539814861279
 40
6.3215716059831362
 40
6.3215716059831362
 40
6.3215716059831362
 40
8.4742770265531213
 40
8.4742770265531213
 40
8.4742770265531213
 40
10.629470354909778
 40
10.629470354909778
 40
10.629470354909778
 40
10.629470354909778
 40
10.629470354909778
 40
10.629470354909778
 10
8.2171987181673867
 20
4.1964046302476854
 30
0.0
 10
8.2126422771854113
 20
4.2013130100138936
 30
0.0
 10
8.2082329713197417
 20
4.2065254747799816
 30
0.0
 10
8.203982362211983
 20
4.2120177590139338
 30
0.0
 10
8.1915014632185947
 20
4.229576283752662
 30
0.0
 10
8.1806405514617282
 20
4.2493805115447643
 30
0.0
 10
8.1741392524497059
 20
4.2635804915857509
 30
0.0
 10
8.1657924915522031
 20
4.2858538454572432
 30
0.0
 10
8.1597777238926437
 20
4.3087693181896292
 30
0.0
 10
8.1580253603000568
 20
4.316511501421922
 30
0.0
 10
8.1550583740419018
 20
4.3320864606064307
 30
0.0
 10
8.153202043792227
 20
4.3477245485522289
 30
0.0
 10
8.15255800054919
 20
4.3555486156464642
 30
0.0
 10
8.1522075094764137
 20
4.3633237865253021
 30
0.0
 10
8.1521558099726636
 20
4.3710316385632755
 30
0.0
  0
ELLIPSE
  5
2FB
100
AcDbEntity
  8
0
370
    35
390
0
 62
     7
 48
0.03937
100
AcDbEllipse
 10
8.257621
 20
4.312994
 30
0.0
 11
0.0495914476871804
 21
-0.1519930207065538
 31
0.0
210
0.0
220
0.0
230
1.0
 40
0.591463
 41
5.8364752028451541
 42
6.2755575065342599
  0
SPLINE
  5
2FC
100
AcDbEntity
  8
0
370
    35
390
0
 62
     7
 48
0.03937
100
AcDbSpline
210
0.0
220
0.0
230
1.0
 70
     8
 71
     5
 72
    24
 73
    18
 74
     0
 42
0.0
 43
0.0
 40
0.0
 40
0.0
 40
0.0
 40
0.0
 40
0.0
 40
0.0
 40
4.1852973487211962
 40
4.1852973487211962
 40
4.1852973487211962
 40
7.0897166860685061
 40
7.0897166860685061
 40
7.0897166860685061
 40
10.084166784956905
 40
10.084166784956905
 40
10.084166784956905
 40
11.59673160090499
 40
11.59673160090499
 40
11.59673160090499
 40
14.652047613534091
 40
14.652047613534091
 40
14.652047613534091
 40
14.652047613534091
 40
14.652047613534091
 40
14.652047613534091
 10
8.312708107827893
 20
4.1779761408567335
 30
0.0
 10
8.3023154102506762
 20
4.1816678154420091
 30
0.0
 10
8.2919222257208585
 20
4.1872622329808102
 30
0.0
 10
8.2817138652977267
 20
4.1946252957947676
 30
0.0
 10
8.2651489656908605
 20
4.2097353454711399
 30
0.0
 10
8.2503735410126424
 20
4.2283430589332927
 30
0.0
 10
8.244632461786658
 20
4.2365059138439802
 30
0.0
 10
8.2337050203597553
 20
4.2539932130078597
 30
0.0
 10
8.2242979900129036
 20
4.2732331137803534
 30
0.0
 10
8.2199486383089315
 20
4.2833996817901081
 30
0.0
 10
8.2141538114082238
 20
4.2990224732236744
 30
0.0
 10
8.2094992628623817
 20
4.3150053252000555
 30
0.0
 10
8.2080672708401661
 20
4.3204020597346169
 30
0.0
 10
8.2041414857672983
 20
4.3367650755197724
 30
0.0
 10
8.2014212708056657
 20
4.3533451708351265
 30
0.0
 10
8.2001605221482077
 20
4.3644894431931034
 30
0.0
 10
8.1994866903262942
 20
4.3755520218460981
 30
0.0
 10
8.1994133983761053
 20
4.3864790804309308
 30
0.0
  0
SPLINE
  5
2FD
100
AcDbEntity
  8
0
370
    35
390
0
 62
     7
 48
0.03937
100
AcDbSpline
210
0.0
220
0.0
230
1.0
 70
     8
 71
     5
 72
    18
 73
    12
 74
     0
 42
0.0
 43
0.0
 40
0.0
 40
0.0
 40
0.0
 40
0.0
 40
0.0
 40
0.0
 40
4.3047565430803223
 40
4.3047565430803223
 40
4.3047565430803223
 40
7.2731366076426571
 40
7.2731366076426571
 40
7.2731366076426571
 40
7.2953959258817083
 40
7.2953959258817083
 40
7.2953959258817083
 40
7.2953959258817083
 40
7.2953959258817083
 40
7.2953959258817083
 10
8.2343172329191514
 20
4.4969592468544448
 30
0.0
 10
8.2260284946598414
 20
4.4879299376383397
 30
0.0
 10
8.2187992347418461
 20
4.4771632933005741
 30
0.0
 10
8.2128841042440701
 20
4.4649596811506669
 30
0.0
 10
8.2051200760035741
 20
4.4427405160982447
 30
0.0
 10
8.2009733565181886
 20
4.418294338381223
 30
0.0
 10
8.1998698698869052
 20
4.4079719550957783
 30
0.0
 10
8.1993530021962737
 20
4.3974107201470831
 30
0.0
 10
8.1994118921166148
 20
4.3867178840864662
 30
0.0
 10
8.1994123623233488
 20
4.3866382900735381
 30
0.0
 10
8.1994128644120767
 20
4.3865586888489956
 30
0.0
 10
8.1994133983761035
 20
4.3864790804309308
 30
0.0
  0
POLYLINE
  5
2FE
100
AcDbEntity
  8
0
370
    35
390
0
 62
     7
 48
0.03937
100
AcDb2dPolyline
 66
     1
 10
0.0
 20
0.0
 30
0.0
 71
     2
  0
VERTEX
  5
2FF
100
AcDbEntity
  8
0
370
     0
390
0
100
AcDbVertex
100
AcDb2dVertex
 10
8.312016
 20
4.179104
 30
0.0
 42
0.057061
  0
VERTEX
  5
300
100
AcDbEntity
  8
0
370
     0
390
0
100
AcDbVertex
100
AcDb2dVertex
 10
8.328929
 20
4.174667
 30
0.0
  0
SEQEND
  5
301
100
AcDbEntity
  8
0
370
     0
390
0
  0
SPLINE
  5
302
100
AcDbEntity
  8
0
370
    35
390
0
 62
     7
 48
0.03937
100
AcDbSpline
210
0.0
220
0.0
230
1.0
 70
     8
 71
     5
 72
    15
 73
     9
 74
     0
 42
0.0
 43
0.0
 40
0.0
 40
0.0
 40
0.0
 40
0.0
 40
0.0
 40
0.0
 40
6.2551546011021211
 40
6.2551546011021211
 40
6.2551546011021211
 40
10.536716413695569
 40
10.536716413695569
 40
10.536716413695569
 40
10.536716413695569
 40
10.536716413695569
 40
10.536716413695569
 10
8.180995026855566
 20
4.1673113797688783
 30
0.0
 10
8.1623836270939609
 20
4.1880479010471463
 30
0.0
 10
8.1461685548538192
 20
4.2127106959970497
 30
0.0
 10
8.1327926514604219
 20
4.2398206304439805
 30
0.0
 10
8.1152881764021814
 20
4.2880367787613114
 30
0.0
 10
8.106993027883334
 20
4.3384079824216304
 30
0.0
 10
8.105229375944683
 20
4.3589873366398404
 30
0.0
 10
8.1051995252905407
 20
4.3793669696716888
 30
0.0
 10
8.1070358355250889
 20
4.3991625620928021
 30
0.0
  0
POLYLINE
  5
303
100
AcDbEntity
  8
0
370
    35
390
0
 62
     7
 48
0.03937
100
AcDb2dPolyline
 66
     1
 10
0.0
 20
0.0
 30
0.0
 71
     2
  0
VERTEX
  5
304
100
AcDbEntity
  8
0
370
     0
390
0
100
AcDbVertex
100
AcDb2dVertex
 10
8.312709
 20
4.17798
 30
0.0
 42
0.053732
  0
VERTEX
  5
305
100
AcDbEntity
  8
0
370
     0
390
0
100
AcDbVertex
100
AcDb2dVertex
 10
8.328403
 20
4.174164
 30
0.0
  0
SEQEND
  5
306
100
AcDbEntity
  8
0
370
     0
390
0
  0
SPLINE
  5
307
100
AcDbEntity
  8
0
370
    35
390
0
 62
     7
 48
0.03937
100
AcDbSpline
210
0.0
220
0.0
230
1.0
 70
     8
 71
     5
 72
    15
 73
     9
 74
     0
 42
0.0
 43
0.0
 40
0.0
 40
0.0
 40
0.0
 40
0.0
 40
0.0
 40
0.0
 40
5.9139032400417646
 40
5.9139032400417646
 40
5.9139032400417646
 40
9.94955905793908
 40
9.94955905793908
 40
9.94955905793908
 40
9.94955905793908
 40
9.94955905793908
 40
9.94955905793908
 10
8.272884506292332
 20
4.2049300419359863
 30
0.0
 10
8.25580297130705
 20
4.2253373544116357
 30
0.0
 10
8.2409343239935424
 20
4.2490281844236817
 30
0.0
 10
8.2286119898169598
 20
4.2748102149267533
 30
0.0
 10
8.2123860769638828
 20
4.3204148931383122
 30
0.0
 10
8.2043740585688774
 20
4.3679342100452265
 30
0.0
 10
8.2025482005906465
 20
4.3873176962798119
 30
0.0
 10
8.2022502229125802
 20
4.4065524940841945
 30
0.0
 10
8.2035904405120448
 20
4.4253271398045824
 30
0.0
  0
ELLIPSE
  5
308
100
AcDbEntity
  8
0
370
    35
390
0
 62
     7
 48
0.03937
100
AcDbEllipse
 10
8.327836
 20
4.339796
 30
0.0
 11
0.0568225529722358
 21
-0.1806610213782265
 31
0.0
210
0.0
220
0.0
230
1.0
 40
0.62982
 41
3.4971606976424834
 42
4.0940882042353293
  0
POLYLINE
  5
309
100
AcDbEntity
  8
0
370
    35
390
0
 62
     7
 48
0.03937
100
AcDb2dPolyline
 66
     1
 10
0.0
 20
0.0
 30
0.0
 71
     2
  0
VERTEX
  5
30A
100
AcDbEntity
  8
0
370
     0
390
0
100
AcDbVertex
100
AcDb2dVertex
 10
8.202177
 20
4.415355
 30
0.0
 42
0.03076
  0
VERTEX
  5
30B
100
AcDbEntity
  8
0
370
     0
390
0
100
AcDbVertex
100
AcDb2dVertex
 10
8.200663
 20
4.386887
 30
0.0
  0
SEQEND
  5
30C
100
AcDbEntity
  8
0
370
     0
390
0
  0
ELLIPSE
  5
30D
100
AcDbEntity
  8
0
370
    35
390
0
 62
     7
 48
0.03937
100
AcDbEllipse
 10
8.306078
 20
4.332985
 30
0.0
 11
0.04925330187094
 21
-0.1562884579857904
 31
0.0
210
0.0
220
0.0
230
1.0
 40
0.586891
 41
5.39215284277042
 42
5.8474492134550768
  0
SPLINE
  5
30E
100
AcDbEntity
  8
0
370
    35
390
0
 62
     7
 48
0.03937
100
AcDbSpline
210
0.0
220
0.0
230
1.0
 70
     8
 71
     5
 72
    21
 73
    15
 74
     0
 42
0.0
 43
0.0
 40
0.0
 40
0.0
 40
0.0
 40
0.0
 40
0.0
 40
0.0
 40
2.0613526099613453
 40
2.0613526099613453
 40
2.0613526099613453
 40
6.3215698649335792
 40
6.3215698649335792
 40
6.3215698649335792
 40
8.4742742924679177
 40
8.4742742924679177
 40
8.4742742924679177
 40
10.629466276046536
 40
10.629466276046536
 40
10.629466276046536
 40
10.629466276046536
 40
10.629466276046536
 40
10.629466276046536
 10
8.2657034273593126
 20
4.2122597386590312
 30
0.0
 10
8.2611469905634518
 20
4.2171681148243643
 30
0.0
 10
8.2567376884216799
 20
4.222380575594519
 30
0.0
 10
8.252487082103114
 20
4.2278728562328753
 30
0.0
 10
8.2400061881642142
 20
4.2454313717463785
 30
0.0
 10
8.2291452728437573
 20
4.2652355998717191
 30
0.0
 10
8.2226439637311302
 20
4.2794355963643342
 30
0.0
 10
8.2142971948195722
 20
4.3017089789886542
 30
0.0
 10
8.2082824297102395
 20
4.3246244543260595
 30
0.0
 10
8.2065300681822571
 20
4.332366632685873
 30
0.0
 10
8.2035630851351033
 20
4.3479415832342214
 30
0.0
 10
8.2017067569709212
 20
4.3635796625006442
 30
0.0
 10
8.2010627145018073
 20
4.3714037246246855
 30
0.0
 10
8.2007122238339605
 20
4.3791788906134634
 30
0.0
 10
8.2006605243623998
 20
4.3868867378426977
 30
0.0
  0
SPLINE
  5
30F
100
AcDbEntity
  8
0
370
    35
390
0
 62
     7
 48
0.03937
100
AcDbSpline
210
0.0
220
0.0
230
1.0
 70
     8
 71
     5
 72
    24
 73
    18
 74
     0
 42
0.0
 43
0.0
 40
0.0
 40
0.0
 40
0.0
 40
0.0
 40
0.0
 40
0.0
 40
4.1852980325542486
 40
4.1852980325542486
 40
4.1852980325542486
 40
7.089718360315322
 40
7.089718360315322
 40
7.089718360315322
 40
10.084169569155508
 40
10.084169569155508
 40
10.084169569155508
 40
11.596735060961452
 40
11.596735060961452
 40
11.596735060961452
 40
14.652053014665778
 40
14.652053014665778
 40
14.652053014665778
 40
14.652053014665778
 40
14.652053014665778
 40
14.652053014665778
 10
8.264203393438164
 20
4.1621210415773131
 30
0.0
 10
8.2538106941647396
 20
4.1658127167660792
 30
0.0
 10
8.243417507624363
 20
4.1714071352616999
 30
0.0
 10
8.233209156778857
 20
4.1787701945712445
 30
0.0
 10
8.2166442774219366
 20
4.1938802190653499
 30
0.0
 10
8.201868851387756
 20
4.2124879261185013
 30
0.0
 10
8.1961277645221813
 20
4.2206507897192456
 30
0.0
 10
8.1852003206632329
 20
4.2381380895801604
 30
0.0
 10
8.1757932915005913
 20
4.2573779831893228
 30
0.0
 10
8.1714439403823462
 20
4.2675445459510017
 30
0.0
 10
8.165649112148051
 20
4.2831673328091044
 30
0.0
 10
8.1609945603183824
 20
4.2991501860651082
 30
0.0
 10
8.1595625669410747
 20
4.30454692209657
 30
0.0
 10
8.1556367772706775
 20
4.3209099460303033
 30
0.0
 10
8.1529165589126578
 20
4.3374900503912137
 30
0.0
 10
8.1516558086114514
 20
4.3486343298536427
 30
0.0
 10
8.1509819759838624
 20
4.3596969156252099
 30
0.0
 10
8.1509086839863123
 20
4.3706239811514891
 30
0.0
  0
SPLINE
  5
310
100
AcDbEntity
  8
0
370
    35
390
0
 62
     7
 48
0.03937
100
AcDbSpline
210
0.0
220
0.0
230
1.0
 70
     8
 71
     5
 72
    21
 73
    15
 74
     0
 42
0.0
 43
0.0
 40
0.0
 40
0.0
 40
0.0
 40
0.0
 40
0.0
 40
0.0
 40
2.9098121965072901
 40
2.9098121965072901
 40
2.9098121965072901
 40
6.9105404448707795
 40
6.9105404448707795
 40
6.9105404448707795
 40
8.9676873267596431
 40
8.9676873267596431
 40
8.9676873267596431
 40
10.041580059650887
 40
10.041580059650887
 40
10.041580059650887
 40
10.041580059650887
 40
10.041580059650887
 40
10.041580059650887
 10
8.2163283327714591
 20
4.502472799994103
 30
0.0
 10
8.2090865876915089
 20
4.4996167104991525
 30
0.0
 10
8.202208359287555
 20
4.4958319892303304
 30
0.0
 10
8.19574649231809
 20
4.4911544647718076
 30
0.0
 10
8.1815276018179262
 20
4.4780985609536197
 30
0.0
 10
8.1700911892129362
 20
4.4606338063761504
 30
0.0
 10
8.1646026303602
 20
4.4492990152829126
 30
0.0
 10
8.1580211567509977
 20
4.4308706733908103
 30
0.0
 10
8.1539619758816944
 20
4.4108786211831283
 30
0.0
 10
8.1528643493142656
 20
4.4038944734800145
 30
0.0
 10
8.1516353057666127
 20
4.3931130161115091
 30
0.0
 10
8.1510548156012277
 20
4.382093748952931
 30
0.0
 10
8.1509313533774534
 20
4.3782885963966809
 30
0.0
 10
8.1508829230852413
 20
4.3744646603993793
 30
0.0
 10
8.1509086839863123
 20
4.3706239811514891
 30
0.0
  0
SPLINE
  5
311
100
AcDbEntity
  8
0
370
    35
390
0
 62
     7
 48
0.03937
100
AcDbSpline
210
0.0
220
0.0
230
1.0
 70
     8
 71
     5
 72
    24
 73
    18
 74
     0
 42
0.0
 43
0.0
 40
0.0
 40
0.0
 40
0.0
 40
0.0
 40
0.0
 40
0.0
 40
3.8749244251613901
 40
3.8749244251613901
 40
3.8749244251613901
 40
5.2061459311162004
 40
5.2061459311162004
 40
5.2061459311162004
 40
9.3116271704170828
 40
9.3116271704170828
 40
9.3116271704170828
 40
10.694221261300623
 40
10.694221261300623
 40
10.694221261300623
 40
13.482265072794833
 40
13.482265072794833
 40
13.482265072794833
 40
13.482265072794833
 40
13.482265072794833
 40
13.482265072794833
 10
8.3466423597736839
 20
4.2004939975923516
 30
0.0
 10
8.3370874186475241
 20
4.2058375467111171
 30
0.0
 10
8.3276593551558875
 20
4.2127138802848352
 30
0.0
 10
8.3185805943194531
 20
4.2209649822719424
 30
0.0
 10
8.3070850003646761
 20
4.2335177199110312
 30
0.0
 10
8.2966465917193499
 20
4.2477384194156622
 30
0.0
 10
8.2940469703185169
 20
4.2514800595571973
 30
0.0
 10
8.2837216701931933
 20
4.2671723114084434
 30
0.0
 10
8.27460275226065
 20
4.2845075281725
 30
0.0
 10
8.2685199778814802
 20
4.2983345860987274
 30
0.0
 10
8.2615995472468242
 20
4.3174623463223547
 30
0.0
 10
8.2563900180489664
 20
4.3370275386672548
 30
0.0
 10
8.2551871028255661
 20
4.3419788342939194
 30
0.0
 10
8.2518898323161949
 20
4.356978239188523
 30
0.0
 10
8.249608406604132
 20
4.3721227339454707
 30
0.0
 10
8.2485519414821376
 20
4.3822789646285809
 30
0.0
 10
8.2479849933007472
 20
4.3923629957355139
 30
0.0
 10
8.247918112765813
 20
4.4023341797103432
 30
0.0
  0
ELLIPSE
  5
312
100
AcDbEntity
  8
0
370
    35
390
0
 62
     7
 48
0.03937
100
AcDbEllipse
 10
8.372135
 20
4.357793
 30
0.0
 11
0.0534292807872771
 21
-0.1780558241908336
 31
0.0
210
0.0
220
0.0
230
1.0
 40
0.629832
 41
3.7770762174463401
 42
4.277249507083285
  0
ELLIPSE
  5
313
100
AcDbEntity
  8
0
370
    35
390
0
 62
     7
 48
0.03937
100
AcDbEllipse
 10
8.256425
 20
4.312378
 30
0.0
 11
0.0495499152905574
 21
-0.1517815528547971
 31
0.0
210
0.0
220
0.0
230
1.0
 40
0.591866
 41
5.8550327256015784
 42
6.2834085024632262
  0
SPLINE
  5
314
100
AcDbEntity
  8
0
370
    35
390
0
 62
     7
 48
0.03937
100
AcDbSpline
210
0.0
220
0.0
230
1.0
 70
     8
 71
     5
 72
    15
 73
     9
 74
     0
 42
0.0
 43
0.0
 40
0.0
 40
0.0
 40
0.0
 40
0.0
 40
0.0
 40
0.0
 40
2.4264113821585993
 40
2.4264113821585993
 40
2.4264113821585993
 40
6.1782030440414388
 40
6.1782030440414388
 40
6.1782030440414388
 40
6.1782030440414388
 40
6.1782030440414388
 40
6.1782030440414388
 10
8.3059944703441584
 20
4.1606031862988688
 30
0.0
 10
8.3114189350147463
 20
4.162376322444894
 30
0.0
 10
8.3166037294173005
 20
4.1648369630324007
 30
0.0
 10
8.3214929263782391
 20
4.167960758777645
 30
0.0
 10
8.3331095099439185
 20
4.1774628214640046
 30
0.0
 10
8.3425806889758327
 20
4.1908412348412902
 30
0.0
 10
8.3474071640428757
 20
4.2002485579688882
 30
0.0
 10
8.3512209008279221
 20
4.2106712280690441
 30
0.0
 10
8.3540280256775521
 20
4.2218138369822071
 30
0.0
  0
SPLINE
  5
315
100
AcDbEntity
  8
0
370
    35
390
0
 62
     7
 48
0.03937
100
AcDbSpline
210
0.0
220
0.0
230
1.0
 70
     8
 71
     5
 72
    15
 73
     9
 74
     0
 42
0.0
 43
0.0
 40
0.0
 40
0.0
 40
0.0
 40
0.0
 40
0.0
 40
0.0
 40
5.9139033461588584
 40
5.9139033461588584
 40
5.9139033461588584
 40
9.9495578408952028
 40
9.9495578408952028
 40
9.9495578408952028
 40
9.9495578408952028
 40
9.9495578408952028
 40
9.9495578408952028
 10
8.3213892340148359
 20
4.220785124464439
 30
0.0
 10
8.3043076889539975
 20
4.2411924456571688
 30
0.0
 10
8.2894390347016529
 20
4.264883288124163
 30
0.0
 10
8.2771166974765791
 20
4.2906653311545684
 30
0.0
 10
8.2608907856217666
 20
4.3362700171296176
 30
0.0
 10
8.2528787706793949
 20
4.3837893319957368
 30
0.0
 10
8.2510529146686888
 20
4.4031728092786064
 30
0.0
 10
8.250754937852701
 20
4.4224076008734095
 30
0.0
 10
8.2520951548960344
 20
4.4411822401964889
 30
0.0
  0
POLYLINE
  5
316
100
AcDbEntity
  8
0
370
    35
390
0
 62
     7
 48
0.03937
100
AcDb2dPolyline
 66
     1
 10
0.0
 20
0.0
 30
0.0
 71
     2
  0
VERTEX
  5
317
100
AcDbEntity
  8
0
370
     0
390
0
100
AcDbVertex
100
AcDb2dVertex
 10
8.263356
 20
4.480537
 30
0.0
 42
0.072515
  0
VERTEX
  5
318
100
AcDbEntity
  8
0
370
     0
390
0
100
AcDbVertex
100
AcDb2dVertex
 10
8.250713
 20
4.431206
 30
0.0
  0
SEQEND
  5
319
100
AcDbEntity
  8
0
370
     0
390
0
  0
POLYLINE
  5
31A
100
AcDbEntity
  8
0
370
    35
390
0
 62
     7
 48
0.03937
100
AcDb2dPolyline
 66
     1
 10
0.0
 20
0.0
 30
0.0
 71
     2
  0
VERTEX
  5
31B
100
AcDbEntity
  8
0
370
     0
390
0
100
AcDbVertex
100
AcDb2dVertex
 10
8.250682
 20
4.43121
 30
0.0
 42
0.03076
  0
VERTEX
  5
31C
100
AcDbEntity
  8
0
370
     0
390
0
100
AcDbVertex
100
AcDb2dVertex
 10
8.249168
 20
4.402742
 30
0.0
  0
SEQEND
  5
31D
100
AcDbEntity
  8
0
370
     0
390
0
  0
POLYLINE
  5
31E
100
AcDbEntity
  8
0
370
    35
390
0
 62
     7
 48
0.03937
100
AcDb2dPolyline
 66
     1
 10
0.0
 20
0.0
 30
0.0
 71
     2
  0
VERTEX
  5
31F
100
AcDbEntity
  8
0
370
     0
390
0
100
AcDbVertex
100
AcDb2dVertex
 10
8.31423
 20
4.228135
 30
0.0
 42
0.075533
  0
VERTEX
  5
320
100
AcDbEntity
  8
0
370
     0
390
0
100
AcDbVertex
100
AcDb2dVertex
 10
8.347028
 20
4.201355
 30
0.0
  0
SEQEND
  5
321
100
AcDbEntity
  8
0
370
     0
390
0
  0
SPLINE
  5
322
100
AcDbEntity
  8
0
370
    35
390
0
 62
     7
 48
0.03937
100
AcDbSpline
210
0.0
220
0.0
230
1.0
 70
     8
 71
     5
 72
    21
 73
    15
 74
     0
 42
0.0
 43
0.0
 40
0.0
 40
0.0
 40
0.0
 40
0.0
 40
0.0
 40
0.0
 40
2.0613537956020833
 40
2.0613537956020833
 40
2.0613537956020833
 40
6.3215705626923508
 40
6.3215705626923508
 40
6.3215705626923508
 40
8.474275379994344
 40
8.474275379994344
 40
8.474275379994344
 40
10.629467770599357
 40
10.629467770599357
 40
10.629467770599357
 40
10.629467770599357
 40
10.629467770599357
 40
10.629467770599357
 10
8.3142081480960357
 20
4.2281148264686106
 30
0.0
 10
8.3096517024857288
 20
4.2330232109708517
 30
0.0
 10
8.3052423934990927
 20
4.238235679836273
 30
0.0
 10
8.3009917835010238
 20
4.2437279661176861
 30
0.0
 10
8.2885108840269552
 20
4.2612864941975452
 30
0.0
 10
8.2776499724616865
 20
4.2810907260117181
 30
0.0
 10
8.2711486737032587
 20
4.2952907089246466
 30
0.0
 10
8.262801914018219
 20
4.31756406607348
 30
0.0
 10
8.2567871483318438
 20
4.3404795377626391
 30
0.0
 10
8.2550347855344199
 20
4.3482217195985147
 30
0.0
 10
8.2520678009059196
 20
4.3637966744474417
 30
0.0
 10
8.2502114718040804
 20
4.3794347572274193
 30
0.0
 10
8.2495674290324228
 20
4.3872588209692429
 30
0.0
 10
8.2492169382341061
 20
4.3950339884382714
 30
0.0
 10
8.2491652387521714
 20
4.4027418371221323
 30
0.0
  0
SPLINE
  5
323
100
AcDbEntity
  8
0
370
    35
390
0
 62
     7
 48
0.03937
100
AcDbSpline
210
0.0
220
0.0
230
1.0
 70
     8
 71
     5
 72
    21
 73
    15
 74
     0
 42
0.0
 43
0.0
 40
0.0
 40
0.0
 40
0.0
 40
0.0
 40
0.0
 40
0.0
 40
1.959892432459442
 40
1.959892432459442
 40
1.959892432459442
 40
5.9996310989497079
 40
5.9996310989497079
 40
5.9996310989497079
 40
8.0336433125567979
 40
8.0336433125567979
 40
8.0336433125567979
 40
10.068636998428516
 40
10.068636998428516
 40
10.068636998428516
 40
10.068636998428516
 40
10.068636998428516
 40
10.068636998428516
 10
8.3553951363605119
 20
4.2504403273284748
 30
0.0
 10
8.3512248430785174
 20
4.2554035366908973
 30
0.0
 10
8.3471987225010249
 20
4.2606180349769538
 30
0.0
 10
8.3433227333966027
 20
4.2660650381767242
 30
0.0
 10
8.3319323170256627
 20
4.2834050601759559
 30
0.0
 10
8.3220311888324225
 20
4.302709040936656
 30
0.0
 10
8.3161592569696925
 20
4.316390169254877
 30
0.0
 10
8.3086599165946904
 20
4.3376168360558669
 30
0.0
 10
8.3032610150870472
 20
4.3593538868792523
 30
0.0
 10
8.3016864389383667
 20
4.3666961912264339
 30
0.0
 10
8.2990276355442827
 20
4.381423089434227
 30
0.0
 10
8.2973641774016542
 20
4.3961905183826584
 30
0.0
 10
8.2967868725653489
 20
4.4035732212011656
 30
0.0
 10
8.2964716432701717
 20
4.4109113099885855
 30
0.0
 10
8.2964228271555189
 20
4.4181892789897566
 30
0.0
  0
POLYLINE
  5
324
100
AcDbEntity
  8
0
370
    35
390
0
 62
     7
 48
0.03937
100
AcDb2dPolyline
 66
     1
 10
0.0
 20
0.0
 30
0.0
 71
     2
  0
VERTEX
  5
325
100
AcDbEntity
  8
0
370
     0
390
0
100
AcDbVertex
100
AcDb2dVertex
 10
8.297361
 20
4.441066
 30
0.0
 42
0.024325
  0
VERTEX
  5
326
100
AcDbEntity
  8
0
370
     0
390
0
100
AcDbVertex
100
AcDb2dVertex
 10
8.296424
 20
4.418189
 30
0.0
  0
SEQEND
  5
327
100
AcDbEntity
  8
0
370
     0
390
0
  0
SPLINE
  5
328
100
AcDbEntity
  8
0
370
    35
390
0
 62
     7
 48
0.03937
100
AcDbSpline
210
0.0
220
0.0
230
1.0
 70
     8
 71
     5
 72
    15
 73
     9
 74
     0
 42
0.0
 43
0.0
 40
0.0
 40
0.0
 40
0.0
 40
0.0
 40
0.0
 40
0.0
 40
6.4237187352437282
 40
6.4237187352437282
 40
6.4237187352437282
 40
8.042859152379398
 40
8.042859152379398
 40
8.042859152379398
 40
8.042859152379398
 40
8.042859152379398
 40
8.042859152379398
 10
8.3553307742542486
 20
4.255894034819506
 30
0.0
 10
8.3385677767645028
 20
4.2803688529322423
 30
0.0
 10
8.3246152588352977
 20
4.307990747575472
 30
0.0
 10
8.3137756153222746
 20
4.3374639623771154
 30
0.0
 10
8.3043441380226177
 20
4.3756630522411344
 30
0.0
 10
8.3006654697009612
 20
4.4140570322396648
 30
0.0
 10
8.3001632374533436
 20
4.4217923702717004
 30
0.0
 10
8.2999077479481471
 20
4.4294898511173244
 30
0.0
 10
8.2999048752514604
 20
4.4371443574390259
 30
0.0
  0
POLYLINE
  5
329
100
AcDbEntity
  8
0
370
    35
390
0
 62
     7
 48
0.03937
100
AcDb2dPolyline
 66
     1
 10
0.0
 20
0.0
 30
0.0
 71
     2
  0
VERTEX
  5
32A
100
AcDbEntity
  8
0
370
     0
390
0
100
AcDbVertex
100
AcDb2dVertex
 10
8.298432
 20
4.43943
 30
0.0
 42
0.022021
  0
VERTEX
  5
32B
100
AcDbEntity
  8
0
370
     0
390
0
100
AcDbVertex
100
AcDb2dVertex
 10
8.297671
 20
4.418597
 30
0.0
  0
SEQEND
  5
32C
100
AcDbEntity
  8
0
370
     0
390
0
  0
SPLINE
  5
32D
100
AcDbEntity
  8
0
370
    35
390
0
 62
     7
 48
0.03937
100
AcDbSpline
210
0.0
220
0.0
230
1.0
 70
     8
 71
     5
 72
    18
 73
    12
 74
     0
 42
0.0
 43
0.0
 40
0.0
 40
0.0
 40
0.0
 40
0.0
 40
0.0
 40
0.0
 40
1.9385121387845141
 40
1.9385121387845141
 40
1.9385121387845141
 40
6.9448138624298421
 40
6.9448138624298421
 40
6.9448138624298421
 40
9.9610310391492725
 40
9.9610310391492725
 40
9.9610310391492725
 40
9.9610310391492725
 40
9.9610310391492725
 40
9.9610310391492725
 10
8.3553837169460508
 20
4.2523605964322932
 30
0.0
 10
8.3512908648360611
 20
4.2573330494012209
 30
0.0
 10
8.347341419225458
 20
4.2625471133222304
 30
0.0
 10
8.3435414431838506
 20
4.2679841893122479
 30
0.0
 10
8.330480899439026
 20
4.288205428163141
 30
0.0
 10
8.3194352939520684
 20
4.311010847652196
 30
0.0
 10
8.3127769837428982
 20
4.328341075004638
 30
0.0
 10
8.3043313401411414
 20
4.3568445383109475
 30
0.0
 10
8.299622023047931
 20
4.3859494252870439
 30
0.0
 10
8.2983998838097133
 20
4.3968906332185043
 30
0.0
 10
8.2977423071754277
 20
4.4078097112311543
 30
0.0
 10
8.2976699531418134
 20
4.4185969364015243
 30
0.0
  0
SPLINE
  5
32E
100
AcDbEntity
  8
0
370
    35
390
0
 62
     7
 48
0.03937
100
AcDbSpline
210
0.0
220
0.0
230
1.0
 70
     8
 71
     5
 72
    15
 73
     9
 74
     0
 42
0.0
 43
0.0
 40
0.0
 40
0.0
 40
0.0
 40
0.0
 40
0.0
 40
0.0
 40
6.1921836107842099
 40
6.1921836107842099
 40
6.1921836107842099
 40
8.9240362204816996
 40
8.9240362204816996
 40
8.9240362204816996
 40
8.9240362204816996
 40
8.9240362204816996
 40
8.9240362204816996
 10
8.1585787607056819
 20
5.6588213944162815
 30
0.0
 10
8.1407116104439865
 20
5.680215888120129
 30
0.0
 10
8.125272915394337
 20
5.705202185360716
 30
0.0
 10
8.1126408352796702
 20
5.7324178306208049
 30
0.0
 10
8.0986905032585526
 20
5.7736215674532279
 30
0.0
 10
8.0914287382315866
 20
5.8161315132357041
 30
0.0
 10
8.0898565146719132
 20
5.8291989465665282
 30
0.0
 10
8.0889641759038824
 20
5.8422476787428952
 30
0.0
 10
8.0887849588782892
 20
5.8551903472894233
 30
0.0
  0
SPLINE
  5
32F
100
AcDbEntity
  8
0
370
    35
390
0
 62
     7
 48
0.03937
100
AcDbSpline
210
0.0
220
0.0
230
1.0
 70
     8
 71
     5
 72
    18
 73
    12
 74
     0
 42
0.0
 43
0.0
 40
0.0
 40
0.0
 40
0.0
 40
0.0
 40
0.0
 40
0.0
 40
5.407531820027403
 40
5.407531820027403
 40
5.407531820027403
 40
7.5564288683869734
 40
7.5564288683869734
 40
7.5564288683869734
 40
10.70483179119746
 40
10.70483179119746
 40
10.70483179119746
 40
10.70483179119746
 40
10.70483179119746
 40
10.70483179119746
 10
8.0865164426068059
 20
5.8421007703775869
 30
0.0
 10
8.0865274492955628
 20
5.8227886346249713
 30
0.0
 10
8.0884241632304796
 20
5.8030306397719453
 30
0.0
 10
8.0921108277324496
 20
5.7832154289534143
 30
0.0
 10
8.0996418712619001
 20
5.7560777700268337
 30
0.0
 10
8.1101032463865099
 20
5.7306706569642927
 30
0.0
 10
8.1133242634736149
 20
5.7235643034421555
 30
0.0
 10
8.1218113407751549
 20
5.7065051968229366
 30
0.0
 10
8.1316612396697323
 20
5.6906056636782534
 30
0.0
 10
8.1379550459143761
 20
5.6816882360470915
 30
0.0
 10
8.1446152003961796
 20
5.6734376655512504
 30
0.0
 10
8.1515636634263178
 20
5.6659522999710275
 30
0.0
  0
ELLIPSE
  5
330
100
AcDbEntity
  8
0
370
    35
390
0
 62
     7
 48
0.03937
100
AcDbEllipse
 10
8.191947
 20
5.786654
 30
0.0
 11
0.049249621652538
 21
-0.1562655079257536
 31
0.0
210
0.0
220
0.0
230
1.0
 40
0.586953
 41
5.3920552507614152
 42
5.8567358594202634
  0
ELLIPSE
  5
331
100
AcDbEntity
  8
0
370
    35
390
0
 62
     7
 48
0.03937
100
AcDbEllipse
 10
8.191958
 20
5.782689
 30
0.0
 11
0.0496112799332416
 21
-0.1521448514602672
 31
0.0
210
0.0
220
0.0
230
1.0
 40
0.591195
 41
5.8462615929555879
 42
6.2762283552781604
  0
POLYLINE
  5
332
100
AcDbEntity
  8
0
370
    35
390
0
 62
     7
 48
0.03937
100
AcDb2dPolyline
 66
     1
 10
0.0
 20
0.0
 30
0.0
 71
     2
  0
VERTEX
  5
333
100
AcDbEntity
  8
0
370
     0
390
0
100
AcDbVertex
100
AcDb2dVertex
 10
8.041152
 20
5.865853
 30
0.0
 42
0.023818
  0
VERTEX
  5
334
100
AcDbEntity
  8
0
370
     0
390
0
100
AcDbVertex
100
AcDb2dVertex
 10
8.040282
 20
5.839335
 30
0.0
  0
SEQEND
  5
335
100
AcDbEntity
  8
0
370
     0
390
0
  0
POLYLINE
  5
336
100
AcDbEntity
  8
0
370
    35
390
0
 62
     7
 48
0.03937
100
AcDb2dPolyline
 66
     1
 10
0.0
 20
0.0
 30
0.0
 71
     2
  0
VERTEX
  5
337
100
AcDbEntity
  8
0
370
     0
390
0
100
AcDbVertex
100
AcDb2dVertex
 10
8.246106
 20
5.647877
 30
0.0
 42
0.053722
  0
VERTEX
  5
338
100
AcDbEntity
  8
0
370
     0
390
0
100
AcDbVertex
100
AcDb2dVertex
 10
8.261954
 20
5.64382
 30
0.0
  0
SEQEND
  5
339
100
AcDbEntity
  8
0
370
     0
390
0
  0
SPLINE
  5
33A
100
AcDbEntity
  8
0
370
    35
390
0
 62
     7
 48
0.03937
100
AcDbSpline
210
0.0
220
0.0
230
1.0
 70
     8
 71
     5
 72
    21
 73
    15
 74
     0
 42
0.0
 43
0.0
 40
0.0
 40
0.0
 40
0.0
 40
0.0
 40
0.0
 40
0.0
 40
5.9800653136799333
 40
5.9800653136799333
 40
5.9800653136799333
 40
10.394251343758734
 40
10.394251343758734
 40
10.394251343758734
 40
11.821714451228239
 40
11.821714451228239
 40
11.821714451228239
 40
14.517240036857942
 40
14.517240036857942
 40
14.517240036857942
 40
14.517240036857942
 40
14.517240036857942
 40
14.517240036857942
 10
8.133794475884546
 20
5.8544998522902318
 30
0.0
 10
8.1340689678498084
 20
5.8330838522270216
 30
0.0
 10
8.1366382737462946
 20
5.8111755287221287
 30
0.0
 10
8.1413701975081931
 20
5.7893732582698751
 30
0.0
 10
8.1530513445185679
 20
5.7526250865729462
 30
0.0
 10
8.170139885130169
 20
5.719511179830822
 30
0.0
 10
8.178364159587316
 20
5.7061720483666036
 30
0.0
 10
8.1903826510396307
 20
5.6900351547351491
 30
0.0
 10
8.20343206734087
 20
5.6764887723765964
 30
0.0
 10
8.2066794098131943
 20
5.6733387826594086
 30
0.0
 10
8.2161897140841909
 20
5.6647422600100574
 30
0.0
 10
8.2261088695135491
 20
5.6575922182134839
 30
0.0
 10
8.2327238272681615
 20
5.6535969789748108
 30
0.0
 10
8.2394112221398359
 20
5.6503426793306737
 30
0.0
 10
8.2461042843235859
 20
5.64787378774649
 30
0.0
  0
POLYLINE
  5
33B
100
AcDbEntity
  8
0
370
    35
390
0
 62
     7
 48
0.03937
100
AcDb2dPolyline
 66
     1
 10
0.0
 20
0.0
 30
0.0
 71
     2
  0
VERTEX
  5
33C
100
AcDbEntity
  8
0
370
     0
390
0
100
AcDbVertex
100
AcDb2dVertex
 10
8.089451
 20
5.879018
 30
0.0
 42
0.021266
  0
VERTEX
  5
33D
100
AcDbEntity
  8
0
370
     0
390
0
100
AcDbVertex
100
AcDb2dVertex
 10
8.088786
 20
5.85519
 30
0.0
  0
SEQEND
  5
33E
100
AcDbEntity
  8
0
370
     0
390
0
  0
POLYLINE
  5
33F
100
AcDbEntity
  8
0
370
    35
390
0
 62
     7
 48
0.03937
100
AcDb2dPolyline
 66
     1
 10
0.0
 20
0.0
 30
0.0
 71
     2
  0
VERTEX
  5
340
100
AcDbEntity
  8
0
370
     0
390
0
100
AcDbVertex
100
AcDb2dVertex
 10
8.088039
 20
5.869041
 30
0.0
 42
0.029224
  0
VERTEX
  5
341
100
AcDbEntity
  8
0
370
     0
390
0
100
AcDbVertex
100
AcDb2dVertex
 10
8.086519
 20
5.842101
 30
0.0
  0
SEQEND
  5
342
100
AcDbEntity
  8
0
370
     0
390
0
  0
SPLINE
  5
343
100
AcDbEntity
  8
0
370
    35
390
0
 62
     7
 48
0.03937
100
AcDbSpline
210
0.0
220
0.0
230
1.0
 70
     8
 71
     5
 72
    15
 73
     9
 74
     0
 42
0.0
 43
0.0
 40
0.0
 40
0.0
 40
0.0
 40
0.0
 40
0.0
 40
0.0
 40
6.4200349573095252
 40
6.4200349573095252
 40
6.4200349573095252
 40
7.0814933500799029
 40
7.0814933500799029
 40
7.0814933500799029
 40
7.0814933500799029
 40
7.0814933500799029
 40
7.0814933500799029
 10
8.0880407054558869
 20
5.8690407239595972
 30
0.0
 10
8.0906199411118376
 20
5.8910921588869529
 30
0.0
 10
8.0959569310834851
 20
5.911930696196924
 30
0.0
 10
8.1041821607792741
 20
5.9307635638928948
 30
0.0
 10
8.1163913256167373
 20
5.9480123590830738
 30
0.0
 10
8.1313881034870121
 20
5.9604481697877807
 30
0.0
 10
8.1328132284769641
 20
5.9615673947402845
 30
0.0
 10
8.1342608038862227
 20
5.9626425155574996
 30
0.0
 10
8.1357307233510969
 20
5.9636732968616428
 30
0.0
  0
SPLINE
  5
344
100
AcDbEntity
  8
0
370
    35
390
0
 62
     7
 48
0.03937
100
AcDbSpline
210
0.0
220
0.0
230
1.0
 70
     8
 71
     5
 72
    15
 73
     9
 74
     0
 42
0.0
 43
0.0
 40
0.0
 40
0.0
 40
0.0
 40
0.0
 40
0.0
 40
0.0
 40
6.3485147307192058
 40
6.3485147307192058
 40
6.3485147307192058
 40
9.1599957952070117
 40
9.1599957952070117
 40
9.1599957952070117
 40
9.1599957952070117
 40
9.1599957952070117
 40
9.1599957952070117
 10
8.1135223009731003
 20
5.6389326631111771
 30
0.0
 10
8.0948275475411631
 20
5.6602915955053774
 30
0.0
 10
8.0786314759997619
 20
5.6856006386025513
 30
0.0
 10
8.0653753752663722
 20
5.7133422624172612
 30
0.0
 10
8.050707647951894
 20
5.7555159567004281
 30
0.0
 10
8.0430632396827342
 20
5.7991336382413072
 30
0.0
 10
8.041404426437806
 20
5.8125830640671845
 30
0.0
 10
8.0404646853565431
 20
5.8260153245960984
 30
0.0
 10
8.0402802444885602
 20
5.8393352480100038
 30
0.0
  0
SPLINE
  5
345
100
AcDbEntity
  8
0
370
    35
390
0
 62
     7
 48
0.03937
100
AcDbSpline
210
0.0
220
0.0
230
1.0
 70
     8
 71
     5
 72
    18
 73
    12
 74
     0
 42
0.0
 43
0.0
 40
0.0
 40
0.0
 40
0.0
 40
0.0
 40
0.0
 40
0.0
 40
4.5276822801231056
 40
4.5276822801231056
 40
4.5276822801231056
 40
7.1373006144240305
 40
7.1373006144240305
 40
7.1373006144240305
 40
8.8029630798157559
 40
8.8029630798157559
 40
8.8029630798157559
 40
8.8029630798157559
 40
8.8029630798157559
 40
8.8029630798157559
 10
8.0852897614948169
 20
5.8386447530108114
 30
0.0
 10
8.0850819356318429
 20
5.8548594327762267
 30
0.0
 10
8.0861896031564768
 20
5.8707918860708252
 30
0.0
 10
8.0886755232413687
 20
5.8863017121876213
 30
0.0
 10
8.0949161896837118
 20
5.9093697661744313
 30
0.0
 10
8.1045743066570122
 20
5.9292515651016879
 30
0.0
 10
8.1085633916124866
 20
5.936059564591976
 30
0.0
 10
8.1158281177560951
 20
5.946350101480439
 30
0.0
 10
8.1242770896037158
 20
5.9550974609357192
 30
0.0
 10
8.1277520140766857
 20
5.95825991851867
 30
0.0
 10
8.1313771755282005
 20
5.9611372671298195
 30
0.0
 10
8.1351437063114389
 20
5.9637236736135728
 30
0.0
  0
SPLINE
  5
346
100
AcDbEntity
  8
0
370
    35
390
0
 62
     7
 48
0.03937
100
AcDbSpline
210
0.0
220
0.0
230
1.0
 70
     8
 71
     5
 72
    15
 73
     9
 74
     0
 42
0.0
 43
0.0
 40
0.0
 40
0.0
 40
0.0
 40
0.0
 40
0.0
 40
0.0
 40
4.6736011041076839
 40
4.6736011041076839
 40
4.6736011041076839
 40
6.5807275894007038
 40
6.5807275894007038
 40
6.5807275894007038
 40
6.5807275894007038
 40
6.5807275894007038
 40
6.5807275894007038
 10
8.133794475884546
 20
5.8544998522902318
 30
0.0
 10
8.1335799521658032
 20
5.8712371011872388
 30
0.0
 10
8.1347670791497197
 20
5.8876736382486055
 30
0.0
 10
8.1374255805711275
 20
5.9036475160085784
 30
0.0
 10
8.1433795441367618
 20
5.9247814062718689
 30
0.0
 10
8.1522262947987993
 20
5.9431413729209837
 30
0.0
 10
8.1550216726111984
 20
5.9481950474321925
 30
0.0
 10
8.158063028287172
 20
5.9529957956577464
 30
0.0
 10
8.1613452958527812
 20
5.9575129024809428
 30
0.0
  0
SPLINE
  5
347
100
AcDbEntity
  8
0
370
    35
390
0
 62
     7
 48
0.03937
100
AcDbSpline
210
0.0
220
0.0
230
1.0
 70
     8
 71
     5
 72
    15
 73
     9
 74
     0
 42
0.0
 43
0.0
 40
0.0
 40
0.0
 40
0.0
 40
0.0
 40
0.0
 40
0.0
 40
6.1921827313177742
 40
6.1921827313177742
 40
6.1921827313177742
 40
8.9240347340241115
 40
8.9240347340241115
 40
8.9240347340241115
 40
8.9240347340241115
 40
8.9240347340241115
 40
8.9240347340241115
 10
8.2070834787333453
 20
5.6746764906742735
 30
0.0
 10
8.1892163273622494
 20
5.696070984670409
 30
0.0
 10
8.173777629869436
 20
5.7210572833918185
 30
0.0
 10
8.1611455472062406
 20
5.7482729313578869
 30
0.0
 10
8.1471952147782982
 20
5.7894766718033557
 30
0.0
 10
8.1399334513783277
 20
5.8319866181538647
 30
0.0
 10
8.1383612284879217
 20
5.8450540504555617
 30
0.0
 10
8.1374688902555956
 20
5.8581027808996318
 30
0.0
 10
8.1372896732680182
 20
5.871045446568842
 30
0.0
  0
SPLINE
  5
348
100
AcDbEntity
  8
0
370
    35
390
0
 62
     7
 48
0.03937
100
AcDbSpline
210
0.0
220
0.0
230
1.0
 70
     8
 71
     5
 72
    18
 73
    12
 74
     0
 42
0.0
 43
0.0
 40
0.0
 40
0.0
 40
0.0
 40
0.0
 40
0.0
 40
0.0
 40
5.4075329505852068
 40
5.4075329505852068
 40
5.4075329505852068
 40
7.5564293720074751
 40
7.5564293720074751
 40
7.5564293720074751
 40
10.704830575827996
 40
10.704830575827996
 40
10.704830575827996
 40
10.704830575827996
 40
10.704830575827996
 40
10.704830575827996
 10
8.1350211569965349
 20
5.8579558696570055
 30
0.0
 10
8.1350321637004281
 20
5.8386437298647209
 30
0.0
 10
8.1369288778266853
 20
5.8188857278571806
 30
0.0
 10
8.1406155443270887
 20
5.7990705001819931
 30
0.0
 10
8.1481465990027573
 20
5.7719328197761284
 30
0.0
 10
8.1586079813896557
 20
5.7465257054562224
 30
0.0
 10
8.1618289992756043
 20
5.7394193543707992
 30
0.0
 10
8.1703160766266301
 20
5.7223602574708519
 30
0.0
 10
8.1801659708207737
 20
5.7064607390374542
 30
0.0
 10
8.1864597721421646
 20
5.6975433209343169
 30
0.0
 10
8.1931199215434081
 20
5.6892927577397447
 30
0.0
 10
8.2000683803217047
 20
5.681807397060326
 30
0.0
  0
ELLIPSE
  5
349
100
AcDbEntity
  8
0
370
    35
390
0
 62
     7
 48
0.03937
100
AcDbEllipse
 10
8.240452
 20
5.802509
 30
0.0
 11
0.0492495798493041
 21
-0.1562657737265036
 31
0.0
210
0.0
220
0.0
230
1.0
 40
0.586952
 41
5.3920563844824398
 42
5.8567365693036075
  0
POLYLINE
  5
34A
100
AcDbEntity
  8
0
370
    35
390
0
 62
     7
 48
0.03937
100
AcDb2dPolyline
 66
     1
 10
0.0
 20
0.0
 30
0.0
 71
     2
  0
VERTEX
  5
34B
100
AcDbEntity
  8
0
370
     0
390
0
100
AcDbVertex
100
AcDb2dVertex
 10
8.247353
 20
5.648284
 30
0.0
 42
0.050186
  0
VERTEX
  5
34C
100
AcDbEntity
  8
0
370
     0
390
0
100
AcDbVertex
100
AcDb2dVertex
 10
8.262243
 20
5.644368
 30
0.0
  0
SEQEND
  5
34D
100
AcDbEntity
  8
0
370
     0
390
0
  0
POLYLINE
  5
34E
100
AcDbEntity
  8
0
370
    35
390
0
 62
     7
 48
0.03937
100
AcDb2dPolyline
 66
     1
 10
0.0
 20
0.0
 30
0.0
 71
     2
  0
VERTEX
  5
34F
100
AcDbEntity
  8
0
370
     0
390
0
100
AcDbVertex
100
AcDb2dVertex
 10
8.24036
 20
5.630142
 30
0.0
 42
0.102767
  0
VERTEX
  5
350
100
AcDbEntity
  8
0
370
     0
390
0
100
AcDbVertex
100
AcDb2dVertex
 10
8.261034
 20
5.642137
 30
0.0
  0
SEQEND
  5
351
100
AcDbEntity
  8
0
370
     0
390
0
  0
ELLIPSE
  5
352
100
AcDbEntity
  8
0
370
    35
390
0
 62
     7
 48
0.03937
100
AcDbEllipse
 10
8.190807
 20
5.781841
 30
0.0
 11
0.0495386072391083
 21
-0.1516961379650177
 31
0.0
210
0.0
220
0.0
230
1.0
 40
0.592018
 41
5.8453774416687487
 42
6.283321542170186
  0
SPLINE
  5
353
100
AcDbEntity
  8
0
370
    35
390
0
 62
     7
 48
0.03937
100
AcDbSpline
210
0.0
220
0.0
230
1.0
 70
     8
 71
     5
 72
    21
 73
    15
 74
     0
 42
0.0
 43
0.0
 40
0.0
 40
0.0
 40
0.0
 40
0.0
 40
0.0
 40
0.0
 40
5.9800643305417047
 40
5.9800643305417047
 40
5.9800643305417047
 40
10.394250630018185
 40
10.394250630018185
 40
10.394250630018185
 40
11.821713821382748
 40
11.821713821382748
 40
11.821713821382748
 40
14.517239502404568
 40
14.517239502404568
 40
14.517239502404568
 40
14.517239502404568
 40
14.517239502404568
 40
14.517239502404568
 10
8.0852897614948169
 20
5.8386447530108114
 30
0.0
 10
8.0855642534095651
 20
5.8172287564657914
 30
0.0
 10
8.0881335585127339
 20
5.7953204359409627
 30
0.0
 10
8.0928654815441607
 20
5.7735181684719157
 30
0.0
 10
8.1045466273090039
 20
5.7367699980284765
 30
0.0
 10
8.1216351656286356
 20
5.7036560917381927
 30
0.0
 10
8.1298594411590184
 20
5.6903169565152885
 30
0.0
 10
8.1418779343434782
 20
5.6741800592215856
 30
0.0
 10
8.1549273516356671
 20
5.6606336749659985
 30
0.0
 10
8.1581746942945728
 20
5.6574836848927683
 30
0.0
 10
8.1676849987416933
 20
5.6488871616309311
 30
0.0
 10
8.1776041544592655
 20
5.6417371193657697
 30
0.0
 10
8.1842191124031771
 20
5.637741879922185
 30
0.0
 10
8.1909065075128336
 20
5.6344875801381988
 30
0.0
 10
8.1975995699337929
 20
5.63201868846705
 30
0.0
  0
SPLINE
  5
354
100
AcDbEntity
  8
0
370
    35
390
0
 62
     7
 48
0.03937
100
AcDbSpline
210
0.0
220
0.0
230
1.0
 70
     8
 71
     5
 72
    21
 73
    15
 74
     0
 42
0.0
 43
0.0
 40
0.0
 40
0.0
 40
0.0
 40
0.0
 40
0.0
 40
0.0
 40
5.2252964690724122
 40
5.2252964690724122
 40
5.2252964690724122
 40
7.8190158073604792
 40
7.8190158073604792
 40
7.8190158073604792
 40
11.62704506083246
 40
11.62704506083246
 40
11.62704506083246
 40
12.801793054849123
 40
12.801793054849123
 40
12.801793054849123
 40
12.801793054849123
 40
12.801793054849123
 40
12.801793054849123
 10
8.182299190274275
 20
5.8703549515696514
 30
0.0
 10
8.1825390374606428
 20
5.8516419536879116
 30
0.0
 10
8.1845309794817673
 20
5.8325530633101028
 30
0.0
 10
8.1881885882516112
 20
5.8134205819478213
 30
0.0
 10
8.1960467748458239
 20
5.7853432443853938
 30
0.0
 10
8.2070378959982015
 20
5.7591415279784428
 30
0.0
 10
8.2110440513583089
 20
5.7506217312434886
 30
0.0
 10
8.2217121625946881
 20
5.7303178165473163
 30
0.0
 10
8.2343086793966656
 20
5.7118855404236646
 30
0.0
 10
8.2423783735281244
 20
5.7018464464894913
 30
0.0
 10
8.2534971975670999
 20
5.6901584918259243
 30
0.0
 10
8.2652171768573357
 20
5.680565125001066
 30
0.0
 10
8.2680158372563941
 20
5.6784200741028572
 30
0.0
 10
8.2708384653929201
 20
5.6764029629301938
 30
0.0
 10
8.2736838929624152
 20
5.6745160058875843
 30
0.0
  0
POLYLINE
  5
355
100
AcDbEntity
  8
0
370
    35
390
0
 62
     7
 48
0.03937
100
AcDb2dPolyline
 66
     1
 10
0.0
 20
0.0
 30
0.0
 71
     2
  0
VERTEX
  5
356
100
AcDbEntity
  8
0
370
     0
390
0
100
AcDbVertex
100
AcDb2dVertex
 10
8.137956
 20
5.894872
 30
0.0
 42
0.021265
  0
VERTEX
  5
357
100
AcDbEntity
  8
0
370
     0
390
0
100
AcDbVertex
100
AcDb2dVertex
 10
8.137291
 20
5.871045
 30
0.0
  0
SEQEND
  5
358
100
AcDbEntity
  8
0
370
     0
390
0
  0
POLYLINE
  5
359
100
AcDbEntity
  8
0
370
    35
390
0
 62
     7
 48
0.03937
100
AcDb2dPolyline
 66
     1
 10
0.0
 20
0.0
 30
0.0
 71
     2
  0
VERTEX
  5
35A
100
AcDbEntity
  8
0
370
     0
390
0
100
AcDbVertex
100
AcDb2dVertex
 10
8.136543
 20
5.884895
 30
0.0
 42
0.029225
  0
VERTEX
  5
35B
100
AcDbEntity
  8
0
370
     0
390
0
100
AcDbVertex
100
AcDb2dVertex
 10
8.135023
 20
5.857956
 30
0.0
  0
SEQEND
  5
35C
100
AcDbEntity
  8
0
370
     0
390
0
  0
ELLIPSE
  5
35D
100
AcDbEntity
  8
0
370
    35
390
0
 62
     7
 48
0.03937
100
AcDbEllipse
 10
8.261902
 20
5.809616
 30
0.0
 11
0.0564713214307538
 21
-0.1803889870908576
 31
0.0
210
0.0
220
0.0
230
1.0
 40
0.629882
 41
3.585718249016117
 42
4.0958676463112829
  0
POLYLINE
  5
35E
100
AcDbEntity
  8
0
370
    35
390
0
 62
     7
 48
0.03937
100
AcDb2dPolyline
 66
     1
 10
0.0
 20
0.0
 30
0.0
 71
     2
  0
VERTEX
  5
35F
100
AcDbEntity
  8
0
370
     0
390
0
100
AcDbVertex
100
AcDb2dVertex
 10
8.196099
 20
5.937693
 30
0.0
 42
0.014223
  0
VERTEX
  5
360
100
AcDbEntity
  8
0
370
     0
390
0
100
AcDbVertex
100
AcDb2dVertex
 10
8.188777
 20
5.942685
 30
0.0
  0
SEQEND
  5
361
100
AcDbEntity
  8
0
370
     0
390
0
  0
ELLIPSE
  5
362
100
AcDbEntity
  8
0
370
    35
390
0
 62
     7
 48
0.03937
100
AcDbEllipse
 10
8.306289
 20
5.827453
 30
0.0
 11
0.0532266044131907
 21
-0.1779036937692128
 31
0.0
210
0.0
220
0.0
230
1.0
 40
0.629592
 41
3.8549194047338715
 42
4.2869418095918901
  0
SPLINE
  5
363
100
AcDbEntity
  8
0
370
    35
390
0
 62
     7
 48
0.03937
100
AcDbSpline
210
0.0
220
0.0
230
1.0
 70
     8
 71
     5
 72
    15
 73
     9
 74
     0
 42
0.0
 43
0.0
 40
0.0
 40
0.0
 40
0.0
 40
0.0
 40
0.0
 40
0.0
 40
6.1921834101732882
 40
6.1921834101732882
 40
6.1921834101732882
 40
8.9240359997596794
 40
8.9240359997596794
 40
8.9240359997596794
 40
8.9240359997596794
 40
8.9240359997596794
 40
8.9240359997596794
 10
8.2555881873429353
 20
5.6905315949801922
 30
0.0
 10
8.2377210381700632
 20
5.7119260880164431
 30
0.0
 10
8.2222823442085957
 20
5.7369123844154322
 30
0.0
 10
8.209650265110751
 20
5.7641280290568577
 30
0.0
 10
8.1956999333204692
 20
5.8053317657675754
 30
0.0
 10
8.1884381675665576
 20
5.8478417115462742
 30
0.0
 10
8.1868659437092663
 20
5.8609091450733004
 30
0.0
 10
8.1859736046802265
 20
5.8739578773954353
 30
0.0
 10
8.1857943876577473
 20
5.8869005458482633
 30
0.0
  0
SPLINE
  5
364
100
AcDbEntity
  8
0
370
    35
390
0
 62
     7
 48
0.03937
100
AcDbSpline
210
0.0
220
0.0
230
1.0
 70
     8
 71
     5
 72
    18
 73
    12
 74
     0
 42
0.0
 43
0.0
 40
0.0
 40
0.0
 40
0.0
 40
0.0
 40
0.0
 40
0.0
 40
5.4075310449360741
 40
5.4075310449360741
 40
5.4075310449360741
 40
7.5564282116413821
 40
7.5564282116413821
 40
7.5564282116413821
 40
10.704831563810455
 40
10.704831563810455
 40
10.704831563810455
 40
10.704831563810455
 40
10.704831563810455
 40
10.704831563810455
 10
8.1835258713862622
 20
5.873810968936426
 30
0.0
 10
8.1835368780791153
 20
5.8544988359526622
 30
0.0
 10
8.1854335923207007
 20
5.8347408437983264
 30
0.0
 10
8.1891202562289767
 20
5.8149256387523511
 30
0.0
 10
8.1966512956581123
 20
5.787787987225947
 30
0.0
 10
8.2071126680808977
 20
5.7623808742316092
 30
0.0
 10
8.2103336848922552
 20
5.7552745196691868
 30
0.0
 10
8.2188207621237783
 20
5.738215409386128
 30
0.0
 10
8.2286706625816688
 20
5.72231587100545
 30
0.0
 10
8.2349644704594631
 20
5.7133984400797067
 30
0.0
 10
8.241624626569001
 20
5.705147867128213
 30
0.0
 10
8.2485730908714103
 20
5.6976624999537693
 30
0.0
  0
POLYLINE
  5
365
100
AcDbEntity
  8
0
370
    35
390
0
 62
     7
 48
0.03937
100
AcDb2dPolyline
 66
     1
 10
0.0
 20
0.0
 30
0.0
 71
     2
  0
VERTEX
  5
366
100
AcDbEntity
  8
0
370
     0
390
0
100
AcDbVertex
100
AcDb2dVertex
 10
8.248583
 20
5.697672
 30
0.0
 42
0.056669
  0
VERTEX
  5
367
100
AcDbEntity
  8
0
370
     0
390
0
100
AcDbVertex
100
AcDb2dVertex
 10
8.27395
 20
5.675564
 30
0.0
  0
SEQEND
  5
368
100
AcDbEntity
  8
0
370
     0
390
0
  0
SPLINE
  5
369
100
AcDbEntity
  8
0
370
    35
390
0
 62
     7
 48
0.03937
100
AcDbSpline
210
0.0
220
0.0
230
1.0
 70
     8
 71
     5
 72
    15
 73
     9
 74
     0
 42
0.0
 43
0.0
 40
0.0
 40
0.0
 40
0.0
 40
0.0
 40
0.0
 40
0.0
 40
6.1428884434348294
 40
6.1428884434348294
 40
6.1428884434348294
 40
8.7285288681297395
 40
8.7285288681297395
 40
8.7285288681297395
 40
8.7285288681297395
 40
8.7285288681297395
 40
8.7285288681297395
 10
8.230803904664004
 20
5.8862100508490718
 30
0.0
 10
8.231085870390709
 20
5.8642109434138989
 30
0.0
 10
8.233789314735855
 20
5.8416923368847273
 30
0.0
 10
8.2387695148405307
 20
5.8193346250622691
 30
0.0
 10
8.2487834968431883
 20
5.7886071408103668
 30
0.0
 10
8.2626135644453598
 20
5.7604535131736521
 30
0.0
 10
8.267057562549768
 20
5.7523291834985644
 30
0.0
 10
8.271812871327608
 20
5.7445273189118469
 30
0.0
 10
8.2768511926716588
 20
5.7371034689337597
 30
0.0
  0
POLYLINE
  5
36A
100
AcDbEntity
  8
0
370
    35
390
0
 62
     7
 48
0.03937
100
AcDb2dPolyline
 66
     1
 10
0.0
 20
0.0
 30
0.0
 71
     2
  0
VERTEX
  5
36B
100
AcDbEntity
  8
0
370
     0
390
0
100
AcDbVertex
100
AcDb2dVertex
 10
8.18646
 20
5.910727
 30
0.0
 42
0.021265
  0
VERTEX
  5
36C
100
AcDbEntity
  8
0
370
     0
390
0
100
AcDbVertex
100
AcDb2dVertex
 10
8.185795
 20
5.886901
 30
0.0
  0
SEQEND
  5
36D
100
AcDbEntity
  8
0
370
     0
390
0
  0
POLYLINE
  5
36E
100
AcDbEntity
  8
0
370
    35
390
0
 62
     7
 48
0.03937
100
AcDb2dPolyline
 66
     1
 10
0.0
 20
0.0
 30
0.0
 71
     2
  0
VERTEX
  5
36F
100
AcDbEntity
  8
0
370
     0
390
0
100
AcDbVertex
100
AcDb2dVertex
 10
8.185048
 20
5.900751
 30
0.0
 42
0.029225
  0
VERTEX
  5
370
100
AcDbEntity
  8
0
370
     0
390
0
100
AcDbVertex
100
AcDb2dVertex
 10
8.183528
 20
5.873811
 30
0.0
  0
SEQEND
  5
371
100
AcDbEntity
  8
0
370
     0
390
0
  0
POLYLINE
  5
372
100
AcDbEntity
  8
0
370
    35
390
0
 62
     7
 48
0.03937
100
AcDb2dPolyline
 66
     1
 10
0.0
 20
0.0
 30
0.0
 71
     2
  0
VERTEX
  5
373
100
AcDbEntity
  8
0
370
     0
390
0
100
AcDbVertex
100
AcDb2dVertex
 10
8.193627
 20
5.939443
 30
0.0
 42
0.053618
  0
VERTEX
  5
374
100
AcDbEntity
  8
0
370
     0
390
0
100
AcDbVertex
100
AcDb2dVertex
 10
8.185062
 20
5.900749
 30
0.0
  0
SEQEND
  5
375
100
AcDbEntity
  8
0
370
     0
390
0
  0
LINE
  5
376
100
AcDbEntity
  8
0
370
    35
390
0
 62
     7
 48
0.000054
100
AcDbLine
 10
8.230804
 20
5.88621
 30
0.0
 11
8.230785
 21
5.888387
 31
0.0
210
0.0
220
0.0
230
1.0
  0
SPLINE
  5
377
100
AcDbEntity
  8
0
370
    35
390
0
 62
     7
 48
0.03937
100
AcDbSpline
210
0.0
220
0.0
230
1.0
 70
     8
 71
     5
 72
    12
 73
     6
 74
     0
 42
0.0
 43
0.0
 40
0.0
 40
0.0
 40
0.0
 40
0.0
 40
0.0
 40
0.0
 40
5.7920419081334691
 40
5.7920419081334691
 40
5.7920419081334691
 40
5.7920419081334691
 40
5.7920419081334691
 40
5.7920419081334691
 10
8.2759247939657286
 20
5.7477183137817223
 30
0.0
 10
8.2626330335122304
 20
5.7715581448304301
 30
0.0
 10
8.251753664232707
 20
5.7974243455624714
 30
0.0
 10
8.2434670438114495
 20
5.8245023166697019
 30
0.0
 10
8.2379504216687778
 20
5.85220954082489
 30
0.0
 10
8.2354882328177386
 20
5.8798339344397057
 30
0.0
  0
SPLINE
  5
378
100
AcDbEntity
  8
0
370
    35
390
0
 62
     7
 48
0.03937
100
AcDbSpline
210
0.0
220
0.0
230
1.0
 70
     8
 71
     5
 72
    15
 73
     9
 74
     0
 42
0.0
 43
0.0
 40
0.0
 40
0.0
 40
0.0
 40
0.0
 40
0.0
 40
0.0
 40
6.013396931448419
 40
6.013396931448419
 40
6.013396931448419
 40
8.5483492994763246
 40
8.5483492994763246
 40
8.5483492994763246
 40
8.5483492994763246
 40
8.5483492994763246
 40
8.5483492994763246
 10
8.2320577631956819
 20
5.8861295077390867
 30
0.0
 10
8.2323758775440883
 20
5.8645824764833678
 30
0.0
 10
8.2350136934287317
 20
5.8425062754182058
 30
0.0
 10
8.2398489013696494
 20
5.8206051564521761
 30
0.0
 10
8.2495191482996013
 20
5.790494964403476
 30
0.0
 10
8.2628848782864566
 20
5.7627614035281702
 30
0.0
 10
8.2671836453940504
 20
5.7547395732545024
 30
0.0
 10
8.2717841099222262
 20
5.7470205490593722
 30
0.0
 10
8.2766601885649198
 20
5.7396565417360197
 30
0.0
  0
ELLIPSE
  5
379
100
AcDbEntity
  8
0
370
    35
390
0
 62
     7
 48
0.03937
100
AcDbEllipse
 10
7.189167
 20
6.113755
 30
0.0
 11
0.0495934477840287
 21
-0.1520178796236556
 31
0.0
210
0.0
220
0.0
230
1.0
 40
0.591422
 41
5.8365310431592698
 42
6.2585895343817066
  0
SPLINE
  5
37A
100
AcDbEntity
  8
0
370
    35
390
0
 62
     7
 48
0.03937
100
AcDbSpline
210
0.0
220
0.0
230
1.0
 70
     8
 71
     5
 72
    15
 73
     9
 74
     0
 42
0.0
 43
0.0
 40
0.0
 40
0.0
 40
0.0
 40
0.0
 40
0.0
 40
0.0
 40
5.9676618936577217
 40
5.9676618936577217
 40
5.9676618936577217
 40
10.046464547125961
 40
10.046464547125961
 40
10.046464547125961
 40
10.046464547125961
 40
10.046464547125961
 40
10.046464547125961
 10
7.1088319098232073
 20
5.9722916992538115
 30
0.0
 10
7.0914492203100128
 20
5.9926651170728373
 30
0.0
 10
7.0763007114148841
 20
6.0164447400991969
 30
0.0
 10
7.0637403565351615
 20
6.0423885353020621
 30
0.0
 10
7.0471769884509632
 20
6.0883670559313563
 30
0.0
 10
7.0389734639397581
 20
6.136341553444864
 30
0.0
 10
7.0370952672422256
 20
6.1559355011141088
 30
0.0
 10
7.0367765890433267
 20
6.1753808927519973
 30
0.0
 10
7.0381313324038111
 20
6.1943562100927512
 30
0.0
  0
SPLINE
  5
37B
100
AcDbEntity
  8
0
370
    35
390
0
 62
     7
 48
0.03937
100
AcDbSpline
210
0.0
220
0.0
230
1.0
 70
     8
 71
     5
 72
    18
 73
    12
 74
     0
 42
0.0
 43
0.0
 40
0.0
 40
0.0
 40
0.0
 40
0.0
 40
0.0
 40
0.0
 40
2.5477948055013648
 40
2.5477948055013648
 40
2.5477948055013648
 40
6.9148259017023372
 40
6.9148259017023372
 40
6.9148259017023372
 40
8.7327536338486684
 40
8.7327536338486684
 40
8.7327536338486684
 40
8.7327536338486684
 40
8.7327536338486684
 40
8.7327536338486684
 10
7.1044108594446653
 20
6.2891413051284726
 30
0.0
 10
7.0979473828222295
 20
6.2869818530477284
 30
0.0
 10
7.0917429060996877
 20
6.2841005664233114
 30
0.0
 10
7.08584751925516
 20
6.2805212612445187
 30
0.0
 10
7.0707917163729057
 20
6.2690594203378458
 30
0.0
 10
7.0583202980789066
 20
6.2529271183719368
 30
0.0
 10
7.0517351755705331
 20
6.241131572117002
 30
0.0
 10
7.0443316755310592
 20
6.2228184583886215
 30
0.0
 10
7.039574005659623
 20
6.2027815368169472
 30
0.0
 10
7.0383968144974185
 20
6.1967392190031019
 30
0.0
 10
7.0374461482129034
 20
6.1905918772154251
 30
0.0
 10
7.0367166027440158
 20
6.1843473365791795
 30
0.0
  0
POLYLINE
  5
37C
100
AcDbEntity
  8
0
370
    35
390
0
 62
     7
 48
0.03937
100
AcDb2dPolyline
 66
     1
 10
0.0
 20
0.0
 30
0.0
 71
     2
  0
VERTEX
  5
37D
100
AcDbEntity
  8
0
370
     0
390
0
100
AcDbVertex
100
AcDb2dVertex
 10
7.036716
 20
6.184347
 30
0.0
 42
0.01186
  0
VERTEX
  5
37E
100
AcDbEntity
  8
0
370
     0
390
0
100
AcDbVertex
100
AcDb2dVertex
 10
7.035751
 20
6.173916
 30
0.0
  0
SEQEND
  5
37F
100
AcDbEntity
  8
0
370
     0
390
0
  0
LINE
  5
380
100
AcDbEntity
  8
0
370
    35
390
0
 62
     7
 48
0.000093
100
AcDbLine
 10
7.244258
 20
5.978713
 30
0.0
 11
7.247804
 21
5.977542
 31
0.0
210
0.0
220
0.0
230
1.0
  0
SPLINE
  5
381
100
AcDbEntity
  8
0
370
    35
390
0
 62
     7
 48
0.03937
100
AcDbSpline
210
0.0
220
0.0
230
1.0
 70
     8
 71
     5
 72
    15
 73
     9
 74
     0
 42
0.0
 43
0.0
 40
0.0
 40
0.0
 40
0.0
 40
0.0
 40
0.0
 40
0.0
 40
5.913833325007845
 40
5.913833325007845
 40
5.913833325007845
 40
9.949441007872359
 40
9.949441007872359
 40
9.949441007872359
 40
9.949441007872359
 40
9.949441007872359
 40
9.949441007872359
 10
7.1559291639237239
 20
5.9898123128792502
 30
0.0
 10
7.1388479076563183
 20
6.0102194994051965
 30
0.0
 10
7.123979497081276
 20
6.0339100927129463
 30
0.0
 10
7.1116573407704227
 20
6.0596918264118456
 30
0.0
 10
7.0954316225404934
 20
6.1052959514912883
 30
0.0
 10
7.0874195972120821
 20
6.1528146883442805
 30
0.0
 10
7.0855937002471991
 20
6.1721979412923327
 30
0.0
 10
7.0852956434772505
 20
6.1914325187913057
 30
0.0
 10
7.0866357370205169
 20
6.210206970500753
 30
0.0
  0
ELLIPSE
  5
382
100
AcDbEntity
  8
0
370
    35
390
0
 62
     7
 48
0.03937
100
AcDbEllipse
 10
7.212534
 20
6.122549
 30
0.0
 11
0.0588706088224481
 21
-0.1826900857113497
 31
0.0
210
0.0
220
0.0
230
1.0
 40
0.627435
 41
3.3629815772775999
 42
3.7709614374920215
  0
ELLIPSE
  5
383
100
AcDbEntity
  8
0
370
    35
390
0
 62
     7
 48
0.03937
100
AcDbEllipse
 10
7.189133
 20
6.117827
 30
0.0
 11
0.0492512231897616
 21
-0.1562481354853512
 31
0.0
210
0.0
220
0.0
230
1.0
 40
0.586979
 41
5.3920003599204387
 42
5.8473410833875539
  0
SPLINE
  5
384
100
AcDbEntity
  8
0
370
    35
390
0
 62
     7
 48
0.03937
100
AcDbSpline
210
0.0
220
0.0
230
1.0
 70
     8
 71
     5
 72
    15
 73
     9
 74
     0
 42
0.0
 43
0.0
 40
0.0
 40
0.0
 40
0.0
 40
0.0
 40
0.0
 40
0.0
 40
8.4875852074014251
 40
8.4875852074014251
 40
8.4875852074014251
 40
10.654708588576598
 40
10.654708588576598
 40
10.654708588576598
 40
10.654708588576598
 40
10.654708588576598
 40
10.654708588576598
 10
7.148749527156391
 20
5.9971402521946571
 30
0.0
 10
7.1301003602587443
 20
6.0172298188516482
 30
0.0
 10
7.1137598073844579
 20
6.0425817293624462
 30
0.0
 10
7.1007832933808555
 20
6.0713710106927774
 30
0.0
 10
7.089377739625478
 20
6.1096526042797716
 30
0.0
 10
7.084762919549406
 20
6.1483310903181243
 30
0.0
 10
7.0841120112601654
 20
6.1561990099578123
 30
0.0
 10
7.0837579169401526
 20
6.1640175949271736
 30
0.0
 10
7.0837059312549719
 20
6.1717681137089722
 30
0.0
  0
SPLINE
  5
385
100
AcDbEntity
  8
0
370
    35
390
0
 62
     7
 48
0.03937
100
AcDbSpline
210
0.0
220
0.0
230
1.0
 70
     8
 71
     5
 72
    24
 73
    18
 74
     0
 42
0.0
 43
0.0
 40
0.0
 40
0.0
 40
0.0
 40
0.0
 40
0.0
 40
0.0
 40
4.1852959112677217
 40
4.1852959112677217
 40
4.1852959112677217
 40
7.0897133585676206
 40
7.0897133585676206
 40
7.0897133585676206
 40
10.084162782263206
 40
10.084162782263206
 40
10.084162782263206
 40
11.59672709877071
 40
11.59672709877071
 40
11.59672709877071
 40
14.652041203563298
 40
14.652041203563298
 40
14.652041203563298
 40
14.652041203563298
 40
14.652041203563298
 40
14.652041203563298
 10
7.1957535147205256
 20
5.9628575167230276
 30
0.0
 10
7.18536082072636
 20
5.9665491900451206
 30
0.0
 10
7.1749676389769332
 20
5.9721436051625281
 30
0.0
 10
7.1647592744127087
 20
5.9795066677715036
 30
0.0
 10
7.1481943666717607
 20
5.9946167263773145
 30
0.0
 10
7.1334189455820312
 20
6.0132244366178327
 30
0.0
 10
7.1276778673259829
 20
6.0213872899829024
 30
0.0
 10
7.1167504266231845
 20
6.0388745865576015
 30
0.0
 10
7.1073433904539796
 20
6.0581144992369884
 30
0.0
 10
7.1029940347088738
 20
6.0682810788776731
 30
0.0
 10
7.0971992056799804
 20
6.0839038828640311
 30
0.0
 10
7.0925446588559424
 20
6.0998867381184327
 30
0.0
 10
7.0911126678888294
 20
6.1052834721064864
 30
0.0
 10
7.0871868870781114
 20
6.1216464804383701
 30
0.0
 10
7.0844666752700141
 20
6.1382265674596326
 30
0.0
 10
7.0832059282067785
 20
6.149370832859729
 30
0.0
 10
7.0825320971726828
 20
6.1604334045377227
 30
0.0
 10
7.08245880526876
 20
6.1713604562972302
 30
0.0
  0
ELLIPSE
  5
386
100
AcDbEntity
  8
0
370
    35
390
0
 62
     7
 48
0.03937
100
AcDbEllipse
 10
7.211649
 20
6.121602
 30
0.0
 11
0.0593277378150849
 21
-0.1831995324027918
 31
0.0
210
0.0
220
0.0
230
1.0
 40
0.626664
 41
3.3561736898303693
 42
3.7690051381312464
  0
SPLINE
  5
387
100
AcDbEntity
  8
0
370
    35
390
0
 62
     7
 48
0.03937
100
AcDbSpline
210
0.0
220
0.0
230
1.0
 70
     8
 71
     5
 72
    24
 73
    18
 74
     0
 42
0.0
 43
0.0
 40
0.0
 40
0.0
 40
0.0
 40
0.0
 40
0.0
 40
0.0
 40
4.1852979380196587
 40
4.1852979380196587
 40
4.1852979380196587
 40
7.0897181971217478
 40
7.0897181971217478
 40
7.0897181971217478
 40
10.084169495732196
 40
10.084169495732196
 40
10.084169495732196
 40
11.59673503367345
 40
11.59673503367345
 40
11.59673503367345
 40
14.652053067516061
 40
14.652053067516061
 40
14.652053067516061
 40
14.652053067516061
 40
14.652053067516061
 40
14.652053067516061
 10
7.2442582291102555
 20
5.9787126160024471
 30
0.0
 10
7.2338655300712658
 20
5.9824042911081285
 30
0.0
 10
7.223472343091303
 20
5.9879987093484992
 30
0.0
 10
7.2132639931008073
 20
5.9953617679884905
 30
0.0
 10
7.1966991159834182
 20
6.0104717890587258
 30
0.0
 10
7.1819236899776406
 20
6.0290794948068687
 30
0.0
 10
7.1761826018212203
 20
6.037242359938495
 30
0.0
 10
7.1652551577026999
 20
6.0547296598348099
 30
0.0
 10
7.1558481283005593
 20
6.0739695537216818
 30
0.0
 10
7.1514987769493397
 20
6.0841361169693187
 30
0.0
 10
7.1457039484289195
 20
6.0997589045631724
 30
0.0
 10
7.1410493963977038
 20
6.1157417584657718
 30
0.0
 10
7.1396174029591455
 20
6.1211384947121736
 30
0.0
 10
7.1356916131544361
 20
6.137501519116765
 30
0.0
 10
7.1329713946847537
 20
6.1540816239451663
 30
0.0
 10
7.1317106443251408
 20
6.1652259036947701
 30
0.0
 10
7.1310368116572063
 20
6.1762884897636594
 30
0.0
 10
7.13096351965845
 20
6.1872155555766382
 30
0.0
  0
POLYLINE
  5
388
100
AcDbEntity
  8
0
370
    35
390
0
 62
     7
 48
0.03937
100
AcDb2dPolyline
 66
     1
 10
0.0
 20
0.0
 30
0.0
 71
     2
  0
VERTEX
  5
389
100
AcDbEntity
  8
0
370
     0
390
0
100
AcDbVertex
100
AcDb2dVertex
 10
7.156615
 20
6.285993
 30
0.0
 42
0.049644
  0
VERTEX
  5
38A
100
AcDbEntity
  8
0
370
     0
390
0
100
AcDbVertex
100
AcDb2dVertex
 10
7.144734
 20
6.263938
 30
0.0
  0
SEQEND
  5
38B
100
AcDbEntity
  8
0
370
     0
390
0
  0
POLYLINE
  5
38C
100
AcDbEntity
  8
0
370
    35
390
0
 62
     7
 48
0.03937
100
AcDb2dPolyline
 66
     1
 10
0.0
 20
0.0
 30
0.0
 71
     2
  0
VERTEX
  5
38D
100
AcDbEntity
  8
0
370
     0
390
0
100
AcDbVertex
100
AcDb2dVertex
 10
7.243565
 20
5.979836
 30
0.0
 42
0.014482
  0
VERTEX
  5
38E
100
AcDbEntity
  8
0
370
     0
390
0
100
AcDbVertex
100
AcDb2dVertex
 10
7.248174
 20
5.978222
 30
0.0
  0
SEQEND
  5
38F
100
AcDbEntity
  8
0
370
     0
390
0
  0
LINE
  5
390
100
AcDbEntity
  8
0
370
    35
390
0
 62
     7
 48
0.000164
100
AcDbLine
 10
6.989991
 20
6.183052
 30
0.0
 11
6.990656
 21
6.189586
 31
0.0
210
0.0
220
0.0
230
1.0
  0
ELLIPSE
  5
391
100
AcDbEntity
  8
0
370
    35
390
0
 62
     7
 48
0.03937
100
AcDbEllipse
 10
7.187969
 20
6.11315
 30
0.0
 11
0.0495533568823621
 21
-0.15181801475106
 31
0.0
210
0.0
220
0.0
230
1.0
 40
0.591805
 41
5.8551110645475299
 42
6.2716926983228909
  0
SPLINE
  5
392
100
AcDbEntity
  8
0
370
    35
390
0
 62
     7
 48
0.03937
100
AcDbSpline
210
0.0
220
0.0
230
1.0
 70
     8
 71
     5
 72
    15
 73
     9
 74
     0
 42
0.0
 43
0.0
 40
0.0
 40
0.0
 40
0.0
 40
0.0
 40
0.0
 40
0.0
 40
5.9138617694182196
 40
5.9138617694182196
 40
5.9138617694182196
 40
9.9494910609103329
 40
9.9494910609103329
 40
9.9494910609103329
 40
9.9494910609103329
 40
9.9494910609103329
 40
9.9494910609103329
 10
7.204434629336089
 20
6.0056665129815068
 30
0.0
 10
7.1873532062365726
 20
6.0260736907111472
 30
0.0
 10
7.1724846428426794
 20
6.0497643425302483
 30
0.0
 10
7.1601623587611272
 20
6.075546173141662
 30
0.0
 10
7.1439364638513183
 20
6.1211505030990629
 30
0.0
 10
7.1359243405878336
 20
6.1686694787909886
 30
0.0
 10
7.1340984177295672
 20
6.1880528351644708
 30
0.0
 10
7.1338003507814598
 20
6.2072875184354936
 30
0.0
 10
7.135140451393875
 20
6.2260620702141365
 30
0.0
  0
POLYLINE
  5
393
100
AcDbEntity
  8
0
370
    35
390
0
 62
     7
 48
0.03937
100
AcDb2dPolyline
 66
     1
 10
0.0
 20
0.0
 30
0.0
 71
     2
  0
VERTEX
  5
394
100
AcDbEntity
  8
0
370
     0
390
0
100
AcDbVertex
100
AcDb2dVertex
 10
7.157279
 20
6.285534
 30
0.0
 42
0.047314
  0
VERTEX
  5
395
100
AcDbEntity
  8
0
370
     0
390
0
100
AcDbVertex
100
AcDb2dVertex
 10
7.14598
 20
6.264346
 30
0.0
  0
SEQEND
  5
396
100
AcDbEntity
  8
0
370
     0
390
0
  0
ELLIPSE
  5
397
100
AcDbEntity
  8
0
370
    35
390
0
 62
     7
 48
0.03937
100
AcDbEllipse
 10
7.237628
 20
6.133721
 30
0.0
 11
0.0492534369878188
 21
-0.1562878476145303
 31
0.0
210
0.0
220
0.0
230
1.0
 40
0.586891
 41
5.3921502141127604
 42
5.8474474947919077
  0
SPLINE
  5
398
100
AcDbEntity
  8
0
370
    35
390
0
 62
     7
 48
0.03937
100
AcDbSpline
210
0.0
220
0.0
230
1.0
 70
     8
 71
     5
 72
    21
 73
    15
 74
     0
 42
0.0
 43
0.0
 40
0.0
 40
0.0
 40
0.0
 40
0.0
 40
0.0
 40
0.0
 40
2.0613527553324533
 40
2.0613527553324533
 40
2.0613527553324533
 40
6.3215693775593405
 40
6.3215693775593405
 40
6.3215693775593405
 40
8.4742736441751987
 40
8.4742736441751987
 40
8.4742736441751987
 40
10.629465392463125
 40
10.629465392463125
 40
10.629465392463125
 40
10.629465392463125
 40
10.629465392463125
 40
10.629465392463125
 10
7.1972535460665208
 20
6.0129962134335564
 30
0.0
 10
7.192697106353652
 20
6.0179045922722274
 30
0.0
 10
7.1882878017529626
 20
6.0231170558156268
 30
0.0
 10
7.1840371937594023
 20
6.0286093388379527
 30
0.0
 10
7.1715562968704862
 20
6.0461678603892626
 30
0.0
 10
7.1606953830986528
 20
6.065972091170643
 30
0.0
 10
7.1541940781424485
 20
6.0801720839167954
 30
0.0
 10
7.1458473137433778
 20
6.1024454586635493
 30
0.0
 10
7.1398325499093778
 20
6.1253609323728861
 30
0.0
 10
7.1380801884817053
 20
6.1331031113851076
 30
0.0
 10
7.1351132058872269
 20
6.1486780617228822
 30
0.0
 10
7.13325687804653
 20
6.164316140071497
 30
0.0
 10
7.1326128357045899
 20
6.1721402014495315
 30
0.0
 10
7.132262345110159
 20
6.1799153665990314
 30
0.0
 10
7.1322106456447099
 20
6.1876232129883952
 30
0.0
  0
ELLIPSE
  5
399
100
AcDbEntity
  8
0
370
    35
390
0
 62
     7
 48
0.03937
100
AcDbEllipse
 10
7.164007
 20
6.1043
 30
0.0
 11
0.0603951977169696
 21
-0.1845814028819235
 31
0.0
210
0.0
220
0.0
230
1.0
 40
0.624348
 41
2.7574603472657264
 42
3.1414118846618653
  0
SPLINE
  5
39A
100
AcDbEntity
  8
0
370
    35
390
0
 62
     7
 48
0.03937
100
AcDbSpline
210
0.0
220
0.0
230
1.0
 70
     8
 71
     5
 72
    18
 73
    12
 74
     0
 42
0.0
 43
0.0
 40
0.0
 40
0.0
 40
0.0
 40
0.0
 40
0.0
 40
0.0
 40
2.3043739811298041
 40
2.3043739811298041
 40
2.3043739811298041
 40
6.2331104123020964
 40
6.2331104123020964
 40
6.2331104123020964
 40
7.8622613363685208
 40
7.8622613363685208
 40
7.8622613363685208
 40
7.8622613363685208
 40
7.8622613363685208
 40
7.8622613363685208
 10
7.1036325156773898
 20
6.2888885709395561
 30
0.0
 10
7.0977693458521935
 20
6.2869720320072311
 30
0.0
 10
7.092114252789691
 20
6.284462584484694
 30
0.0
 10
7.086716888163834
 20
6.2813818607898639
 30
0.0
 10
7.0728754281401462
 20
6.271611761050683
 30
0.0
 10
7.0610995008468613
 20
6.258013849372837
 30
0.0
 10
7.0546309589238181
 20
6.2480600657751371
 30
0.0
 10
7.0469959839546927
 20
6.2323809260247227
 30
0.0
 10
7.0415394784815177
 20
6.2151131336386172
 30
0.0
 10
7.0401249225418177
 20
6.2099285502120001
 30
0.0
 10
7.0388928792653527
 20
6.2046342668252992
 30
0.0
 10
7.0378408811400019
 20
6.1992381957517182
 30
0.0
  0
SPLINE
  5
39B
100
AcDbEntity
  8
0
370
    35
390
0
 62
     7
 48
0.03937
100
AcDbSpline
210
0.0
220
0.0
230
1.0
 70
     8
 71
     5
 72
    24
 73
    18
 74
     0
 42
0.0
 43
0.0
 40
0.0
 40
0.0
 40
0.0
 40
0.0
 40
0.0
 40
0.0
 40
2.3145013038185533
 40
2.3145013038185533
 40
2.3145013038185533
 40
4.6952194772365781
 40
4.6952194772365781
 40
4.6952194772365781
 40
8.3630472410198955
 40
8.3630472410198955
 40
8.3630472410198955
 40
10.816670070920797
 40
10.816670070920797
 40
10.816670070920797
 40
12.060488552465788
 40
12.060488552465788
 40
12.060488552465788
 40
12.060488552465788
 40
12.060488552465788
 40
12.060488552465788
 10
7.2609551849158436
 20
6.0129957297756107
 30
0.0
 10
7.255454025630339
 20
6.0174460476295879
 30
0.0
 10
7.250076028216597
 20
6.0223698362839251
 30
0.0
 10
7.2448481152650031
 20
6.0277350476452956
 30
0.0
 10
7.2346703862550923
 20
6.0393357257837001
 30
0.0
 10
7.2253446443032141
 20
6.0523159680918033
 30
0.0
 10
7.2208698255970898
 20
6.0591776962420152
 30
0.0
 10
7.2100051440009283
 20
6.0775368003216919
 30
0.0
 10
7.2007754123535515
 20
6.0976702470095869
 30
0.0
 10
7.1958843201778802
 20
6.1103331525373088
 30
0.0
 10
7.188968063234781
 20
6.1319191958136958
 30
0.0
 10
7.1841994066100048
 20
6.1539488223809986
 30
0.0
 10
7.1826317220760103
 20
6.1628598233968388
 30
0.0
 10
7.1808207558484387
 20
6.176287544498849
 30
0.0
 10
7.1798552749322431
 20
6.1896615260414309
 30
0.0
 10
7.1796274359360881
 20
6.1941513887514796
 30
0.0
 10
7.1794980711847929
 20
6.1986222516939735
 30
0.0
 10
7.1794682340482368
 20
6.2030706548560763
 30
0.0
  0
SPLINE
  5
39C
100
AcDbEntity
  8
0
370
    35
390
0
 62
     7
 48
0.03937
100
AcDbSpline
210
0.0
220
0.0
230
1.0
 70
     8
 71
     5
 72
    15
 73
     9
 74
     0
 42
0.0
 43
0.0
 40
0.0
 40
0.0
 40
0.0
 40
0.0
 40
0.0
 40
0.0
 40
5.9138615660156217
 40
5.9138615660156217
 40
5.9138615660156217
 40
9.9494903016844489
 40
9.9494903016844489
 40
9.9494903016844489
 40
9.9494903016844489
 40
9.9494903016844489
 40
9.9494903016844489
 10
7.2529393441309766
 20
6.0215216076008771
 30
0.0
 10
7.2358579194022212
 20
6.0419287875829246
 30
0.0
 10
7.2209893551598476
 20
6.0656194436252182
 30
0.0
 10
7.2086670707279623
 20
6.0914012791736143
 30
0.0
 10
7.1924411765759704
 20
6.1370056116795242
 30
0.0
 10
7.1844290543012983
 20
6.1845245855348203
 30
0.0
 10
7.1826031322380164
 20
6.2039079377595137
 30
0.0
 10
7.1823050652069016
 20
6.2231426179283105
 30
0.0
 10
7.1836451657538154
 20
6.2419171676973848
 30
0.0
  0
POLYLINE
  5
39D
100
AcDbEntity
  8
0
370
    35
390
0
 62
     7
 48
0.03937
100
AcDb2dPolyline
 66
     1
 10
0.0
 20
0.0
 30
0.0
 71
     2
  0
VERTEX
  5
39E
100
AcDbEntity
  8
0
370
     0
390
0
100
AcDbVertex
100
AcDb2dVertex
 10
7.24576
 20
6.028853
 30
0.0
 42
0.033338
  0
VERTEX
  5
39F
100
AcDbEntity
  8
0
370
     0
390
0
100
AcDbVertex
100
AcDb2dVertex
 10
7.261227
 20
6.014195
 30
0.0
  0
SEQEND
  5
3A0
100
AcDbEntity
  8
0
370
     0
390
0
  0
SPLINE
  5
3A1
100
AcDbEntity
  8
0
370
    35
390
0
 62
     7
 48
0.03937
100
AcDbSpline
210
0.0
220
0.0
230
1.0
 70
     8
 71
     5
 72
    21
 73
    15
 74
     0
 42
0.0
 43
0.0
 40
0.0
 40
0.0
 40
0.0
 40
0.0
 40
0.0
 40
0.0
 40
2.0613542528043873
 40
2.0613542528043873
 40
2.0613542528043873
 40
6.3215706620263798
 40
6.3215706620263798
 40
6.3215706620263798
 40
8.4742756872733089
 40
8.4742756872733089
 40
8.4742756872733089
 40
10.62946844230602
 40
10.62946844230602
 40
10.62946844230602
 40
10.62946844230602
 40
10.62946844230602
 40
10.62946844230602
 10
7.2457582574467043
 20
6.0288513109704871
 30
0.0
 10
7.2412018102630826
 20
6.033759697610197
 30
0.0
 10
7.2367924999926885
 20
6.0389721686971445
 30
0.0
 10
7.2325418892552991
 20
6.0444644568621957
 30
0.0
 10
7.2200609894063579
 20
6.062022989487291
 30
0.0
 10
7.2092000819278779
 20
6.081827220440764
 30
0.0
 10
7.2026987899595634
 20
6.0960271941338418
 30
0.0
 10
7.1943520367275093
 20
6.1183005346968287
 30
0.0
 10
7.1883372715845448
 20
6.1412160025947946
 30
0.0
 10
7.1865849082876716
 20
6.1489581859965527
 30
0.0
 10
7.1836179229750554
 20
6.1645331432581223
 30
0.0
 10
7.1817615933971117
 20
6.180171228328847
 30
0.0
 10
7.1811175504303799
 20
6.1879952934645326
 30
0.0
 10
7.1807670595248823
 20
6.1957704622782588
 30
0.0
 10
7.1807153600345055
 20
6.2034783122678361
 30
0.0
  0
POLYLINE
  5
3A2
100
AcDbEntity
  8
0
370
    35
390
0
 62
     7
 48
0.03937
100
AcDb2dPolyline
 66
     1
 10
0.0
 20
0.0
 30
0.0
 71
     2
  0
VERTEX
  5
3A3
100
AcDbEntity
  8
0
370
     0
390
0
100
AcDbVertex
100
AcDb2dVertex
 10
7.230072
 20
6.187736
 30
0.0
 42
0.085049
  0
VERTEX
  5
3A4
100
AcDbEntity
  8
0
370
     0
390
0
100
AcDbVertex
100
AcDb2dVertex
 10
7.258265
 20
6.095113
 30
0.0
  0
SEQEND
  5
3A5
100
AcDbEntity
  8
0
370
     0
390
0
  0
POLYLINE
  5
3A6
100
AcDbEntity
  8
0
370
    35
390
0
 62
     7
 48
0.03937
100
AcDb2dPolyline
 66
     1
 10
0.0
 20
0.0
 30
0.0
 71
     2
  0
VERTEX
  5
3A7
100
AcDbEntity
  8
0
370
     0
390
0
100
AcDbVertex
100
AcDb2dVertex
 10
7.241203
 20
6.160441
 30
0.0
 42
0.027036
  0
VERTEX
  5
3A8
100
AcDbEntity
  8
0
370
     0
390
0
100
AcDbVertex
100
AcDb2dVertex
 10
7.252064
 20
6.12498
 30
0.0
  0
SEQEND
  5
3A9
100
AcDbEntity
  8
0
370
     0
390
0
  0
POLYLINE
  5
3AA
100
AcDbEntity
  8
0
370
    35
390
0
 62
     7
 48
0.03937
100
AcDb2dPolyline
 66
     1
 10
0.0
 20
0.0
 30
0.0
 71
     2
  0
VERTEX
  5
3AB
100
AcDbEntity
  8
0
370
     0
390
0
100
AcDbVertex
100
AcDb2dVertex
 10
7.231931
 20
6.183588
 30
0.0
 42
0.076903
  0
VERTEX
  5
3AC
100
AcDbEntity
  8
0
370
     0
390
0
100
AcDbVertex
100
AcDb2dVertex
 10
7.25751
 20
6.099571
 30
0.0
  0
SEQEND
  5
3AD
100
AcDbEntity
  8
0
370
     0
390
0
  0
LINE
  5
3AE
100
AcDbEntity
  8
0
370
    35
390
0
 62
     7
 48
0.03937
100
AcDbLine
 10
7.961144
 20
6.958365
 30
0.0
 11
7.172943
 21
6.700719
 31
0.0
210
0.0
220
0.0
230
1.0
  0
LINE
  5
3AF
100
AcDbEntity
  8
0
370
    35
390
0
 62
     7
 48
0.03937
100
AcDbLine
 10
8.935548
 20
3.977215
 30
0.0
 11
8.147347
 21
3.71957
 31
0.0
210
0.0
220
0.0
230
1.0
  0
LINE
  5
3B0
100
AcDbEntity
  8
0
370
    35
390
0
 62
     7
 48
0.001037
100
AcDbLine
 10
7.839431
 20
4.661612
 30
0.0
 11
7.800021
 21
4.64873
 31
0.0
210
0.0
220
0.0
230
1.0
  0
LINE
  5
3B1
100
AcDbEntity
  8
0
370
    35
390
0
 62
     7
 48
0.001037
100
AcDbLine
 10
7.480858
 20
5.758677
 30
0.0
 11
7.441448
 21
5.745795
 31
0.0
210
0.0
220
0.0
230
1.0
  0
INSERT
  5
576
100
AcDbEntity
  8
0
370
     0
390
0
100
AcDbBlockReference
  2
BLOCK1
 10
0.0
 20
0.0
 30
0.0
210
0.0
220
0.0
230
1.0
  0
INSERT
  5
577
100
AcDbEntity
  8
0
370
     0
390
0
100
AcDbBlockReference
  2
BLOCK2
 10
0.0
 20
0.0
 30
0.0
210
0.0
220
0.0
230
1.0
  0
INSERT
  5
578
100
AcDbEntity
  8
0
370
     0
390
0
100
AcDbBlockReference
  2
BLOCK3
 10
0.0
 20
0.0
 30
0.0
210
0.0
220
0.0
230
1.0
  0
INSERT
  5
579
100
AcDbEntity
  8
0
370
     0
390
0
100
AcDbBlockReference
  2
BLOCK4
 10
0.0
 20
0.0
 30
0.0
210
0.0
220
0.0
230
1.0
  0
INSERT
  5
57A
100
AcDbEntity
  8
0
370
     0
390
0
100
AcDbBlockReference
  2
BLOCK5
 10
0.0
 20
0.0
 30
0.0
210
0.0
220
0.0
230
1.0
  0
INSERT
  5
57B
100
AcDbEntity
  8
0
370
     0
390
0
100
AcDbBlockReference
  2
BLOCK6
 10
3.283566
 20
5.713163
 30
0.0
 41
0.836361
 42
0.836361
 43
0.836361
210
0.0
220
0.0
230
1.0
  0
INSERT
  5
57C
100
AcDbEntity
  8
0
370
     0
390
0
100
AcDbBlockReference
  2
BLOCK7
 10
3.283566
 20
5.713163
 30
0.0
 41
0.836361
 42
0.836361
 43
0.836361
210
0.0
220
0.0
230
1.0
  0
INSERT
  5
57D
100
AcDbEntity
  8
0
370
     0
390
0
100
AcDbBlockReference
  2
BLOCK8
 10
3.283566
 20
5.713163
 30
0.0
 41
0.836361
 42
0.836361
 43
0.836361
210
0.0
220
0.0
230
1.0
  0
INSERT
  5
57E
100
AcDbEntity
  8
0
370
     0
390
0
100
AcDbBlockReference
  2
BLOCK9
 10
3.283566
 20
5.713163
 30
0.0
 41
0.836361
 42
0.836361
 43
0.836361
210
0.0
220
0.0
230
1.0
  0
INSERT
  5
57F
100
AcDbEntity
  8
0
370
     0
390
0
100
AcDbBlockReference
  2
BLOCK10
 10
3.283566
 20
5.713163
 30
0.0
 41
0.836361
 42
0.836361
 43
0.836361
210
0.0
220
0.0
230
1.0
  0
INSERT
  5
580
100
AcDbEntity
  8
0
370
     0
390
0
100
AcDbBlockReference
  2
BLOCK11
 10
3.283566
 20
5.713163
 30
0.0
 41
0.836361
 42
0.836361
 43
0.836361
210
0.0
220
0.0
230
1.0
  0
INSERT
  5
581
100
AcDbEntity
  8
0
370
     0
390
0
100
AcDbBlockReference
  2
BLOCK12
 10
3.283566
 20
5.713163
 30
0.0
 41
0.836361
 42
0.836361
 43
0.836361
210
0.0
220
0.0
230
1.0
  0
INSERT
  5
582
100
AcDbEntity
  8
0
370
     0
390
0
100
AcDbBlockReference
  2
BLOCK13
 10
3.283566
 20
5.713163
 30
0.0
 41
0.836361
 42
0.836361
 43
0.836361
210
0.0
220
0.0
230
1.0
  0
INSERT
  5
583
100
AcDbEntity
  8
0
370
     0
390
0
100
AcDbBlockReference
  2
BLOCK14
 10
3.283566
 20
2.486346
 30
0.0
 41
0.836361
 42
0.836361
 43
0.836361
210
0.0
220
0.0
230
1.0
  0
INSERT
  5
584
100
AcDbEntity
  8
0
370
     0
390
0
100
AcDbBlockReference
  2
BLOCK15
 10
3.283566
 20
2.486346
 30
0.0
 41
0.836361
 42
0.836361
 43
0.836361
210
0.0
220
0.0
230
1.0
  0
INSERT
  5
585
100
AcDbEntity
  8
0
370
     0
390
0
100
AcDbBlockReference
  2
BLOCK16
 10
3.283566
 20
2.486346
 30
0.0
 41
0.836361
 42
0.836361
 43
0.836361
210
0.0
220
0.0
230
1.0
  0
INSERT
  5
586
100
AcDbEntity
  8
0
370
     0
390
0
100
AcDbBlockReference
  2
BLOCK17
 10
3.283566
 20
2.486346
 30
0.0
 41
0.836361
 42
0.836361
 43
0.836361
210
0.0
220
0.0
230
1.0
  0
INSERT
  5
587
100
AcDbEntity
  8
0
370
     0
390
0
100
AcDbBlockReference
  2
BLOCK18
 10
3.283566
 20
2.486346
 30
0.0
 41
0.836361
 42
0.836361
 43
0.836361
210
0.0
220
0.0
230
1.0
  0
INSERT
  5
588
100
AcDbEntity
  8
0
370
     0
390
0
100
AcDbBlockReference
  2
BLOCK19
 10
3.283566
 20
2.486346
 30
0.0
 41
0.836361
 42
0.836361
 43
0.836361
210
0.0
220
0.0
230
1.0
  0
ENDSEC
  0
SECTION
  2
OBJECTS
  0
DICTIONARY
  5
19
100
AcDbDictionary
280
     0
281
     1
  3
ACAD_GROUP
350
1A
  3
ACAD_MLINESTYLE
350
1B
  3
ACAD_LAYOUT
350
1E
  3
ACAD_PLOTSETTINGS
350
22
  3
ACAD_PLOTSTYLENAME
350
1F
  3
ACAD_WIPEOUT_VARS
350
23
  0
DICTIONARY
  5
1A
102
{ACAD_REACTORS
330
19
102
}
100
AcDbDictionary
280
     0
281
     1
  0
DICTIONARY
  5
1B
102
{ACAD_REACTORS
330
19
102
}
100
AcDbDictionary
280
     0
281
     1
  3
Standard
350
1C
  0
MLINESTYLE
  5
1C
102
{ACAD_REACTORS
330
1B
102
}
100
AcDbMlineStyle
  2
Standard
 70
     0
  3

 62
     0
 51
90.0
 52
90.0
 71
     2
 49
0.5
 62
   256
  6
ByLayer
 49
-0.5
 62
   256
  6
ByLayer
  0
ACDBDICTIONARYWDFLT
  5
1F
102
{ACAD_REACTORS
330
19
102
}
100
AcDbDictionary
281
     1
  3
Normal
350
1D
100
AcDbDictionaryWithDefault
340
1D
  0
ACDBPLACEHOLDER
  5
1D
102
{ACAD_REACTORS
330
1F
102
}
  0
LAYOUT
  5
20
102
{ACAD_REACTORS
330
1E
102
}
100
AcDbPlotSettings
  1

  2

  4

  6

 40
0.0
 41
0.0
 42
0.0
 43
0.0
 44
0.0
 45
0.0
 46
0.0
 47
0.0
 48
0.0
 49
0.0
140
0.0
141
0.0
142
1.0
143
1.0
 70
  1024
 72
     0
 73
     0
 74
     0
  7

 75
     0
147
1.0
148
0.0
149
0.0
100
AcDbLayout
  1
Model
 70
     0
 71
     0
 10
0.0
 20
0.0
 11
0.0
 21
0.0
 12
0.0
 22
0.0
 32
0.0
 14
0.0
 24
0.0
 34
0.0
 15
0.0
 25
0.0
 35
0.0
146
0.0
 13
0.0
 23
0.0
 33
0.0
 16
0.0
 26
0.0
 36
0.0
 17
0.0
 27
0.0
 37
0.0
 76
     0
330
A
331
0
345
0
346
0
  0
LAYOUT
  5
21
102
{ACAD_REACTORS
330
1E
102
}
100
AcDbPlotSettings
  1

  2

  4

  6

 40
0.0
 41
0.0
 42
0.0
 43
0.0
 44
0.0
 45
0.0
 46
0.0
 47
0.0
 48
0.0
 49
0.0
140
0.0
141
0.0
142
1.0
143
1.0
 70
     0
 72
     0
 73
     0
 74
     0
  7

 75
     0
147
1.0
148
0.0
149
0.0
100
AcDbLayout
  1
Layout1
 70
     0
 71
     0
 10
0.0
 20
0.0
 11
0.0
 21
0.0
 12
0.0
 22
0.0
 32
0.0
 14
0.0
 24
0.0
 34
0.0
 15
0.0
 25
0.0
 35
0.0
146
0.0
 13
0.0
 23
0.0
 33
0.0
 16
0.0
 26
0.0
 36
0.0
 17
0.0
 27
0.0
 37
0.0
 76
     0
330
B
331
0
345
0
346
0
  0
DICTIONARY
  5
1E
102
{ACAD_REACTORS
330
19
102
}
100
AcDbDictionary
280
     0
281
     1
  3
Layout1
350
21
  3
Model
350
20
  0
DICTIONARY
  5
22
102
{ACAD_REACTORS
330
19
102
}
100
AcDbDictionary
280
     0
281
     1
  0
WIPEOUTVARIABLES
  5
23
100
AcDbWipeoutVariables
 70
     1
  0
ENDSEC
  0
EOF
