  0
SECTION
  2
HEADER
  9
$ACADVER
  1
AC1015
  9
$ACADMAINTVER
 70
     6
  9
$DWGCODEPAGE
  3
ANSI_1252
  9
$INSBASE
 10
0.0
 20
0.0
 30
0.0
  9
$EXTMIN
 10
0.0
 20
0.0
 30
0.0
  9
$EXTMAX
 10
43.554173
 20
2.587646
 30
2.0
  9
$LIMMIN
 10
0.0
 20
0.0
  9
$LIMMAX
 10
17.0
 20
11.0
  9
$ORTHOMODE
 70
     0
  9
$REGENMODE
 70
     1
  9
$FILLMODE
 70
     1
  9
$QTEXTMODE
 70
     0
  9
$MIRRTEXT
 70
     1
  9
$LTSCALE
 40
1.0
  9
$ATTMODE
 70
     1
  9
$TEXTSIZE
 40
0.2
  9
$TRACEWID
 40
0.05
  9
$TEXTSTYLE
  7
STANDARD
  9
$CLAYER
  8
0
  9
$CELTYPE
  6
ByLayer
  9
$CECOLOR
 62
   256
  9
$CELTSCALE
 40
1.0
  9
$DISPSILH
 70
     0
  9
$DIMSCALE
 40
1.0
  9
$DIMASZ
 40
0.18
  9
$DIMEXO
 40
0.0625
  9
$DIMDLI
 40
0.38
  9
$DIMRND
 40
0.0
  9
$DIMDLE
 40
0.0
  9
$DIMEXE
 40
0.18
  9
$DIMTP
 40
0.0
  9
$DIMTM
 40
0.0
  9
$DIMTXT
 40
0.18
  9
$DIMCEN
 40
0.09
  9
$DIMTSZ
 40
0.0
  9
$DIMTOL
 70
     0
  9
$DIMLIM
 70
     0
  9
$DIMTIH
 70
     1
  9
$DIMTOH
 70
     1
  9
$DIMSE1
 70
     0
  9
$DIMSE2
 70
     0
  9
$DIMTAD
 70
     0
  9
$DIMZIN
 70
     0
  9
$DIMBLK
  1

  9
$DIMASO
 70
     1
  9
$DIMSHO
 70
     1
  9
$DIMPOST
  1

  9
$DIMAPOST
  1

  9
$DIMALT
 70
     0
  9
$DIMALTD
 70
     2
  9
$DIMALTF
 40
25.4
  9
$DIMLFAC
 40
1.0
  9
$DIMTOFL
 70
     0
  9
$DIMTVP
 40
0.0
  9
$DIMTIX
 70
     0
  9
$DIMSOXD
 70
     0
  9
$DIMSAH
 70
     0
  9
$DIMBLK1
  1

  9
$DIMBLK2
  1

  9
$DIMSTYLE
  2
STANDARD
  9
$DIMCLRD
 70
     0
  9
$DIMCLRE
 70
     0
  9
$DIMCLRT
 70
     0
  9
$DIMTFAC
 40
1.0
  9
$DIMGAP
 40
0.09
  9
$DIMJUST
 70
     0
  9
$DIMSD1
 70
     0
  9
$DIMSD2
 70
     0
  9
$DIMTOLJ
 70
     1
  9
$DIMTZIN
 70
     0
  9
$DIMALTZ
 70
     0
  9
$DIMALTTZ
 70
     0
  9
$DIMUPT
 70
     0
  9
$DIMDEC
 70
     4
  9
$DIMTDEC
 70
     4
  9
$DIMALTU
 70
     2
  9
$DIMALTTD
 70
     2
  9
$DIMTXSTY
  7
STANDARD
  9
$DIMAUNIT
 70
     0
  9
$DIMADEC
 70
     0
  9
$DIMALTRND
 40
0.0
  9
$DIMAZIN
 70
     0
  9
$DIMDSEP
 70
    46
  9
$DIMATFIT
 70
     0
  9
$DIMFRAC
 70
     0
  9
$DIMLDRBLK
  1

  9
$DIMLUNIT
 70
     2
  9
$DIMLWD
 70
    -2
  9
$DIMLWE
 70
    -2
  9
$DIMTMOVE
 70
     0
  9
$LUNITS
 70
     2
  9
$LUPREC
 70
     4
  9
$SKETCHINC
 40
0.1
  9
$FILLETRAD
 40
0.125
  9
$AUNITS
 70
     0
  9
$AUPREC
 70
     0
  9
$MENU
  1
.
  9
$ELEVATION
 40
0.0
  9
$PELEVATION
 40
0.0
  9
$THICKNESS
 40
0.0
  9
$LIMCHECK
 70
     0
  9
$CHAMFERA
 40
0.125
  9
$CHAMFERB
 40
0.125
  9
$CHAMFERC
 40
0.0
  9
$CHAMFERD
 40
0.0
  9
$SKPOLY
 70
     0
  9
$TDCREATE
 40
0.000000000
  9
$TDUCREATE
 40
0.000000000
  9
$TDUPDATE
 40
0.000000000
  9
$TDUUPDATE
 40
0.000000000
  9
$TDINDWG
 40
0.0000000000
  9
$TDUSRTIMER
 40
0.0000000000
  9
$USRTIMER
 70
     1
  9
$ANGBASE
 50
0.0
  9
$ANGDIR
 70
     0
  9
$PDMODE
 70
     0
  9
$PDSIZE
 40
0.0
  9
$PLINEWID
 40
0.0
  9
$SPLFRAME
 70
     0
  9
$SPLINETYPE
 70
     6
  9
$SPLINESEGS
 70
     8
  9
$HANDSEED
  5
484
  9
$SURFTAB1
 70
     6
  9
$SURFTAB2
 70
     6
  9
$SURFTYPE
 70
     6
  9
$SURFU
 70
     6
  9
$SURFV
 70
     6
  9
$UCSBASE
  2

  9
$UCSNAME
  2

  9
$UCSORG
 10
0.0
 20
0.0
 30
0.0
  9
$UCSXDIR
 10
1.0
 20
0.0
 30
0.0
  9
$UCSYDIR
 10
0.0
 20
1.0
 30
0.0
  9
$UCSORTHOREF
  2

  9
$UCSORTHOVIEW
 70
     1
  9
$UCSORGTOP
 10
0.0
 20
0.0
 30
0.0
  9
$UCSORGBOTTOM
 10
0.0
 20
0.0
 30
0.0
  9
$UCSORGLEFT
 10
0.0
 20
0.0
 30
0.0
  9
$UCSORGRIGHT
 10
0.0
 20
0.0
 30
0.0
  9
$UCSORGFRONT
 10
0.0
 20
0.0
 30
0.0
  9
$UCSORGBACK
 10
0.0
 20
0.0
 30
0.0
  9
$PUCSBASE
  2

  9
$PUCSNAME
  2

  9
$PUCSORG
 10
0.0
 20
0.0
 30
0.0
  9
$PUCSXDIR
 10
1.0
 20
0.0
 30
0.0
  9
$PUCSYDIR
 10
0.0
 20
1.0
 30
0.0
  9
$PUCSORTHOREF
  2

  9
$PUCSORTHOVIEW
 70
     0
  9
$PUCSORGTOP
 10
0.0
 20
0.0
 30
0.0
  9
$PUCSORGBOTTOM
 10
0.0
 20
0.0
 30
0.0
  9
$PUCSORGLEFT
 10
0.0
 20
0.0
 30
0.0
  9
$PUCSORGRIGHT
 10
0.0
 20
0.0
 30
0.0
  9
$PUCSORGFRONT
 10
0.0
 20
0.0
 30
0.0
  9
$PUCSORGBACK
 10
0.0
 20
0.0
 30
0.0
  9
$USERI1
 70
     0
  9
$USERI2
 70
     0
  9
$USERI3
 70
     0
  9
$USERI4
 70
     0
  9
$USERI5
 70
     0
  9
$USERR1
 40
0.0
  9
$USERR2
 40
0.0
  9
$USERR3
 40
0.0
  9
$USERR4
 40
0.0
  9
$USERR5
 40
0.0
  9
$WORLDVIEW
 70
     1
  9
$SHADEDGE
 70
     3
  9
$SHADEDIF
 70
    70
  9
$TILEMODE
 70
     1
  9
$MAXACTVP
 70
    48
  9
$PINSBASE
 10
0.0
 20
0.0
 30
0.0
  9
$PLIMCHECK
 70
     0
  9
$PEXTMIN
 10
0.0
 20
0.0
 30
0.0
  9
$PEXTMAX
 10
43.554173
 20
2.587646
 30
2.0
  9
$PLIMMIN
 10
0.0
 20
0.0
  9
$PLIMMAX
 10
12.0
 20
9.0
  9
$UNITMODE
 70
     0
  9
$VISRETAIN
 70
     0
  9
$PLINEGEN
 70
     0
  9
$PSLTSCALE
 70
     1
  9
$TREEDEPTH
 70
  3020
  9
$CMLSTYLE
  2
Standard
  9
$CMLJUST
 70
     0
  9
$CMLSCALE
 40
1.0
  9
$PROXYGRAPHICS
 70
     1
  9
$MEASUREMENT
 70
     0
  9
$CELWEIGHT
370
    -1
  9
$ENDCAPS
280
     0
  9
$JOINSTYLE
280
     0
  9
$LWDISPLAY
290
     0
  9
$INSUNITS
 70
     0
  9
$HYPERLINKBASE
  1

  9
$STYLESHEET
  1

  9
$XEDIT
290
     1
  9
$CEPSNTYPE
380
     0
  9
$PSTYLEMODE
290
     0
  9
$FINGERPRINTGUID
  2

  9
$VERSIONGUID
  2

  9
$EXTNAMES
290
     0
  9
$PSVPSCALE
 40
0.0
  0
ENDSEC
  0
SECTION
  2
CLASSES
  0
CLASS
  1
LWPOLYLINE
  2
AcDbPolyline
  3
AutoCAD 2000
 90
        0
280
     0
281
     1
  0
CLASS
  1
IMAGE
  2
AcDbRasterImage
  3
ISM
 90
      127
280
     0
281
     1
  0
CLASS
  1
OLE2FRAME
  2
AcDbOle2Frame
  3
AutoCAD 2000
 90
        0
280
     0
281
     1
  0
CLASS
  1
HATCH
  2
AcDbHatch
  3
AutoCAD 2000
 90
        0
280
     0
281
     1
  0
CLASS
  1
DICTIONARYVAR
  2
AcDbDictionaryVar
  3
AutoCAD 2000
 90
        0
280
     0
281
     0
  0
CLASS
  1
RASTERVARIABLES
  2
AcDbRasterVariables
  3
ISM
 90
        0
280
     0
281
     0
  0
CLASS
  1
IMAGEDEF
  2
AcDbRasterImageDef
  3
ISM
 90
        0
280
     0
281
     0
  0
CLASS
  1
IMAGEDEF_REACTOR
  2
AcDbRasterImageDefReactor
  3
ISM
 90
        1
280
     0
281
     0
  0
CLASS
  1
IDBUFFER
  2
AcDbIdBuffer
  3
AutoCAD 2000
 90
        0
280
     0
281
     0
  0
CLASS
  1
SPATIAL_FILTER
  2
AcDbSpatialFilter
  3
AutoCAD 2000
 90
        0
280
     0
281
     0
  0
CLASS
  1
XRECORD
  2
AcDbXrecord
  3
AutoCAD 2000
 90
        0
280
     0
281
     0
  0
CLASS
  1
SORTENTSTABLE
  2
AcDbSortentsTable
  3
AutoCAD 2000
 90
        0
280
     0
281
     0
  0
CLASS
  1
LAYER_INDEX
  2
AcDbLayerIndex
  3
AutoCAD 2000
 90
        0
280
     0
281
     0
  0
CLASS
  1
SPATIAL_INDEX
  2
AcDbSpatialIndex
  3
AutoCAD 2000
 90
        0
280
     0
281
     0
  0
CLASS
  1
OBJECT_PTR
  2
CAseDLPNTableRecord
  3
"ASE-LPNTableRecord"
 90
        1
280
     0
281
     0
  0
CLASS
  1
LAYOUT
  2
AcDbLayout
  3
AutoCAD 2000
 90
        0
280
     0
281
     0
  0
CLASS
  1
PLOTSETTINGS
  2
AcDbPlotSettings
  3
AutoCAD 2000
 90
        0
280
     0
281
     0
  0
CLASS
  1
ACDBDICTIONARYWDFLT
  2
AcDbDictionaryWithDefault
  3
AutoCAD 2000
 90
        0
280
     0
281
     0
  0
CLASS
  1
ACDBPLACEHOLDER
  2
AcDbPlaceHolder
  3
AutoCAD 2000
 90
        0
280
     0
281
     0
  0
CLASS
  1
VBA_PROJECT
  2
AcDbVbaProject
  3
acadvba
 90
        0
280
     0
281
     0
  0
CLASS
  1
WIPEOUT
  2
AcDbWipeout
  3
WipeOut|AutoCAD Express Tool|expresstools@autodesk.com
 90
      127
280
     0
281
     1
  0
CLASS
  1
WIPEOUTVARIABLES
  2
AcDbWipeoutVariables
  3
WipeOut|AutoCAD Express Tool|expresstools@autodesk.com
 90
        0
280
     0
281
     0
  0
CLASS
  1
RTEXT
  2
RText
  3
RText|AutoCAD Express Tool|expresstools@autodesk.com
 90
        0
280
     0
281
     1
  0
CLASS
  1
ARCALIGNEDTEXT
  2
AcDbArcAlignedText
  3
ATEXT|AutoCAD Express Tool|expresstools@autodesk.com
 90
        0
280
     0
281
     1
  0
ENDSEC
  0
SECTION
  2
TABLES
  0
TABLE
  2
VPORT
  5
7
100
AcDbSymbolTable
 70
     1
  0
VPORT
  5
15
100
AcDbSymbolTableRecord
100
AcDbViewportTableRecord
  2
*ACTIVE
 70
     0
 10
0.0
 20
0.0
 11
1.0
 21
1.0
 12
6.591288
 22
4.579184
 13
0.0
 23
0.0
 14
1.0
 24
1.0
 15
0.0
 25
0.0
 16
0.0
 26
0.0
 36
1.0
 17
0.0
 27
0.0
 37
0.0
 40
9.158369
 41
0.688564
 42
50.0
 43
0.0
 44
0.0
 50
0.0
 51
0.0
 71
     0
 72
   100
 73
     1
 74
     1
 75
     0
 76
     0
 77
     0
 78
     0
281
     0
 65
     0
110
0.0
120
0.0
130
0.0
111
1.0
121
0.0
131
0.0
112
0.0
122
1.0
132
0.0
345
0
346
0
 79
     0
146
0.0
  0
ENDTAB
  0
TABLE
  2
LTYPE
  5
4
100
AcDbSymbolTable
 70
     4
  0
LTYPE
  5
11
100
AcDbSymbolTableRecord
100
AcDbLinetypeTableRecord
  2
ByBlock
 70
    64
  3

 72
    65
 73
     0
 40
0.0
  0
LTYPE
  5
12
100
AcDbSymbolTableRecord
100
AcDbLinetypeTableRecord
  2
ByLayer
 70
    64
  3

 72
    65
 73
     0
 40
0.0
  0
LTYPE
  5
13
100
AcDbSymbolTableRecord
100
AcDbLinetypeTableRecord
  2
Continuous
 70
    64
  3
Solid line
 72
    65
 73
     0
 40
0.0
  0
LTYPE
  5
24
100
AcDbSymbolTableRecord
100
AcDbLinetypeTableRecord
  2
DASHDOT
 70
     0
  3
 __ . __ . __ . __ . __ . __ . __ . 
 72
    65
 73
     4
 40
18.5
 49
12.0
 74
     0
 49
-3.0
 74
     0
 49
0.5
 74
     0
 49
-3.0
 74
     0
  0
ENDTAB
  0
TABLE
  2
LAYER
  5
2
100
AcDbSymbolTable
 70
     2
  0
LAYER
  5
14
100
AcDbSymbolTableRecord
100
AcDbLayerTableRecord
  2
0
 70
     0
 62
     7
  6
Continuous
290
     1
370
    13
390
1D
  0
LAYER
  5
25
100
AcDbSymbolTableRecord
100
AcDbLayerTableRecord
  2
1
 70
     0
 62
     7
  6
Continuous
290
     1
370
    13
390
1D
  0
ENDTAB
  0
TABLE
  2
STYLE
  5
3
100
AcDbSymbolTable
 70
     2
  0
STYLE
  5
17
100
AcDbSymbolTableRecord
100
AcDbTextStyleTableRecord
  2
STANDARD
 70
     0
 40
0.0
 41
1.0
 50
0.0
 71
     0
 42
0.0
  3
isocp.shx
  4

  0
STYLE
  5
26
100
AcDbSymbolTableRecord
100
AcDbTextStyleTableRecord
  2
GDT
 70
     0
 40
0.0
 41
1.0
 50
0.0
 71
     0
 42
0.0
  3
gdt.shx
  4

  0
ENDTAB
  0
TABLE
  2
VIEW
  5
5
100
AcDbSymbolTable
 70
     0
  0
ENDTAB
  0
TABLE
  2
UCS
  5
6
100
AcDbSymbolTable
 70
     0
  0
ENDTAB
  0
TABLE
  2
APPID
  5
8
100
AcDbSymbolTable
 70
     1
  0
APPID
  5
16
100
AcDbSymbolTableRecord
100
AcDbRegAppTableRecord
  2
ACAD
 70
     0
  0
ENDTAB
  0
TABLE
  2
DIMSTYLE
  5
9
100
AcDbSymbolTable
 70
     1
100
AcDbDimStyleTable
 71
     0
  0
DIMSTYLE
105
18
100
AcDbSymbolTableRecord
100
AcDbDimStyleTableRecord
  2
STANDARD
 70
     0
  3

  4

 40
1.0
 41
0.18
 42
0.0625
 43
0.38
 44
0.18
 45
0.0
 46
0.0
 47
0.0
 48
0.0
 71
     0
 72
     0
 73
     1
 74
     1
 75
     0
 76
     0
 77
     0
 78
     0
 79
     0
140
0.18
141
0.09
142
0.0
143
25.4
144
1.0
145
0.0
146
1.0
147
0.09
148
0.0
170
     0
171
     2
172
     0
173
     0
174
     0
175
     0
176
     0
177
     0
178
     0
179
     0
271
     4
272
     4
273
     2
274
     2
275
     0
276
     0
277
     2
278
    46
279
     0
280
     0
281
     0
282
     0
283
     1
284
     0
285
     0
286
     0
288
     0
289
     0
340
0
341
0
342
0
343
0
344
0
371
    -2
372
    -2
  0
ENDTAB
  0
TABLE
  2
BLOCK_RECORD
  5
1
100
AcDbSymbolTable
 70
    24
  0
BLOCK_RECORD
  5
A
100
AcDbSymbolTableRecord
100
AcDbBlockTableRecord
  2
*MODEL_SPACE
340
20
  0
BLOCK_RECORD
  5
B
100
AcDbSymbolTableRecord
100
AcDbBlockTableRecord
  2
*PAPER_SPACE
340
21
  0
BLOCK_RECORD
  5
20D
100
AcDbSymbolTableRecord
100
AcDbBlockTableRecord
  2
BLOCK1
340
0
102
{BLKREFS
331
46C
102
}
  0
BLOCK_RECORD
  5
20E
100
AcDbSymbolTableRecord
100
AcDbBlockTableRecord
  2
BLOCK2
340
0
102
{BLKREFS
331
46D
102
}
  0
BLOCK_RECORD
  5
20F
100
AcDbSymbolTableRecord
100
AcDbBlockTableRecord
  2
BLOCK3
340
0
102
{BLKREFS
331
46E
102
}
  0
BLOCK_RECORD
  5
210
100
AcDbSymbolTableRecord
100
AcDbBlockTableRecord
  2
BLOCK4
340
0
102
{BLKREFS
331
46F
102
}
  0
BLOCK_RECORD
  5
211
100
AcDbSymbolTableRecord
100
AcDbBlockTableRecord
  2
BLOCK5
340
0
102
{BLKREFS
331
470
102
}
  0
BLOCK_RECORD
  5
212
100
AcDbSymbolTableRecord
100
AcDbBlockTableRecord
  2
BLOCK6
340
0
102
{BLKREFS
331
471
102
}
  0
BLOCK_RECORD
  5
213
100
AcDbSymbolTableRecord
100
AcDbBlockTableRecord
  2
BLOCK7
340
0
102
{BLKREFS
331
472
102
}
  0
BLOCK_RECORD
  5
214
100
AcDbSymbolTableRecord
100
AcDbBlockTableRecord
  2
BLOCK8
340
0
102
{BLKREFS
331
473
102
}
  0
BLOCK_RECORD
  5
215
100
AcDbSymbolTableRecord
100
AcDbBlockTableRecord
  2
BLOCK9
340
0
102
{BLKREFS
331
474
102
}
  0
BLOCK_RECORD
  5
216
100
AcDbSymbolTableRecord
100
AcDbBlockTableRecord
  2
BLOCK10
340
0
102
{BLKREFS
331
475
102
}
  0
BLOCK_RECORD
  5
217
100
AcDbSymbolTableRecord
100
AcDbBlockTableRecord
  2
BLOCK11
340
0
102
{BLKREFS
331
476
102
}
  0
BLOCK_RECORD
  5
218
100
AcDbSymbolTableRecord
100
AcDbBlockTableRecord
  2
BLOCK12
340
0
102
{BLKREFS
331
477
102
}
  0
BLOCK_RECORD
  5
219
100
AcDbSymbolTableRecord
100
AcDbBlockTableRecord
  2
BLOCK13
340
0
102
{BLKREFS
331
478
102
}
  0
BLOCK_RECORD
  5
21A
100
AcDbSymbolTableRecord
100
AcDbBlockTableRecord
  2
BLOCK14
340
0
102
{BLKREFS
331
479
102
}
  0
BLOCK_RECORD
  5
21B
100
AcDbSymbolTableRecord
100
AcDbBlockTableRecord
  2
BLOCK15
340
0
102
{BLKREFS
331
47A
102
}
  0
BLOCK_RECORD
  5
21C
100
AcDbSymbolTableRecord
100
AcDbBlockTableRecord
  2
BLOCK16
340
0
102
{BLKREFS
331
47B
102
}
  0
BLOCK_RECORD
  5
21D
100
AcDbSymbolTableRecord
100
AcDbBlockTableRecord
  2
BLOCK17
340
0
102
{BLKREFS
331
47C
102
}
  0
BLOCK_RECORD
  5
21E
100
AcDbSymbolTableRecord
100
AcDbBlockTableRecord
  2
BLOCK18
340
0
102
{BLKREFS
331
47D
102
}
  0
BLOCK_RECORD
  5
21F
100
AcDbSymbolTableRecord
100
AcDbBlockTableRecord
  2
BLOCK19
340
0
102
{BLKREFS
331
47E
102
}
  0
BLOCK_RECORD
  5
220
100
AcDbSymbolTableRecord
100
AcDbBlockTableRecord
  2
BLOCK20
340
0
102
{BLKREFS
331
47F
102
}
  0
BLOCK_RECORD
  5
221
100
AcDbSymbolTableRecord
100
AcDbBlockTableRecord
  2
BLOCK21
340
0
102
{BLKREFS
331
480
102
}
  0
BLOCK_RECORD
  5
222
100
AcDbSymbolTableRecord
100
AcDbBlockTableRecord
  2
BLOCK22
340
0
102
{BLKREFS
331
481
102
}
  0
BLOCK_RECORD
  5
223
100
AcDbSymbolTableRecord
100
AcDbBlockTableRecord
  2
BLOCK23
340
0
102
{BLKREFS
331
482
102
}
  0
BLOCK_RECORD
  5
224
100
AcDbSymbolTableRecord
100
AcDbBlockTableRecord
  2
BLOCK24
340
0
102
{BLKREFS
331
483
102
}
  0
ENDTAB
  0
ENDSEC
  0
SECTION
  2
BLOCKS
  0
BLOCK
  5
D
100
AcDbEntity
  8
0
390
0
100
AcDbBlockBegin
  2
*MODEL_SPACE
 70
     0
 10
0.0
 20
0.0
 30
0.0
  3
*MODEL_SPACE
  1

  0
ENDBLK
  5
E
100
AcDbEntity
  8
0
390
0
100
AcDbBlockEnd
  0
BLOCK
  5
F
100
AcDbEntity
 67
     1
  8
0
390
0
100
AcDbBlockBegin
  2
*PAPER_SPACE
 70
     0
 10
0.0
 20
0.0
 30
0.0
  3
*PAPER_SPACE
  1

  0
ENDBLK
  5
10
100
AcDbEntity
 67
     1
  8
0
390
0
100
AcDbBlockEnd
  0
BLOCK
  5
225
100
AcDbEntity
  8
0
370
     0
390
0
100
AcDbBlockBegin
  2
BLOCK1
 70
     0
 10
0.0
 20
0.0
 30
0.0
  3
BLOCK1
  1

  0
TEXT
  5
226
100
AcDbEntity
  8
0
370
    13
390
0
 62
     7
 48
0.03937
100
AcDbText
 10
8.13363
 20
0.858248
 30
0.0
 40
0.1
  1
150-SLIP-ON-RF
 72
     5
 11
9.553442
 21
0.858248
 31
0.0
100
AcDbText
  0
TEXT
  5
227
100
AcDbEntity
  8
0
370
    13
390
0
 62
     7
 48
0.03937
100
AcDbText
 10
9.554966
 20
0.858248
 30
0.0
 40
0.1
  1
-
 72
     5
 11
9.654966
 21
0.858248
 31
0.0
100
AcDbText
  0
TEXT
  5
228
100
AcDbEntity
  8
0
370
    13
390
0
 62
     7
 48
0.03937
100
AcDbText
 10
9.65649
 20
0.858248
 30
0.0
 40
0.1
  1
FLANGE
 72
     5
 11
10.264109
 21
0.858248
 31
0.0
100
AcDbText
  0
ENDBLK
  5
229
100
AcDbEntity
  8
0
390
0
100
AcDbBlockEnd
  0
BLOCK
  5
22A
100
AcDbEntity
  8
0
370
     0
390
0
100
AcDbBlockBegin
  2
BLOCK2
 70
     0
 10
0.0
 20
0.0
 30
0.0
  3
BLOCK2
  1

  0
TEXT
  5
22B
100
AcDbEntity
  8
0
370
    13
390
0
 62
     7
 48
0.03937
100
AcDbText
 10
8.593215
 20
1.055967
 30
0.0
 40
0.1
  1
\U+00BD
 72
     5
 11
8.693215
 21
1.055967
 31
0.0
100
AcDbText
  0
TEXT
  5
22C
100
AcDbEntity
  8
0
370
    13
390
0
 62
     7
 48
0.03937
100
AcDbText
 10
8.694739
 20
1.055967
 30
0.0
 40
0.1
  1
" NOM. PIPE
 72
     5
 11
9.809979
 21
1.055967
 31
0.0
100
AcDbText
  0
ENDBLK
  5
22D
100
AcDbEntity
  8
0
390
0
100
AcDbBlockEnd
  0
BLOCK
  5
22E
100
AcDbEntity
  8
0
370
     0
390
0
100
AcDbBlockBegin
  2
BLOCK3
 70
     0
 10
0.0
 20
0.0
 30
0.0
  3
BLOCK3
  1

  0
TEXT
  5
22F
100
AcDbEntity
  8
0
370
    13
390
0
 62
     7
 48
0.03937
100
AcDbText
 10
10.093103
 20
0.689966
 30
0.0
 40
0.06
  1
PO Box 2889
 72
     5
 11
10.730818
 21
0.689966
 31
0.0
100
AcDbText
  0
TEXT
  5
230
100
AcDbEntity
  8
0
370
    13
390
0
 62
     7
 48
0.03937
100
AcDbText
 10
9.686702
 20
0.589966
 30
0.0
 40
0.06
  1
Pearland, TX 77588
 72
     5
 11
10.730818
 21
0.589966
 31
0.0
100
AcDbText
  0
TEXT
  5
231
100
AcDbEntity
  8
0
370
    13
390
0
 62
     7
 48
0.03937
100
AcDbText
 10
9.802816
 20
0.489966
 30
0.0
 40
0.06
  1
PH: 800-826-3801
 72
     5
 11
10.730818
 21
0.489966
 31
0.0
100
AcDbText
  0
TEXT
  5
232
100
AcDbEntity
  8
0
370
    13
390
0
 62
     7
 48
0.03937
100
AcDbText
 10
9.744759
 20
0.389966
 30
0.0
 40
0.06
  1
FAX: 281-484-8730
 72
     5
 11
10.730818
 21
0.389966
 31
0.0
100
AcDbText
  0
TEXT
  5
233
100
AcDbEntity
  8
0
370
    13
390
0
 62
     7
 48
0.03937
100
AcDbText
 10
9.628644
 20
0.289966
 30
0.0
 40
0.06
  1
www.texasflange.com
 72
     5
 11
10.730818
 21
0.289966
 31
0.0
100
AcDbText
  0
ENDBLK
  5
234
100
AcDbEntity
  8
0
390
0
100
AcDbBlockEnd
  0
BLOCK
  5
235
100
AcDbEntity
  8
0
370
     0
390
0
100
AcDbBlockBegin
  2
BLOCK4
 70
     0
 10
0.0
 20
0.0
 30
0.0
  3
BLOCK4
  1

  0
TEXT
  5
236
100
AcDbEntity
  8
0
370
    13
390
0
 62
     7
 48
0.03937
100
AcDbText
 10
8.289209
 20
0.587871
 30
0.0
 40
0.2
  1
Texas
 72
     5
 11
9.383692
 21
0.587871
 31
0.0
100
AcDbText
  0
TEXT
  5
237
100
AcDbEntity
  8
0
370
    13
390
0
 62
     7
 48
0.03937
100
AcDbText
 10
8.289209
 20
0.327871
 30
0.0
 40
0.2
  1
Flange
 72
     5
 11
9.608945
 21
0.327871
 31
0.0
100
AcDbText
  0
ENDBLK
  5
238
100
AcDbEntity
  8
0
390
0
100
AcDbBlockEnd
  0
BLOCK
  5
239
100
AcDbEntity
  8
0
370
     0
390
0
100
AcDbBlockBegin
  2
BLOCK5
 70
     0
 10
0.0
 20
0.0
 30
0.0
  3
BLOCK5
  1

  0
LINE
  5
23A
100
AcDbEntity
  8
0
370
     5
390
0
 62
     7
 48
0.00324
100
AcDbLine
 10
8.029831
 20
0.605292
 30
0.0
 11
7.900255
 21
0.604209
 31
0.0
210
0.0
220
0.0
230
1.0
  0
LINE
  5
23B
100
AcDbEntity
  8
0
370
     5
390
0
 62
     7
 48
0.000103
100
AcDbLine
 10
7.900255
 20
0.604209
 30
0.0
 11
7.902151
 21
0.600546
 31
0.0
210
0.0
220
0.0
230
1.0
  0
LINE
  5
23C
100
AcDbEntity
  8
0
370
     5
390
0
 62
     7
 48
0.0001
100
AcDbLine
 10
7.902151
 20
0.600546
 30
0.0
 11
7.903945
 21
0.596951
 31
0.0
210
0.0
220
0.0
230
1.0
  0
LINE
  5
23D
100
AcDbEntity
  8
0
370
     5
390
0
 62
     7
 48
0.000098
100
AcDbLine
 10
7.903945
 20
0.596951
 30
0.0
 11
7.905638
 21
0.593424
 31
0.0
210
0.0
220
0.0
230
1.0
  0
LINE
  5
23E
100
AcDbEntity
  8
0
370
     5
390
0
 62
     7
 48
0.000095
100
AcDbLine
 10
7.905638
 20
0.593424
 30
0.0
 11
7.907229
 21
0.589967
 31
0.0
210
0.0
220
0.0
230
1.0
  0
LINE
  5
23F
100
AcDbEntity
  8
0
370
     5
390
0
 62
     7
 48
0.000093
100
AcDbLine
 10
7.907229
 20
0.589967
 30
0.0
 11
7.908719
 21
0.58658
 31
0.0
210
0.0
220
0.0
230
1.0
  0
LINE
  5
240
100
AcDbEntity
  8
0
370
     5
390
0
 62
     7
 48
0.00009
100
AcDbLine
 10
7.908719
 20
0.58658
 30
0.0
 11
7.910106
 21
0.583262
 31
0.0
210
0.0
220
0.0
230
1.0
  0
LINE
  5
241
100
AcDbEntity
  8
0
370
     5
390
0
 62
     7
 48
0.000087
100
AcDbLine
 10
7.910106
 20
0.583262
 30
0.0
 11
7.911392
 21
0.580013
 31
0.0
210
0.0
220
0.0
230
1.0
  0
LINE
  5
242
100
AcDbEntity
  8
0
370
     5
390
0
 62
     7
 48
0.000085
100
AcDbLine
 10
7.911392
 20
0.580013
 30
0.0
 11
7.912577
 21
0.576833
 31
0.0
210
0.0
220
0.0
230
1.0
  0
LINE
  5
243
100
AcDbEntity
  8
0
370
     5
390
0
 62
     7
 48
0.000082
100
AcDbLine
 10
7.912577
 20
0.576833
 30
0.0
 11
7.913659
 21
0.573722
 31
0.0
210
0.0
220
0.0
230
1.0
  0
LINE
  5
244
100
AcDbEntity
  8
0
370
     5
390
0
 62
     7
 48
0.000095
100
AcDbLine
 10
7.913659
 20
0.573722
 30
0.0
 11
7.915938
 21
0.570681
 31
0.0
210
0.0
220
0.0
230
1.0
  0
LINE
  5
245
100
AcDbEntity
  8
0
370
     5
390
0
 62
     7
 48
0.000066
100
AcDbLine
 10
7.915938
 20
0.570681
 30
0.0
 11
7.916123
 21
0.573306
 31
0.0
210
0.0
220
0.0
230
1.0
  0
LINE
  5
246
100
AcDbEntity
  8
0
370
     5
390
0
 62
     7
 48
0.000062
100
AcDbLine
 10
7.916123
 20
0.573306
 30
0.0
 11
7.916418
 21
0.575775
 31
0.0
210
0.0
220
0.0
230
1.0
  0
LINE
  5
247
100
AcDbEntity
  8
0
370
     5
390
0
 62
     7
 48
0.000059
100
AcDbLine
 10
7.916418
 20
0.575775
 30
0.0
 11
7.916824
 21
0.578087
 31
0.0
210
0.0
220
0.0
230
1.0
  0
LINE
  5
248
100
AcDbEntity
  8
0
370
     5
390
0
 62
     7
 48
0.000055
100
AcDbLine
 10
7.916824
 20
0.578087
 30
0.0
 11
7.917339
 21
0.580242
 31
0.0
210
0.0
220
0.0
230
1.0
  0
LINE
  5
249
100
AcDbEntity
  8
0
370
     5
390
0
 62
     7
 48
0.000052
100
AcDbLine
 10
7.917339
 20
0.580242
 30
0.0
 11
7.917966
 21
0.58224
 31
0.0
210
0.0
220
0.0
230
1.0
  0
LINE
  5
24A
100
AcDbEntity
  8
0
370
     5
390
0
 62
     7
 48
0.00005
100
AcDbLine
 10
7.917966
 20
0.58224
 30
0.0
 11
7.918703
 21
0.584081
 31
0.0
210
0.0
220
0.0
230
1.0
  0
LINE
  5
24B
100
AcDbEntity
  8
0
370
     5
390
0
 62
     7
 48
0.000047
100
AcDbLine
 10
7.918703
 20
0.584081
 30
0.0
 11
7.919549
 21
0.585767
 31
0.0
210
0.0
220
0.0
230
1.0
  0
LINE
  5
24C
100
AcDbEntity
  8
0
370
     5
390
0
 62
     7
 48
0.000045
100
AcDbLine
 10
7.919549
 20
0.585767
 30
0.0
 11
7.920506
 21
0.587294
 31
0.0
210
0.0
220
0.0
230
1.0
  0
LINE
  5
24D
100
AcDbEntity
  8
0
370
     5
390
0
 62
     7
 48
0.000043
100
AcDbLine
 10
7.920506
 20
0.587294
 30
0.0
 11
7.921574
 21
0.588665
 31
0.0
210
0.0
220
0.0
230
1.0
  0
LINE
  5
24E
100
AcDbEntity
  8
0
370
     5
390
0
 62
     7
 48
0.000042
100
AcDbLine
 10
7.921574
 20
0.588665
 30
0.0
 11
7.922751
 21
0.58988
 31
0.0
210
0.0
220
0.0
230
1.0
  0
LINE
  5
24F
100
AcDbEntity
  8
0
370
     5
390
0
 62
     7
 48
0.000042
100
AcDbLine
 10
7.922751
 20
0.58988
 30
0.0
 11
7.924063
 21
0.590958
 31
0.0
210
0.0
220
0.0
230
1.0
  0
LINE
  5
250
100
AcDbEntity
  8
0
370
     5
390
0
 62
     7
 48
0.000044
100
AcDbLine
 10
7.924063
 20
0.590958
 30
0.0
 11
7.92553
 21
0.591923
 31
0.0
210
0.0
220
0.0
230
1.0
  0
LINE
  5
251
100
AcDbEntity
  8
0
370
     5
390
0
 62
     7
 48
0.000046
100
AcDbLine
 10
7.92553
 20
0.591923
 30
0.0
 11
7.927152
 21
0.592775
 31
0.0
210
0.0
220
0.0
230
1.0
  0
LINE
  5
252
100
AcDbEntity
  8
0
370
     5
390
0
 62
     7
 48
0.000048
100
AcDbLine
 10
7.927152
 20
0.592775
 30
0.0
 11
7.92893
 21
0.593513
 31
0.0
210
0.0
220
0.0
230
1.0
  0
LINE
  5
253
100
AcDbEntity
  8
0
370
     5
390
0
 62
     7
 48
0.000051
100
AcDbLine
 10
7.92893
 20
0.593513
 30
0.0
 11
7.930864
 21
0.594138
 31
0.0
210
0.0
220
0.0
230
1.0
  0
LINE
  5
254
100
AcDbEntity
  8
0
370
     5
390
0
 62
     7
 48
0.000054
100
AcDbLine
 10
7.930864
 20
0.594138
 30
0.0
 11
7.932953
 21
0.594648
 31
0.0
210
0.0
220
0.0
230
1.0
  0
LINE
  5
255
100
AcDbEntity
  8
0
370
     5
390
0
 62
     7
 48
0.000057
100
AcDbLine
 10
7.932953
 20
0.594648
 30
0.0
 11
7.9352
 21
0.595046
 31
0.0
210
0.0
220
0.0
230
1.0
  0
LINE
  5
256
100
AcDbEntity
  8
0
370
     5
390
0
 62
     7
 48
0.00006
100
AcDbLine
 10
7.9352
 20
0.595046
 30
0.0
 11
7.9376
 21
0.595331
 31
0.0
210
0.0
220
0.0
230
1.0
  0
LINE
  5
257
100
AcDbEntity
  8
0
370
     5
390
0
 62
     7
 48
0.000064
100
AcDbLine
 10
7.9376
 20
0.595331
 30
0.0
 11
7.940158
 21
0.5955
 31
0.0
210
0.0
220
0.0
230
1.0
  0
LINE
  5
258
100
AcDbEntity
  8
0
370
     5
390
0
 62
     7
 48
0.000068
100
AcDbLine
 10
7.940158
 20
0.5955
 30
0.0
 11
7.94287
 21
0.595557
 31
0.0
210
0.0
220
0.0
230
1.0
  0
LINE
  5
259
100
AcDbEntity
  8
0
370
     5
390
0
 62
     7
 48
0.00005
100
AcDbLine
 10
7.94287
 20
0.595557
 30
0.0
 11
7.944881
 21
0.595532
 31
0.0
210
0.0
220
0.0
230
1.0
  0
LINE
  5
25A
100
AcDbEntity
  8
0
370
     5
390
0
 62
     7
 48
0.000051
100
AcDbLine
 10
7.944881
 20
0.595532
 30
0.0
 11
7.946936
 21
0.595454
 31
0.0
210
0.0
220
0.0
230
1.0
  0
LINE
  5
25B
100
AcDbEntity
  8
0
370
     5
390
0
 62
     7
 48
0.000053
100
AcDbLine
 10
7.946936
 20
0.595454
 30
0.0
 11
7.949034
 21
0.595323
 31
0.0
210
0.0
220
0.0
230
1.0
  0
LINE
  5
25C
100
AcDbEntity
  8
0
370
     5
390
0
 62
     7
 48
0.000054
100
AcDbLine
 10
7.949034
 20
0.595323
 30
0.0
 11
7.951177
 21
0.595142
 31
0.0
210
0.0
220
0.0
230
1.0
  0
LINE
  5
25D
100
AcDbEntity
  8
0
370
     5
390
0
 62
     7
 48
0.000055
100
AcDbLine
 10
7.951177
 20
0.595142
 30
0.0
 11
7.953361
 21
0.594908
 31
0.0
210
0.0
220
0.0
230
1.0
  0
LINE
  5
25E
100
AcDbEntity
  8
0
370
     5
390
0
 62
     7
 48
0.000136
100
AcDbLine
 10
7.953361
 20
0.594908
 30
0.0
 11
7.952171
 21
0.589608
 31
0.0
210
0.0
220
0.0
230
1.0
  0
LINE
  5
25F
100
AcDbEntity
  8
0
370
     5
390
0
 62
     7
 48
0.000162
100
AcDbLine
 10
7.952171
 20
0.589608
 30
0.0
 11
7.945682
 21
0.589716
 31
0.0
210
0.0
220
0.0
230
1.0
  0
LINE
  5
260
100
AcDbEntity
  8
0
370
     5
390
0
 62
     7
 48
0.00006
100
AcDbLine
 10
7.945682
 20
0.589716
 30
0.0
 11
7.943286
 21
0.589667
 31
0.0
210
0.0
220
0.0
230
1.0
  0
LINE
  5
261
100
AcDbEntity
  8
0
370
     5
390
0
 62
     7
 48
0.000057
100
AcDbLine
 10
7.943286
 20
0.589667
 30
0.0
 11
7.941029
 21
0.589518
 31
0.0
210
0.0
220
0.0
230
1.0
  0
LINE
  5
262
100
AcDbEntity
  8
0
370
     5
390
0
 62
     7
 48
0.000053
100
AcDbLine
 10
7.941029
 20
0.589518
 30
0.0
 11
7.938912
 21
0.589269
 31
0.0
210
0.0
220
0.0
230
1.0
  0
LINE
  5
263
100
AcDbEntity
  8
0
370
     5
390
0
 62
     7
 48
0.00005
100
AcDbLine
 10
7.938912
 20
0.589269
 30
0.0
 11
7.936934
 21
0.588921
 31
0.0
210
0.0
220
0.0
230
1.0
  0
LINE
  5
264
100
AcDbEntity
  8
0
370
     5
390
0
 62
     7
 48
0.000047
100
AcDbLine
 10
7.936934
 20
0.588921
 30
0.0
 11
7.935095
 21
0.588473
 31
0.0
210
0.0
220
0.0
230
1.0
  0
LINE
  5
265
100
AcDbEntity
  8
0
370
     5
390
0
 62
     7
 48
0.000045
100
AcDbLine
 10
7.935095
 20
0.588473
 30
0.0
 11
7.933397
 21
0.587925
 31
0.0
210
0.0
220
0.0
230
1.0
  0
LINE
  5
266
100
AcDbEntity
  8
0
370
     5
390
0
 62
     7
 48
0.000042
100
AcDbLine
 10
7.933397
 20
0.587925
 30
0.0
 11
7.931839
 21
0.587279
 31
0.0
210
0.0
220
0.0
230
1.0
  0
LINE
  5
267
100
AcDbEntity
  8
0
370
     5
390
0
 62
     7
 48
0.00004
100
AcDbLine
 10
7.931839
 20
0.587279
 30
0.0
 11
7.930418
 21
0.586532
 31
0.0
210
0.0
220
0.0
230
1.0
  0
LINE
  5
268
100
AcDbEntity
  8
0
370
     5
390
0
 62
     7
 48
0.000038
100
AcDbLine
 10
7.930418
 20
0.586532
 30
0.0
 11
7.929138
 21
0.585687
 31
0.0
210
0.0
220
0.0
230
1.0
  0
LINE
  5
269
100
AcDbEntity
  8
0
370
     5
390
0
 62
     7
 48
0.000074
100
AcDbLine
 10
7.929138
 20
0.585687
 30
0.0
 11
7.926968
 21
0.58367
 31
0.0
210
0.0
220
0.0
230
1.0
  0
LINE
  5
26A
100
AcDbEntity
  8
0
370
     5
390
0
 62
     7
 48
0.000039
100
AcDbLine
 10
7.926968
 20
0.58367
 30
0.0
 11
7.926023
 21
0.582444
 31
0.0
210
0.0
220
0.0
230
1.0
  0
LINE
  5
26B
100
AcDbEntity
  8
0
370
     5
390
0
 62
     7
 48
0.000041
100
AcDbLine
 10
7.926023
 20
0.582444
 30
0.0
 11
7.92516
 21
0.581064
 31
0.0
210
0.0
220
0.0
230
1.0
  0
LINE
  5
26C
100
AcDbEntity
  8
0
370
     5
390
0
 62
     7
 48
0.000043
100
AcDbLine
 10
7.92516
 20
0.581064
 30
0.0
 11
7.924381
 21
0.579533
 31
0.0
210
0.0
220
0.0
230
1.0
  0
LINE
  5
26D
100
AcDbEntity
  8
0
370
     5
390
0
 62
     7
 48
0.000046
100
AcDbLine
 10
7.924381
 20
0.579533
 30
0.0
 11
7.923684
 21
0.577847
 31
0.0
210
0.0
220
0.0
230
1.0
  0
LINE
  5
26E
100
AcDbEntity
  8
0
370
     5
390
0
 62
     7
 48
0.000048
100
AcDbLine
 10
7.923684
 20
0.577847
 30
0.0
 11
7.923073
 21
0.576006
 31
0.0
210
0.0
220
0.0
230
1.0
  0
LINE
  5
26F
100
AcDbEntity
  8
0
370
     5
390
0
 62
     7
 48
0.000052
100
AcDbLine
 10
7.923073
 20
0.576006
 30
0.0
 11
7.922543
 21
0.574013
 31
0.0
210
0.0
220
0.0
230
1.0
  0
LINE
  5
270
100
AcDbEntity
  8
0
370
     5
390
0
 62
     7
 48
0.000055
100
AcDbLine
 10
7.922543
 20
0.574013
 30
0.0
 11
7.922096
 21
0.571866
 31
0.0
210
0.0
220
0.0
230
1.0
  0
LINE
  5
271
100
AcDbEntity
  8
0
370
     5
390
0
 62
     7
 48
0.000058
100
AcDbLine
 10
7.922096
 20
0.571866
 30
0.0
 11
7.921734
 21
0.569565
 31
0.0
210
0.0
220
0.0
230
1.0
  0
LINE
  5
272
100
AcDbEntity
  8
0
370
     5
390
0
 62
     7
 48
0.000062
100
AcDbLine
 10
7.921734
 20
0.569565
 30
0.0
 11
7.921454
 21
0.567111
 31
0.0
210
0.0
220
0.0
230
1.0
  0
LINE
  5
273
100
AcDbEntity
  8
0
370
     5
390
0
 62
     7
 48
0.00007
100
AcDbLine
 10
7.921454
 20
0.567111
 30
0.0
 11
7.924266
 21
0.567111
 31
0.0
210
0.0
220
0.0
230
1.0
  0
LINE
  5
274
100
AcDbEntity
  8
0
370
     5
390
0
 62
     7
 48
0.000054
100
AcDbLine
 10
7.924266
 20
0.567111
 30
0.0
 11
7.924478
 21
0.569252
 31
0.0
210
0.0
220
0.0
230
1.0
  0
LINE
  5
275
100
AcDbEntity
  8
0
370
     5
390
0
 62
     7
 48
0.000051
100
AcDbLine
 10
7.924478
 20
0.569252
 30
0.0
 11
7.924766
 21
0.571259
 31
0.0
210
0.0
220
0.0
230
1.0
  0
LINE
  5
276
100
AcDbEntity
  8
0
370
     5
390
0
 62
     7
 48
0.000048
100
AcDbLine
 10
7.924766
 20
0.571259
 30
0.0
 11
7.92513
 21
0.573132
 31
0.0
210
0.0
220
0.0
230
1.0
  0
LINE
  5
277
100
AcDbEntity
  8
0
370
     5
390
0
 62
     7
 48
0.000045
100
AcDbLine
 10
7.92513
 20
0.573132
 30
0.0
 11
7.925573
 21
0.574872
 31
0.0
210
0.0
220
0.0
230
1.0
  0
LINE
  5
278
100
AcDbEntity
  8
0
370
     5
390
0
 62
     7
 48
0.000042
100
AcDbLine
 10
7.925573
 20
0.574872
 30
0.0
 11
7.926092
 21
0.57648
 31
0.0
210
0.0
220
0.0
230
1.0
  0
LINE
  5
279
100
AcDbEntity
  8
0
370
     5
390
0
 62
     7
 48
0.000077
100
AcDbLine
 10
7.926092
 20
0.57648
 30
0.0
 11
7.92736
 21
0.579297
 31
0.0
210
0.0
220
0.0
230
1.0
  0
LINE
  5
27A
100
AcDbEntity
  8
0
370
     5
390
0
 62
     7
 48
0.000069
100
AcDbLine
 10
7.92736
 20
0.579297
 30
0.0
 11
7.928935
 21
0.581582
 31
0.0
210
0.0
220
0.0
230
1.0
  0
LINE
  5
27B
100
AcDbEntity
  8
0
370
     5
390
0
 62
     7
 48
0.000065
100
AcDbLine
 10
7.928935
 20
0.581582
 30
0.0
 11
7.930843
 21
0.583356
 31
0.0
210
0.0
220
0.0
230
1.0
  0
LINE
  5
27C
100
AcDbEntity
  8
0
370
     5
390
0
 62
     7
 48
0.000069
100
AcDbLine
 10
7.930843
 20
0.583356
 30
0.0
 11
7.93324
 21
0.584759
 31
0.0
210
0.0
220
0.0
230
1.0
  0
LINE
  5
27D
100
AcDbEntity
  8
0
370
     5
390
0
 62
     7
 48
0.000038
100
AcDbLine
 10
7.93324
 20
0.584759
 30
0.0
 11
7.93463
 21
0.585327
 31
0.0
210
0.0
220
0.0
230
1.0
  0
LINE
  5
27E
100
AcDbEntity
  8
0
370
     5
390
0
 62
     7
 48
0.00004
100
AcDbLine
 10
7.93463
 20
0.585327
 30
0.0
 11
7.936151
 21
0.585809
 31
0.0
210
0.0
220
0.0
230
1.0
  0
LINE
  5
27F
100
AcDbEntity
  8
0
370
     5
390
0
 62
     7
 48
0.000042
100
AcDbLine
 10
7.936151
 20
0.585809
 30
0.0
 11
7.937799
 21
0.586203
 31
0.0
210
0.0
220
0.0
230
1.0
  0
LINE
  5
280
100
AcDbEntity
  8
0
370
     5
390
0
 62
     7
 48
0.000045
100
AcDbLine
 10
7.937799
 20
0.586203
 30
0.0
 11
7.939577
 21
0.586511
 31
0.0
210
0.0
220
0.0
230
1.0
  0
LINE
  5
281
100
AcDbEntity
  8
0
370
     5
390
0
 62
     7
 48
0.000048
100
AcDbLine
 10
7.939577
 20
0.586511
 30
0.0
 11
7.941484
 21
0.58673
 31
0.0
210
0.0
220
0.0
230
1.0
  0
LINE
  5
282
100
AcDbEntity
  8
0
370
     5
390
0
 62
     7
 48
0.000051
100
AcDbLine
 10
7.941484
 20
0.58673
 30
0.0
 11
7.943519
 21
0.58686
 31
0.0
210
0.0
220
0.0
230
1.0
  0
LINE
  5
283
100
AcDbEntity
  8
0
370
     5
390
0
 62
     7
 48
0.000054
100
AcDbLine
 10
7.943519
 20
0.58686
 30
0.0
 11
7.945682
 21
0.586905
 31
0.0
210
0.0
220
0.0
230
1.0
  0
LINE
  5
284
100
AcDbEntity
  8
0
370
     5
390
0
 62
     7
 48
0.000192
100
AcDbLine
 10
7.945682
 20
0.586905
 30
0.0
 11
7.953361
 21
0.586796
 31
0.0
210
0.0
220
0.0
230
1.0
  0
LINE
  5
285
100
AcDbEntity
  8
0
370
     5
390
0
 62
     7
 48
0.00269
100
AcDbLine
 10
7.953361
 20
0.586796
 30
0.0
 11
7.953361
 21
0.479178
 31
0.0
210
0.0
220
0.0
230
1.0
  0
LINE
  5
286
100
AcDbEntity
  8
0
370
     5
390
0
 62
     7
 48
0.000493
100
AcDbLine
 10
7.953361
 20
0.479178
 30
0.0
 11
7.93822
 21
0.466523
 31
0.0
210
0.0
220
0.0
230
1.0
  0
LINE
  5
287
100
AcDbEntity
  8
0
370
     5
390
0
 62
     7
 48
0.001236
100
AcDbLine
 10
7.93822
 20
0.466523
 30
0.0
 11
7.987647
 21
0.466523
 31
0.0
210
0.0
220
0.0
230
1.0
  0
LINE
  5
288
100
AcDbEntity
  8
0
370
     5
390
0
 62
     7
 48
0.000434
100
AcDbLine
 10
7.987647
 20
0.466523
 30
0.0
 11
7.974885
 21
0.478313
 31
0.0
210
0.0
220
0.0
230
1.0
  0
LINE
  5
289
100
AcDbEntity
  8
0
370
     5
390
0
 62
     7
 48
0.002931
100
AcDbLine
 10
7.974885
 20
0.478313
 30
0.0
 11
7.976183
 21
0.595557
 31
0.0
210
0.0
220
0.0
230
1.0
  0
LINE
  5
28A
100
AcDbEntity
  8
0
370
     5
390
0
 62
     7
 48
0.000049
100
AcDbLine
 10
7.976183
 20
0.595557
 30
0.0
 11
7.97813
 21
0.595713
 31
0.0
210
0.0
220
0.0
230
1.0
  0
LINE
  5
28B
100
AcDbEntity
  8
0
370
     5
390
0
 62
     7
 48
0.000049
100
AcDbLine
 10
7.97813
 20
0.595713
 30
0.0
 11
7.980077
 21
0.595835
 31
0.0
210
0.0
220
0.0
230
1.0
  0
LINE
  5
28C
100
AcDbEntity
  8
0
370
     5
390
0
 62
     7
 48
0.000049
100
AcDbLine
 10
7.980077
 20
0.595835
 30
0.0
 11
7.982024
 21
0.59592
 31
0.0
210
0.0
220
0.0
230
1.0
  0
LINE
  5
28D
100
AcDbEntity
  8
0
370
     5
390
0
 62
     7
 48
0.000049
100
AcDbLine
 10
7.982024
 20
0.59592
 30
0.0
 11
7.983971
 21
0.595973
 31
0.0
210
0.0
220
0.0
230
1.0
  0
LINE
  5
28E
100
AcDbEntity
  8
0
370
     5
390
0
 62
     7
 48
0.000049
100
AcDbLine
 10
7.983971
 20
0.595973
 30
0.0
 11
7.985918
 21
0.595991
 31
0.0
210
0.0
220
0.0
230
1.0
  0
LINE
  5
28F
100
AcDbEntity
  8
0
370
     5
390
0
 62
     7
 48
0.000058
100
AcDbLine
 10
7.985918
 20
0.595991
 30
0.0
 11
7.988236
 21
0.595943
 31
0.0
210
0.0
220
0.0
230
1.0
  0
LINE
  5
290
100
AcDbEntity
  8
0
370
     5
390
0
 62
     7
 48
0.000055
100
AcDbLine
 10
7.988236
 20
0.595943
 30
0.0
 11
7.990431
 21
0.595799
 31
0.0
210
0.0
220
0.0
230
1.0
  0
LINE
  5
291
100
AcDbEntity
  8
0
370
     5
390
0
 62
     7
 48
0.000052
100
AcDbLine
 10
7.990431
 20
0.595799
 30
0.0
 11
7.992506
 21
0.595562
 31
0.0
210
0.0
220
0.0
230
1.0
  0
LINE
  5
292
100
AcDbEntity
  8
0
370
     5
390
0
 62
     7
 48
0.000049
100
AcDbLine
 10
7.992506
 20
0.595562
 30
0.0
 11
7.994457
 21
0.595229
 31
0.0
210
0.0
220
0.0
230
1.0
  0
LINE
  5
293
100
AcDbEntity
  8
0
370
     5
390
0
 62
     7
 48
0.000047
100
AcDbLine
 10
7.994457
 20
0.595229
 30
0.0
 11
7.996287
 21
0.5948
 31
0.0
210
0.0
220
0.0
230
1.0
  0
LINE
  5
294
100
AcDbEntity
  8
0
370
     5
390
0
 62
     7
 48
0.000045
100
AcDbLine
 10
7.996287
 20
0.5948
 30
0.0
 11
7.997995
 21
0.594276
 31
0.0
210
0.0
220
0.0
230
1.0
  0
LINE
  5
295
100
AcDbEntity
  8
0
370
     5
390
0
 62
     7
 48
0.000043
100
AcDbLine
 10
7.997995
 20
0.594276
 30
0.0
 11
7.99958
 21
0.593658
 31
0.0
210
0.0
220
0.0
230
1.0
  0
LINE
  5
296
100
AcDbEntity
  8
0
370
     5
390
0
 62
     7
 48
0.000041
100
AcDbLine
 10
7.99958
 20
0.593658
 30
0.0
 11
8.001043
 21
0.592944
 31
0.0
210
0.0
220
0.0
230
1.0
  0
LINE
  5
297
100
AcDbEntity
  8
0
370
     5
390
0
 62
     7
 48
0.000039
100
AcDbLine
 10
8.001043
 20
0.592944
 30
0.0
 11
8.002384
 21
0.592136
 31
0.0
210
0.0
220
0.0
230
1.0
  0
LINE
  5
298
100
AcDbEntity
  8
0
370
     5
390
0
 62
     7
 48
0.000038
100
AcDbLine
 10
8.002384
 20
0.592136
 30
0.0
 11
8.003601
 21
0.591231
 31
0.0
210
0.0
220
0.0
230
1.0
  0
LINE
  5
299
100
AcDbEntity
  8
0
370
     5
390
0
 62
     7
 48
0.000038
100
AcDbLine
 10
8.003601
 20
0.591231
 30
0.0
 11
8.004733
 21
0.590204
 31
0.0
210
0.0
220
0.0
230
1.0
  0
LINE
  5
29A
100
AcDbEntity
  8
0
370
     5
390
0
 62
     7
 48
0.00004
100
AcDbLine
 10
8.004733
 20
0.590204
 30
0.0
 11
8.00581
 21
0.589025
 31
0.0
210
0.0
220
0.0
230
1.0
  0
LINE
  5
29B
100
AcDbEntity
  8
0
370
     5
390
0
 62
     7
 48
0.000042
100
AcDbLine
 10
8.00581
 20
0.589025
 30
0.0
 11
8.006836
 21
0.587694
 31
0.0
210
0.0
220
0.0
230
1.0
  0
LINE
  5
29C
100
AcDbEntity
  8
0
370
     5
390
0
 62
     7
 48
0.000044
100
AcDbLine
 10
8.006836
 20
0.587694
 30
0.0
 11
8.007806
 21
0.586212
 31
0.0
210
0.0
220
0.0
230
1.0
  0
LINE
  5
29D
100
AcDbEntity
  8
0
370
     5
390
0
 62
     7
 48
0.000047
100
AcDbLine
 10
8.007806
 20
0.586212
 30
0.0
 11
8.008726
 21
0.584579
 31
0.0
210
0.0
220
0.0
230
1.0
  0
LINE
  5
29E
100
AcDbEntity
  8
0
370
     5
390
0
 62
     7
 48
0.00005
100
AcDbLine
 10
8.008726
 20
0.584579
 30
0.0
 11
8.009591
 21
0.582795
 31
0.0
210
0.0
220
0.0
230
1.0
  0
LINE
  5
29F
100
AcDbEntity
  8
0
370
     5
390
0
 62
     7
 48
0.000053
100
AcDbLine
 10
8.009591
 20
0.582795
 30
0.0
 11
8.010404
 21
0.580859
 31
0.0
210
0.0
220
0.0
230
1.0
  0
LINE
  5
2A0
100
AcDbEntity
  8
0
370
     5
390
0
 62
     7
 48
0.000056
100
AcDbLine
 10
8.010404
 20
0.580859
 30
0.0
 11
8.011163
 21
0.578771
 31
0.0
210
0.0
220
0.0
230
1.0
  0
LINE
  5
2A1
100
AcDbEntity
  8
0
370
     5
390
0
 62
     7
 48
0.000059
100
AcDbLine
 10
8.011163
 20
0.578771
 30
0.0
 11
8.011871
 21
0.576531
 31
0.0
210
0.0
220
0.0
230
1.0
  0
LINE
  5
2A2
100
AcDbEntity
  8
0
370
     5
390
0
 62
     7
 48
0.000062
100
AcDbLine
 10
8.011871
 20
0.576531
 30
0.0
 11
8.012525
 21
0.574142
 31
0.0
210
0.0
220
0.0
230
1.0
  0
LINE
  5
2A3
100
AcDbEntity
  8
0
370
     5
390
0
 62
     7
 48
0.000057
100
AcDbLine
 10
8.012525
 20
0.574142
 30
0.0
 11
8.014147
 21
0.572519
 31
0.0
210
0.0
220
0.0
230
1.0
  0
LINE
  5
2A4
100
AcDbEntity
  8
0
370
     5
390
0
 62
     7
 48
0.000054
100
AcDbLine
 10
8.014147
 20
0.572519
 30
0.0
 11
8.014802
 21
0.574562
 31
0.0
210
0.0
220
0.0
230
1.0
  0
LINE
  5
2A5
100
AcDbEntity
  8
0
370
     5
390
0
 62
     7
 48
0.000052
100
AcDbLine
 10
8.014802
 20
0.574562
 30
0.0
 11
8.015467
 21
0.576534
 31
0.0
210
0.0
220
0.0
230
1.0
  0
LINE
  5
2A6
100
AcDbEntity
  8
0
370
     5
390
0
 62
     7
 48
0.000051
100
AcDbLine
 10
8.015467
 20
0.576534
 30
0.0
 11
8.016143
 21
0.578438
 31
0.0
210
0.0
220
0.0
230
1.0
  0
LINE
  5
2A7
100
AcDbEntity
  8
0
370
     5
390
0
 62
     7
 48
0.000049
100
AcDbLine
 10
8.016143
 20
0.578438
 30
0.0
 11
8.01683
 21
0.580272
 31
0.0
210
0.0
220
0.0
230
1.0
  0
LINE
  5
2A8
100
AcDbEntity
  8
0
370
     5
390
0
 62
     7
 48
0.000047
100
AcDbLine
 10
8.01683
 20
0.580272
 30
0.0
 11
8.017528
 21
0.582038
 31
0.0
210
0.0
220
0.0
230
1.0
  0
LINE
  5
2A9
100
AcDbEntity
  8
0
370
     5
390
0
 62
     7
 48
0.000046
100
AcDbLine
 10
8.017528
 20
0.582038
 30
0.0
 11
8.018235
 21
0.583734
 31
0.0
210
0.0
220
0.0
230
1.0
  0
LINE
  5
2AA
100
AcDbEntity
  8
0
370
     5
390
0
 62
     7
 48
0.000044
100
AcDbLine
 10
8.018235
 20
0.583734
 30
0.0
 11
8.018954
 21
0.58536
 31
0.0
210
0.0
220
0.0
230
1.0
  0
LINE
  5
2AB
100
AcDbEntity
  8
0
370
     5
390
0
 62
     7
 48
0.000043
100
AcDbLine
 10
8.018954
 20
0.58536
 30
0.0
 11
8.019684
 21
0.586917
 31
0.0
210
0.0
220
0.0
230
1.0
  0
LINE
  5
2AC
100
AcDbEntity
  8
0
370
     5
390
0
 62
     7
 48
0.000042
100
AcDbLine
 10
8.019684
 20
0.586917
 30
0.0
 11
8.020426
 21
0.588405
 31
0.0
210
0.0
220
0.0
230
1.0
  0
LINE
  5
2AD
100
AcDbEntity
  8
0
370
     5
390
0
 62
     7
 48
0.00004
100
AcDbLine
 10
8.020426
 20
0.588405
 30
0.0
 11
8.021177
 21
0.589826
 31
0.0
210
0.0
220
0.0
230
1.0
  0
LINE
  5
2AE
100
AcDbEntity
  8
0
370
     5
390
0
 62
     7
 48
0.0004
100
AcDbLine
 10
8.021177
 20
0.589826
 30
0.0
 11
8.029019
 21
0.60375
 31
0.0
210
0.0
220
0.0
230
1.0
  0
LINE
  5
2AF
100
AcDbEntity
  8
0
370
     5
390
0
 62
     7
 48
0.000044
100
AcDbLine
 10
8.029019
 20
0.60375
 30
0.0
 11
8.029831
 21
0.605292
 31
0.0
210
0.0
220
0.0
230
1.0
  0
ENDBLK
  5
2B0
100
AcDbEntity
  8
0
390
0
100
AcDbBlockEnd
  0
BLOCK
  5
2B1
100
AcDbEntity
  8
0
370
     0
390
0
100
AcDbBlockBegin
  2
BLOCK6
 70
     0
 10
0.0
 20
0.0
 30
0.0
  3
BLOCK6
  1

  0
LINE
  5
2B2
100
AcDbEntity
  8
0
370
     5
390
0
 62
     7
 48
0.000505
100
AcDbLine
 10
8.03978
 20
0.605292
 30
0.0
 11
8.054382
 21
0.591339
 31
0.0
210
0.0
220
0.0
230
1.0
  0
LINE
  5
2B3
100
AcDbEntity
  8
0
370
     5
390
0
 62
     7
 48
0.001141
100
AcDbLine
 10
8.054382
 20
0.591339
 30
0.0
 11
8.054382
 21
0.545696
 31
0.0
210
0.0
220
0.0
230
1.0
  0
LINE
  5
2B4
100
AcDbEntity
  8
0
370
     5
390
0
 62
     7
 48
0.00008
100
AcDbLine
 10
8.054382
 20
0.545696
 30
0.0
 11
8.051189
 21
0.545309
 31
0.0
210
0.0
220
0.0
230
1.0
  0
LINE
  5
2B5
100
AcDbEntity
  8
0
370
     5
390
0
 62
     7
 48
0.000076
100
AcDbLine
 10
8.051189
 20
0.545309
 30
0.0
 11
8.048231
 21
0.544665
 31
0.0
210
0.0
220
0.0
230
1.0
  0
LINE
  5
2B6
100
AcDbEntity
  8
0
370
     5
390
0
 62
     7
 48
0.000072
100
AcDbLine
 10
8.048231
 20
0.544665
 30
0.0
 11
8.045504
 21
0.543768
 31
0.0
210
0.0
220
0.0
230
1.0
  0
LINE
  5
2B7
100
AcDbEntity
  8
0
370
     5
390
0
 62
     7
 48
0.000069
100
AcDbLine
 10
8.045504
 20
0.543768
 30
0.0
 11
8.043013
 21
0.542615
 31
0.0
210
0.0
220
0.0
230
1.0
  0
LINE
  5
2B8
100
AcDbEntity
  8
0
370
     5
390
0
 62
     7
 48
0.000067
100
AcDbLine
 10
8.043013
 20
0.542615
 30
0.0
 11
8.040755
 21
0.541208
 31
0.0
210
0.0
220
0.0
230
1.0
  0
LINE
  5
2B9
100
AcDbEntity
  8
0
370
     5
390
0
 62
     7
 48
0.000066
100
AcDbLine
 10
8.040755
 20
0.541208
 30
0.0
 11
8.03873
 21
0.539544
 31
0.0
210
0.0
220
0.0
230
1.0
  0
LINE
  5
2BA
100
AcDbEntity
  8
0
370
     5
390
0
 62
     7
 48
0.000066
100
AcDbLine
 10
8.03873
 20
0.539544
 30
0.0
 11
8.036938
 21
0.537626
 31
0.0
210
0.0
220
0.0
230
1.0
  0
LINE
  5
2BB
100
AcDbEntity
  8
0
370
     5
390
0
 62
     7
 48
0.000067
100
AcDbLine
 10
8.036938
 20
0.537626
 30
0.0
 11
8.03538
 21
0.535451
 31
0.0
210
0.0
220
0.0
230
1.0
  0
LINE
  5
2BC
100
AcDbEntity
  8
0
370
     5
390
0
 62
     7
 48
0.000069
100
AcDbLine
 10
8.03538
 20
0.535451
 30
0.0
 11
8.034058
 21
0.533022
 31
0.0
210
0.0
220
0.0
230
1.0
  0
LINE
  5
2BD
100
AcDbEntity
  8
0
370
     5
390
0
 62
     7
 48
0.000072
100
AcDbLine
 10
8.034058
 20
0.533022
 30
0.0
 11
8.032967
 21
0.530337
 31
0.0
210
0.0
220
0.0
230
1.0
  0
LINE
  5
2BE
100
AcDbEntity
  8
0
370
     5
390
0
 62
     7
 48
0.000047
100
AcDbLine
 10
8.032967
 20
0.530337
 30
0.0
 11
8.033725
 21
0.528606
 31
0.0
210
0.0
220
0.0
230
1.0
  0
LINE
  5
2BF
100
AcDbEntity
  8
0
370
     5
390
0
 62
     7
 48
0.000054
100
AcDbLine
 10
8.033725
 20
0.528606
 30
0.0
 11
8.035222
 21
0.530168
 31
0.0
210
0.0
220
0.0
230
1.0
  0
LINE
  5
2C0
100
AcDbEntity
  8
0
370
     5
390
0
 62
     7
 48
0.000052
100
AcDbLine
 10
8.035222
 20
0.530168
 30
0.0
 11
8.036774
 21
0.531566
 31
0.0
210
0.0
220
0.0
230
1.0
  0
LINE
  5
2C1
100
AcDbEntity
  8
0
370
     5
390
0
 62
     7
 48
0.000051
100
AcDbLine
 10
8.036774
 20
0.531566
 30
0.0
 11
8.038381
 21
0.532799
 31
0.0
210
0.0
220
0.0
230
1.0
  0
LINE
  5
2C2
100
AcDbEntity
  8
0
370
     5
390
0
 62
     7
 48
0.000049
100
AcDbLine
 10
8.038381
 20
0.532799
 30
0.0
 11
8.04004
 21
0.533868
 31
0.0
210
0.0
220
0.0
230
1.0
  0
LINE
  5
2C3
100
AcDbEntity
  8
0
370
     5
390
0
 62
     7
 48
0.000048
100
AcDbLine
 10
8.04004
 20
0.533868
 30
0.0
 11
8.041754
 21
0.534771
 31
0.0
210
0.0
220
0.0
230
1.0
  0
LINE
  5
2C4
100
AcDbEntity
  8
0
370
     5
390
0
 62
     7
 48
0.000048
100
AcDbLine
 10
8.041754
 20
0.534771
 30
0.0
 11
8.043522
 21
0.535512
 31
0.0
210
0.0
220
0.0
230
1.0
  0
LINE
  5
2C5
100
AcDbEntity
  8
0
370
     5
390
0
 62
     7
 48
0.000048
100
AcDbLine
 10
8.043522
 20
0.535512
 30
0.0
 11
8.045345
 21
0.536087
 31
0.0
210
0.0
220
0.0
230
1.0
  0
LINE
  5
2C6
100
AcDbEntity
  8
0
370
     5
390
0
 62
     7
 48
0.000048
100
AcDbLine
 10
8.045345
 20
0.536087
 30
0.0
 11
8.047222
 21
0.536498
 31
0.0
210
0.0
220
0.0
230
1.0
  0
LINE
  5
2C7
100
AcDbEntity
  8
0
370
     5
390
0
 62
     7
 48
0.000049
100
AcDbLine
 10
8.047222
 20
0.536498
 30
0.0
 11
8.049152
 21
0.536744
 31
0.0
210
0.0
220
0.0
230
1.0
  0
LINE
  5
2C8
100
AcDbEntity
  8
0
370
     5
390
0
 62
     7
 48
0.00005
100
AcDbLine
 10
8.049152
 20
0.536744
 30
0.0
 11
8.051138
 21
0.536826
 31
0.0
210
0.0
220
0.0
230
1.0
  0
LINE
  5
2C9
100
AcDbEntity
  8
0
370
     5
390
0
 62
     7
 48
0.000041
100
AcDbLine
 10
8.051138
 20
0.536826
 30
0.0
 11
8.052773
 21
0.536748
 31
0.0
210
0.0
220
0.0
230
1.0
  0
LINE
  5
2CA
100
AcDbEntity
  8
0
370
     5
390
0
 62
     7
 48
0.00004
100
AcDbLine
 10
8.052773
 20
0.536748
 30
0.0
 11
8.054382
 21
0.53661
 31
0.0
210
0.0
220
0.0
230
1.0
  0
LINE
  5
2CB
100
AcDbEntity
  8
0
370
     5
390
0
 62
     7
 48
0.000127
100
AcDbLine
 10
8.054382
 20
0.53661
 30
0.0
 11
8.054382
 21
0.531527
 31
0.0
210
0.0
220
0.0
230
1.0
  0
LINE
  5
2CC
100
AcDbEntity
  8
0
370
     5
390
0
 62
     7
 48
0.000051
100
AcDbLine
 10
8.054382
 20
0.531527
 30
0.0
 11
8.052347
 21
0.531458
 31
0.0
210
0.0
220
0.0
230
1.0
  0
LINE
  5
2CD
100
AcDbEntity
  8
0
370
     5
390
0
 62
     7
 48
0.000049
100
AcDbLine
 10
8.052347
 20
0.531458
 30
0.0
 11
8.050394
 21
0.531249
 31
0.0
210
0.0
220
0.0
230
1.0
  0
LINE
  5
2CE
100
AcDbEntity
  8
0
370
     5
390
0
 62
     7
 48
0.000048
100
AcDbLine
 10
8.050394
 20
0.531249
 30
0.0
 11
8.048522
 21
0.530904
 31
0.0
210
0.0
220
0.0
230
1.0
  0
LINE
  5
2CF
100
AcDbEntity
  8
0
370
     5
390
0
 62
     7
 48
0.000046
100
AcDbLine
 10
8.048522
 20
0.530904
 30
0.0
 11
8.046733
 21
0.53042
 31
0.0
210
0.0
220
0.0
230
1.0
  0
LINE
  5
2D0
100
AcDbEntity
  8
0
370
     5
390
0
 62
     7
 48
0.000045
100
AcDbLine
 10
8.046733
 20
0.53042
 30
0.0
 11
8.045027
 21
0.529796
 31
0.0
210
0.0
220
0.0
230
1.0
  0
LINE
  5
2D1
100
AcDbEntity
  8
0
370
     5
390
0
 62
     7
 48
0.000045
100
AcDbLine
 10
8.045027
 20
0.529796
 30
0.0
 11
8.043403
 21
0.529035
 31
0.0
210
0.0
220
0.0
230
1.0
  0
LINE
  5
2D2
100
AcDbEntity
  8
0
370
     5
390
0
 62
     7
 48
0.000045
100
AcDbLine
 10
8.043403
 20
0.529035
 30
0.0
 11
8.041859
 21
0.528135
 31
0.0
210
0.0
220
0.0
230
1.0
  0
LINE
  5
2D3
100
AcDbEntity
  8
0
370
     5
390
0
 62
     7
 48
0.000045
100
AcDbLine
 10
8.041859
 20
0.528135
 30
0.0
 11
8.0404
 21
0.527097
 31
0.0
210
0.0
220
0.0
230
1.0
  0
LINE
  5
2D4
100
AcDbEntity
  8
0
370
     5
390
0
 62
     7
 48
0.000045
100
AcDbLine
 10
8.0404
 20
0.527097
 30
0.0
 11
8.039021
 21
0.52592
 31
0.0
210
0.0
220
0.0
230
1.0
  0
LINE
  5
2D5
100
AcDbEntity
  8
0
370
     5
390
0
 62
     7
 48
0.000046
100
AcDbLine
 10
8.039021
 20
0.52592
 30
0.0
 11
8.037725
 21
0.524604
 31
0.0
210
0.0
220
0.0
230
1.0
  0
LINE
  5
2D6
100
AcDbEntity
  8
0
370
     5
390
0
 62
     7
 48
0.000077
100
AcDbLine
 10
8.037725
 20
0.524604
 30
0.0
 11
8.03978
 21
0.522333
 31
0.0
210
0.0
220
0.0
230
1.0
  0
LINE
  5
2D7
100
AcDbEntity
  8
0
370
     5
390
0
 62
     7
 48
0.000044
100
AcDbLine
 10
8.03978
 20
0.522333
 30
0.0
 11
8.041057
 21
0.523526
 31
0.0
210
0.0
220
0.0
230
1.0
  0
LINE
  5
2D8
100
AcDbEntity
  8
0
370
     5
390
0
 62
     7
 48
0.000042
100
AcDbLine
 10
8.041057
 20
0.523526
 30
0.0
 11
8.042372
 21
0.524592
 31
0.0
210
0.0
220
0.0
230
1.0
  0
LINE
  5
2D9
100
AcDbEntity
  8
0
370
     5
390
0
 62
     7
 48
0.000041
100
AcDbLine
 10
8.042372
 20
0.524592
 30
0.0
 11
8.04373
 21
0.525533
 31
0.0
210
0.0
220
0.0
230
1.0
  0
LINE
  5
2DA
100
AcDbEntity
  8
0
370
     5
390
0
 62
     7
 48
0.000041
100
AcDbLine
 10
8.04373
 20
0.525533
 30
0.0
 11
8.045129
 21
0.526349
 31
0.0
210
0.0
220
0.0
230
1.0
  0
LINE
  5
2DB
100
AcDbEntity
  8
0
370
     5
390
0
 62
     7
 48
0.00004
100
AcDbLine
 10
8.045129
 20
0.526349
 30
0.0
 11
8.046567
 21
0.527039
 31
0.0
210
0.0
220
0.0
230
1.0
  0
LINE
  5
2DC
100
AcDbEntity
  8
0
370
     5
390
0
 62
     7
 48
0.00004
100
AcDbLine
 10
8.046567
 20
0.527039
 30
0.0
 11
8.048048
 21
0.527603
 31
0.0
210
0.0
220
0.0
230
1.0
  0
LINE
  5
2DD
100
AcDbEntity
  8
0
370
     5
390
0
 62
     7
 48
0.00004
100
AcDbLine
 10
8.048048
 20
0.527603
 30
0.0
 11
8.049571
 21
0.528042
 31
0.0
210
0.0
220
0.0
230
1.0
  0
LINE
  5
2DE
100
AcDbEntity
  8
0
370
     5
390
0
 62
     7
 48
0.00004
100
AcDbLine
 10
8.049571
 20
0.528042
 30
0.0
 11
8.051134
 21
0.528356
 31
0.0
210
0.0
220
0.0
230
1.0
  0
LINE
  5
2DF
100
AcDbEntity
  8
0
370
     5
390
0
 62
     7
 48
0.00004
100
AcDbLine
 10
8.051134
 20
0.528356
 30
0.0
 11
8.052737
 21
0.528543
 31
0.0
210
0.0
220
0.0
230
1.0
  0
LINE
  5
2E0
100
AcDbEntity
  8
0
370
     5
390
0
 62
     7
 48
0.000041
100
AcDbLine
 10
8.052737
 20
0.528543
 30
0.0
 11
8.054382
 21
0.528606
 31
0.0
210
0.0
220
0.0
230
1.0
  0
LINE
  5
2E1
100
AcDbEntity
  8
0
370
     5
390
0
 62
     7
 48
0.001163
100
AcDbLine
 10
8.054382
 20
0.528606
 30
0.0
 11
8.054382
 21
0.482097
 31
0.0
210
0.0
220
0.0
230
1.0
  0
LINE
  5
2E2
100
AcDbEntity
  8
0
370
     5
390
0
 62
     7
 48
0.000564
100
AcDbLine
 10
8.054382
 20
0.482097
 30
0.0
 11
8.036753
 21
0.468038
 31
0.0
210
0.0
220
0.0
230
1.0
  0
LINE
  5
2E3
100
AcDbEntity
  8
0
370
     5
390
0
 62
     7
 48
0.001328
100
AcDbLine
 10
8.036753
 20
0.468038
 30
0.0
 11
8.089859
 21
0.468038
 31
0.0
210
0.0
220
0.0
230
1.0
  0
LINE
  5
2E4
100
AcDbEntity
  8
0
370
     5
390
0
 62
     7
 48
0.000493
100
AcDbLine
 10
8.089859
 20
0.468038
 30
0.0
 11
8.076014
 21
0.482097
 31
0.0
210
0.0
220
0.0
230
1.0
  0
LINE
  5
2E5
100
AcDbEntity
  8
0
370
     5
390
0
 62
     7
 48
0.001363
100
AcDbLine
 10
8.076014
 20
0.482097
 30
0.0
 11
8.076014
 21
0.53661
 31
0.0
210
0.0
220
0.0
230
1.0
  0
LINE
  5
2E6
100
AcDbEntity
  8
0
370
     5
390
0
 62
     7
 48
0.000619
100
AcDbLine
 10
8.076014
 20
0.53661
 30
0.0
 11
8.100782
 21
0.53661
 31
0.0
210
0.0
220
0.0
230
1.0
  0
LINE
  5
2E7
100
AcDbEntity
  8
0
370
     5
390
0
 62
     7
 48
0.000639
100
AcDbLine
 10
8.100782
 20
0.53661
 30
0.0
 11
8.118953
 21
0.518655
 31
0.0
210
0.0
220
0.0
230
1.0
  0
LINE
  5
2E8
100
AcDbEntity
  8
0
370
     5
390
0
 62
     7
 48
0.001133
100
AcDbLine
 10
8.118953
 20
0.518655
 30
0.0
 11
8.118953
 21
0.563975
 31
0.0
210
0.0
220
0.0
230
1.0
  0
LINE
  5
2E9
100
AcDbEntity
  8
0
370
     5
390
0
 62
     7
 48
0.000629
100
AcDbLine
 10
8.118953
 20
0.563975
 30
0.0
 11
8.101647
 21
0.545696
 31
0.0
210
0.0
220
0.0
230
1.0
  0
LINE
  5
2EA
100
AcDbEntity
  8
0
370
     5
390
0
 62
     7
 48
0.000408
100
AcDbLine
 10
8.101647
 20
0.545696
 30
0.0
 11
8.085316
 21
0.545696
 31
0.0
210
0.0
220
0.0
230
1.0
  0
LINE
  5
2EB
100
AcDbEntity
  8
0
370
     5
390
0
 62
     7
 48
0.001044
100
AcDbLine
 10
8.085316
 20
0.545696
 30
0.0
 11
8.085316
 21
0.587445
 31
0.0
210
0.0
220
0.0
230
1.0
  0
LINE
  5
2EC
100
AcDbEntity
  8
0
370
     5
390
0
 62
     7
 48
0.000067
100
AcDbLine
 10
8.085316
 20
0.587445
 30
0.0
 11
8.087994
 21
0.58764
 31
0.0
210
0.0
220
0.0
230
1.0
  0
LINE
  5
2ED
100
AcDbEntity
  8
0
370
     5
390
0
 62
     7
 48
0.000063
100
AcDbLine
 10
8.087994
 20
0.58764
 30
0.0
 11
8.090491
 21
0.587792
 31
0.0
210
0.0
220
0.0
230
1.0
  0
LINE
  5
2EE
100
AcDbEntity
  8
0
370
     5
390
0
 62
     7
 48
0.000058
100
AcDbLine
 10
8.090491
 20
0.587792
 30
0.0
 11
8.092805
 21
0.5879
 31
0.0
210
0.0
220
0.0
230
1.0
  0
LINE
  5
2EF
100
AcDbEntity
  8
0
370
     5
390
0
 62
     7
 48
0.000053
100
AcDbLine
 10
8.092805
 20
0.5879
 30
0.0
 11
8.094938
 21
0.587964
 31
0.0
210
0.0
220
0.0
230
1.0
  0
LINE
  5
2F0
100
AcDbEntity
  8
0
370
     5
390
0
 62
     7
 48
0.000049
100
AcDbLine
 10
8.094938
 20
0.587964
 30
0.0
 11
8.09689
 21
0.587987
 31
0.0
210
0.0
220
0.0
230
1.0
  0
LINE
  5
2F1
100
AcDbEntity
  8
0
370
     5
390
0
 62
     7
 48
0.000063
100
AcDbLine
 10
8.09689
 20
0.587987
 30
0.0
 11
8.099417
 21
0.587969
 31
0.0
210
0.0
220
0.0
230
1.0
  0
LINE
  5
2F2
100
AcDbEntity
  8
0
370
     5
390
0
 62
     7
 48
0.00006
100
AcDbLine
 10
8.099417
 20
0.587969
 30
0.0
 11
8.101811
 21
0.587915
 31
0.0
210
0.0
220
0.0
230
1.0
  0
LINE
  5
2F3
100
AcDbEntity
  8
0
370
     5
390
0
 62
     7
 48
0.000056
100
AcDbLine
 10
8.101811
 20
0.587915
 30
0.0
 11
8.104068
 21
0.587826
 31
0.0
210
0.0
220
0.0
230
1.0
  0
LINE
  5
2F4
100
AcDbEntity
  8
0
370
     5
390
0
 62
     7
 48
0.000053
100
AcDbLine
 10
8.104068
 20
0.587826
 30
0.0
 11
8.106191
 21
0.5877
 31
0.0
210
0.0
220
0.0
230
1.0
  0
LINE
  5
2F5
100
AcDbEntity
  8
0
370
     5
390
0
 62
     7
 48
0.00005
100
AcDbLine
 10
8.106191
 20
0.5877
 30
0.0
 11
8.108179
 21
0.58754
 31
0.0
210
0.0
220
0.0
230
1.0
  0
LINE
  5
2F6
100
AcDbEntity
  8
0
370
     5
390
0
 62
     7
 48
0.000047
100
AcDbLine
 10
8.108179
 20
0.58754
 30
0.0
 11
8.110031
 21
0.587343
 31
0.0
210
0.0
220
0.0
230
1.0
  0
LINE
  5
2F7
100
AcDbEntity
  8
0
370
     5
390
0
 62
     7
 48
0.000043
100
AcDbLine
 10
8.110031
 20
0.587343
 30
0.0
 11
8.111747
 21
0.587112
 31
0.0
210
0.0
220
0.0
230
1.0
  0
LINE
  5
2F8
100
AcDbEntity
  8
0
370
     5
390
0
 62
     7
 48
0.00004
100
AcDbLine
 10
8.111747
 20
0.587112
 30
0.0
 11
8.113329
 21
0.586844
 31
0.0
210
0.0
220
0.0
230
1.0
  0
LINE
  5
2F9
100
AcDbEntity
  8
0
370
     5
390
0
 62
     7
 48
0.000071
100
AcDbLine
 10
8.113329
 20
0.586844
 30
0.0
 11
8.116087
 21
0.586202
 31
0.0
210
0.0
220
0.0
230
1.0
  0
LINE
  5
2FA
100
AcDbEntity
  8
0
370
     5
390
0
 62
     7
 48
0.000065
100
AcDbLine
 10
8.116087
 20
0.586202
 30
0.0
 11
8.118538
 21
0.585356
 31
0.0
210
0.0
220
0.0
230
1.0
  0
LINE
  5
2FB
100
AcDbEntity
  8
0
370
     5
390
0
 62
     7
 48
0.000066
100
AcDbLine
 10
8.118538
 20
0.585356
 30
0.0
 11
8.120915
 21
0.584246
 31
0.0
210
0.0
220
0.0
230
1.0
  0
LINE
  5
2FC
100
AcDbEntity
  8
0
370
     5
390
0
 62
     7
 48
0.000067
100
AcDbLine
 10
8.120915
 20
0.584246
 30
0.0
 11
8.123219
 21
0.582873
 31
0.0
210
0.0
220
0.0
230
1.0
  0
LINE
  5
2FD
100
AcDbEntity
  8
0
370
     5
390
0
 62
     7
 48
0.000069
100
AcDbLine
 10
8.123219
 20
0.582873
 30
0.0
 11
8.125449
 21
0.581235
 31
0.0
210
0.0
220
0.0
230
1.0
  0
LINE
  5
2FE
100
AcDbEntity
  8
0
370
     5
390
0
 62
     7
 48
0.000072
100
AcDbLine
 10
8.125449
 20
0.581235
 30
0.0
 11
8.127607
 21
0.579333
 31
0.0
210
0.0
220
0.0
230
1.0
  0
LINE
  5
2FF
100
AcDbEntity
  8
0
370
     5
390
0
 62
     7
 48
0.000063
100
AcDbLine
 10
8.127607
 20
0.579333
 30
0.0
 11
8.126338
 21
0.581511
 31
0.0
210
0.0
220
0.0
230
1.0
  0
LINE
  5
300
100
AcDbEntity
  8
0
370
     5
390
0
 62
     7
 48
0.000063
100
AcDbLine
 10
8.126338
 20
0.581511
 30
0.0
 11
8.124737
 21
0.583461
 31
0.0
210
0.0
220
0.0
230
1.0
  0
LINE
  5
301
100
AcDbEntity
  8
0
370
     5
390
0
 62
     7
 48
0.000065
100
AcDbLine
 10
8.124737
 20
0.583461
 30
0.0
 11
8.122807
 21
0.58518
 31
0.0
210
0.0
220
0.0
230
1.0
  0
LINE
  5
302
100
AcDbEntity
  8
0
370
     5
390
0
 62
     7
 48
0.000068
100
AcDbLine
 10
8.122807
 20
0.58518
 30
0.0
 11
8.120546
 21
0.586671
 31
0.0
210
0.0
220
0.0
230
1.0
  0
LINE
  5
303
100
AcDbEntity
  8
0
370
     5
390
0
 62
     7
 48
0.000072
100
AcDbLine
 10
8.120546
 20
0.586671
 30
0.0
 11
8.117954
 21
0.587933
 31
0.0
210
0.0
220
0.0
230
1.0
  0
LINE
  5
304
100
AcDbEntity
  8
0
370
     5
390
0
 62
     7
 48
0.000078
100
AcDbLine
 10
8.117954
 20
0.587933
 30
0.0
 11
8.115029
 21
0.588965
 31
0.0
210
0.0
220
0.0
230
1.0
  0
LINE
  5
305
100
AcDbEntity
  8
0
370
     5
390
0
 62
     7
 48
0.000084
100
AcDbLine
 10
8.115029
 20
0.588965
 30
0.0
 11
8.111775
 21
0.589767
 31
0.0
210
0.0
220
0.0
230
1.0
  0
LINE
  5
306
100
AcDbEntity
  8
0
370
     5
390
0
 62
     7
 48
0.000091
100
AcDbLine
 10
8.111775
 20
0.589767
 30
0.0
 11
8.108189
 21
0.59034
 31
0.0
210
0.0
220
0.0
230
1.0
  0
LINE
  5
307
100
AcDbEntity
  8
0
370
     5
390
0
 62
     7
 48
0.000098
100
AcDbLine
 10
8.108189
 20
0.59034
 30
0.0
 11
8.104273
 21
0.590684
 31
0.0
210
0.0
220
0.0
230
1.0
  0
LINE
  5
308
100
AcDbEntity
  8
0
370
     5
390
0
 62
     7
 48
0.000106
100
AcDbLine
 10
8.104273
 20
0.590684
 30
0.0
 11
8.100026
 21
0.590798
 31
0.0
210
0.0
220
0.0
230
1.0
  0
LINE
  5
309
100
AcDbEntity
  8
0
370
     5
390
0
 62
     7
 48
0.000075
100
AcDbLine
 10
8.100026
 20
0.590798
 30
0.0
 11
8.097032
 21
0.590786
 31
0.0
210
0.0
220
0.0
230
1.0
  0
LINE
  5
30A
100
AcDbEntity
  8
0
370
     5
390
0
 62
     7
 48
0.000073
100
AcDbLine
 10
8.097032
 20
0.590786
 30
0.0
 11
8.094107
 21
0.590747
 31
0.0
210
0.0
220
0.0
230
1.0
  0
LINE
  5
30B
100
AcDbEntity
  8
0
370
     5
390
0
 62
     7
 48
0.000071
100
AcDbLine
 10
8.094107
 20
0.590747
 30
0.0
 11
8.091251
 21
0.590682
 31
0.0
210
0.0
220
0.0
230
1.0
  0
LINE
  5
30C
100
AcDbEntity
  8
0
370
     5
390
0
 62
     7
 48
0.00007
100
AcDbLine
 10
8.091251
 20
0.590682
 30
0.0
 11
8.088465
 21
0.590591
 31
0.0
210
0.0
220
0.0
230
1.0
  0
LINE
  5
30D
100
AcDbEntity
  8
0
370
     5
390
0
 62
     7
 48
0.000068
100
AcDbLine
 10
8.088465
 20
0.590591
 30
0.0
 11
8.085749
 21
0.590474
 31
0.0
210
0.0
220
0.0
230
1.0
  0
LINE
  5
30E
100
AcDbEntity
  8
0
370
     5
390
0
 62
     7
 48
0.000078
100
AcDbLine
 10
8.085749
 20
0.590474
 30
0.0
 11
8.082612
 21
0.590366
 31
0.0
210
0.0
220
0.0
230
1.0
  0
LINE
  5
30F
100
AcDbEntity
  8
0
370
     5
390
0
 62
     7
 48
0.001117
100
AcDbLine
 10
8.082612
 20
0.590366
 30
0.0
 11
8.082612
 21
0.545696
 31
0.0
210
0.0
220
0.0
230
1.0
  0
LINE
  5
310
100
AcDbEntity
  8
0
370
     5
390
0
 62
     7
 48
0.000165
100
AcDbLine
 10
8.082612
 20
0.545696
 30
0.0
 11
8.076014
 21
0.545696
 31
0.0
210
0.0
220
0.0
230
1.0
  0
LINE
  5
311
100
AcDbEntity
  8
0
370
     5
390
0
 62
     7
 48
0.001265
100
AcDbLine
 10
8.076014
 20
0.545696
 30
0.0
 11
8.076014
 21
0.596315
 31
0.0
210
0.0
220
0.0
230
1.0
  0
LINE
  5
312
100
AcDbEntity
  8
0
370
     5
390
0
 62
     7
 48
0.0001
100
AcDbLine
 10
8.076014
 20
0.596315
 30
0.0
 11
8.080016
 21
0.596207
 31
0.0
210
0.0
220
0.0
230
1.0
  0
LINE
  5
313
100
AcDbEntity
  8
0
370
     5
390
0
 62
     7
 48
0.000262
100
AcDbLine
 10
8.080016
 20
0.596207
 30
0.0
 11
8.090507
 21
0.596099
 31
0.0
210
0.0
220
0.0
230
1.0
  0
LINE
  5
314
100
AcDbEntity
  8
0
370
     5
390
0
 62
     7
 48
0.000154
100
AcDbLine
 10
8.090507
 20
0.596099
 30
0.0
 11
8.096672
 21
0.596207
 31
0.0
210
0.0
220
0.0
230
1.0
  0
LINE
  5
315
100
AcDbEntity
  8
0
370
     5
390
0
 62
     7
 48
0.00008
100
AcDbLine
 10
8.096672
 20
0.596207
 30
0.0
 11
8.099887
 21
0.596163
 31
0.0
210
0.0
220
0.0
230
1.0
  0
LINE
  5
316
100
AcDbEntity
  8
0
370
     5
390
0
 62
     7
 48
0.000076
100
AcDbLine
 10
8.099887
 20
0.596163
 30
0.0
 11
8.102909
 21
0.596033
 31
0.0
210
0.0
220
0.0
230
1.0
  0
LINE
  5
317
100
AcDbEntity
  8
0
370
     5
390
0
 62
     7
 48
0.000071
100
AcDbLine
 10
8.102909
 20
0.596033
 30
0.0
 11
8.10574
 21
0.595817
 31
0.0
210
0.0
220
0.0
230
1.0
  0
LINE
  5
318
100
AcDbEntity
  8
0
370
     5
390
0
 62
     7
 48
0.000066
100
AcDbLine
 10
8.10574
 20
0.595817
 30
0.0
 11
8.108379
 21
0.595514
 31
0.0
210
0.0
220
0.0
230
1.0
  0
LINE
  5
319
100
AcDbEntity
  8
0
370
     5
390
0
 62
     7
 48
0.000062
100
AcDbLine
 10
8.108379
 20
0.595514
 30
0.0
 11
8.110827
 21
0.595125
 31
0.0
210
0.0
220
0.0
230
1.0
  0
LINE
  5
31A
100
AcDbEntity
  8
0
370
     5
390
0
 62
     7
 48
0.000058
100
AcDbLine
 10
8.110827
 20
0.595125
 30
0.0
 11
8.113085
 21
0.594648
 31
0.0
210
0.0
220
0.0
230
1.0
  0
LINE
  5
31B
100
AcDbEntity
  8
0
370
     5
390
0
 62
     7
 48
0.000054
100
AcDbLine
 10
8.113085
 20
0.594648
 30
0.0
 11
8.11515
 21
0.594086
 31
0.0
210
0.0
220
0.0
230
1.0
  0
LINE
  5
31C
100
AcDbEntity
  8
0
370
     5
390
0
 62
     7
 48
0.00005
100
AcDbLine
 10
8.11515
 20
0.594086
 30
0.0
 11
8.117024
 21
0.593438
 31
0.0
210
0.0
220
0.0
230
1.0
  0
LINE
  5
31D
100
AcDbEntity
  8
0
370
     5
390
0
 62
     7
 48
0.000046
100
AcDbLine
 10
8.117024
 20
0.593438
 30
0.0
 11
8.118707
 21
0.592701
 31
0.0
210
0.0
220
0.0
230
1.0
  0
LINE
  5
31E
100
AcDbEntity
  8
0
370
     5
390
0
 62
     7
 48
0.000043
100
AcDbLine
 10
8.118707
 20
0.592701
 30
0.0
 11
8.120198
 21
0.591881
 31
0.0
210
0.0
220
0.0
230
1.0
  0
LINE
  5
31F
100
AcDbEntity
  8
0
370
     5
390
0
 62
     7
 48
0.000043
100
AcDbLine
 10
8.120198
 20
0.591881
 30
0.0
 11
8.121594
 21
0.59091
 31
0.0
210
0.0
220
0.0
230
1.0
  0
LINE
  5
320
100
AcDbEntity
  8
0
370
     5
390
0
 62
     7
 48
0.000046
100
AcDbLine
 10
8.121594
 20
0.59091
 30
0.0
 11
8.122994
 21
0.589734
 31
0.0
210
0.0
220
0.0
230
1.0
  0
LINE
  5
321
100
AcDbEntity
  8
0
370
     5
390
0
 62
     7
 48
0.000049
100
AcDbLine
 10
8.122994
 20
0.589734
 30
0.0
 11
8.124398
 21
0.58835
 31
0.0
210
0.0
220
0.0
230
1.0
  0
LINE
  5
322
100
AcDbEntity
  8
0
370
     5
390
0
 62
     7
 48
0.000053
100
AcDbLine
 10
8.124398
 20
0.58835
 30
0.0
 11
8.125804
 21
0.586758
 31
0.0
210
0.0
220
0.0
230
1.0
  0
LINE
  5
323
100
AcDbEntity
  8
0
370
     5
390
0
 62
     7
 48
0.000057
100
AcDbLine
 10
8.125804
 20
0.586758
 30
0.0
 11
8.127215
 21
0.584958
 31
0.0
210
0.0
220
0.0
230
1.0
  0
LINE
  5
324
100
AcDbEntity
  8
0
370
     5
390
0
 62
     7
 48
0.000061
100
AcDbLine
 10
8.127215
 20
0.584958
 30
0.0
 11
8.128628
 21
0.582951
 31
0.0
210
0.0
220
0.0
230
1.0
  0
LINE
  5
325
100
AcDbEntity
  8
0
370
     5
390
0
 62
     7
 48
0.000066
100
AcDbLine
 10
8.128628
 20
0.582951
 30
0.0
 11
8.130044
 21
0.580736
 31
0.0
210
0.0
220
0.0
230
1.0
  0
LINE
  5
326
100
AcDbEntity
  8
0
370
     5
390
0
 62
     7
 48
0.00007
100
AcDbLine
 10
8.130044
 20
0.580736
 30
0.0
 11
8.131463
 21
0.578313
 31
0.0
210
0.0
220
0.0
230
1.0
  0
LINE
  5
327
100
AcDbEntity
  8
0
370
     5
390
0
 62
     7
 48
0.000075
100
AcDbLine
 10
8.131463
 20
0.578313
 30
0.0
 11
8.132887
 21
0.575682
 31
0.0
210
0.0
220
0.0
230
1.0
  0
LINE
  5
328
100
AcDbEntity
  8
0
370
     5
390
0
 62
     7
 48
0.000079
100
AcDbLine
 10
8.132887
 20
0.575682
 30
0.0
 11
8.134311
 21
0.572844
 31
0.0
210
0.0
220
0.0
230
1.0
  0
LINE
  5
329
100
AcDbEntity
  8
0
370
     5
390
0
 62
     7
 48
0.000058
100
AcDbLine
 10
8.134311
 20
0.572844
 30
0.0
 11
8.135177
 21
0.575007
 31
0.0
210
0.0
220
0.0
230
1.0
  0
LINE
  5
32A
100
AcDbEntity
  8
0
370
     5
390
0
 62
     7
 48
0.000059
100
AcDbLine
 10
8.135177
 20
0.575007
 30
0.0
 11
8.136049
 21
0.577196
 31
0.0
210
0.0
220
0.0
230
1.0
  0
LINE
  5
32B
100
AcDbEntity
  8
0
370
     5
390
0
 62
     7
 48
0.000056
100
AcDbLine
 10
8.136049
 20
0.577196
 30
0.0
 11
8.136889
 21
0.57926
 31
0.0
210
0.0
220
0.0
230
1.0
  0
LINE
  5
32C
100
AcDbEntity
  8
0
370
     5
390
0
 62
     7
 48
0.000053
100
AcDbLine
 10
8.136889
 20
0.57926
 30
0.0
 11
8.137697
 21
0.581201
 31
0.0
210
0.0
220
0.0
230
1.0
  0
LINE
  5
32D
100
AcDbEntity
  8
0
370
     5
390
0
 62
     7
 48
0.000049
100
AcDbLine
 10
8.137697
 20
0.581201
 30
0.0
 11
8.138474
 21
0.583019
 31
0.0
210
0.0
220
0.0
230
1.0
  0
LINE
  5
32E
100
AcDbEntity
  8
0
370
     5
390
0
 62
     7
 48
0.000046
100
AcDbLine
 10
8.138474
 20
0.583019
 30
0.0
 11
8.13922
 21
0.584714
 31
0.0
210
0.0
220
0.0
230
1.0
  0
LINE
  5
32F
100
AcDbEntity
  8
0
370
     5
390
0
 62
     7
 48
0.000043
100
AcDbLine
 10
8.13922
 20
0.584714
 30
0.0
 11
8.139935
 21
0.586286
 31
0.0
210
0.0
220
0.0
230
1.0
  0
LINE
  5
330
100
AcDbEntity
  8
0
370
     5
390
0
 62
     7
 48
0.00004
100
AcDbLine
 10
8.139935
 20
0.586286
 30
0.0
 11
8.140617
 21
0.587735
 31
0.0
210
0.0
220
0.0
230
1.0
  0
LINE
  5
331
100
AcDbEntity
  8
0
370
     5
390
0
 62
     7
 48
0.000071
100
AcDbLine
 10
8.140617
 20
0.587735
 30
0.0
 11
8.14189
 21
0.590261
 31
0.0
210
0.0
220
0.0
230
1.0
  0
LINE
  5
332
100
AcDbEntity
  8
0
370
     5
390
0
 62
     7
 48
0.000061
100
AcDbLine
 10
8.14189
 20
0.590261
 30
0.0
 11
8.143089
 21
0.592394
 31
0.0
210
0.0
220
0.0
230
1.0
  0
LINE
  5
333
100
AcDbEntity
  8
0
370
     5
390
0
 62
     7
 48
0.000069
100
AcDbLine
 10
8.143089
 20
0.592394
 30
0.0
 11
8.144543
 21
0.594729
 31
0.0
210
0.0
220
0.0
230
1.0
  0
LINE
  5
334
100
AcDbEntity
  8
0
370
     5
390
0
 62
     7
 48
0.000038
100
AcDbLine
 10
8.144543
 20
0.594729
 30
0.0
 11
8.145386
 21
0.596012
 31
0.0
210
0.0
220
0.0
230
1.0
  0
LINE
  5
335
100
AcDbEntity
  8
0
370
     5
390
0
 62
     7
 48
0.000041
100
AcDbLine
 10
8.145386
 20
0.596012
 30
0.0
 11
8.146304
 21
0.597369
 31
0.0
210
0.0
220
0.0
230
1.0
  0
LINE
  5
336
100
AcDbEntity
  8
0
370
     5
390
0
 62
     7
 48
0.000044
100
AcDbLine
 10
8.146304
 20
0.597369
 30
0.0
 11
8.1473
 21
0.598802
 31
0.0
210
0.0
220
0.0
230
1.0
  0
LINE
  5
337
100
AcDbEntity
  8
0
370
     5
390
0
 62
     7
 48
0.000046
100
AcDbLine
 10
8.1473
 20
0.598802
 30
0.0
 11
8.148372
 21
0.600311
 31
0.0
210
0.0
220
0.0
230
1.0
  0
LINE
  5
338
100
AcDbEntity
  8
0
370
     5
390
0
 62
     7
 48
0.000049
100
AcDbLine
 10
8.148372
 20
0.600311
 30
0.0
 11
8.149522
 21
0.601895
 31
0.0
210
0.0
220
0.0
230
1.0
  0
LINE
  5
339
100
AcDbEntity
  8
0
370
     5
390
0
 62
     7
 48
0.000052
100
AcDbLine
 10
8.149522
 20
0.601895
 30
0.0
 11
8.150747
 21
0.603555
 31
0.0
210
0.0
220
0.0
230
1.0
  0
LINE
  5
33A
100
AcDbEntity
  8
0
370
     5
390
0
 62
     7
 48
0.000054
100
AcDbLine
 10
8.150747
 20
0.603555
 30
0.0
 11
8.152051
 21
0.605292
 31
0.0
210
0.0
220
0.0
230
1.0
  0
LINE
  5
33B
100
AcDbEntity
  8
0
370
     5
390
0
 62
     7
 48
0.002807
100
AcDbLine
 10
8.152051
 20
0.605292
 30
0.0
 11
8.03978
 21
0.605292
 31
0.0
210
0.0
220
0.0
230
1.0
  0
ENDBLK
  5
33C
100
AcDbEntity
  8
0
390
0
100
AcDbBlockEnd
  0
BLOCK
  5
33D
100
AcDbEntity
  8
0
370
     0
390
0
100
AcDbBlockBegin
  2
BLOCK7
 70
     0
 10
0.0
 20
0.0
 30
0.0
  3
BLOCK7
  1

  0
TEXT
  5
33E
100
AcDbEntity
  8
0
370
    13
390
0
 62
     7
 48
0.03937
100
AcDbText
 10
-3.459229
 20
0.4798
 30
0.0
 40
0.123032
  1
4
 72
     5
 11
-3.370333
 21
0.4798
 31
0.0
100
AcDbText
  0
TEXT
  5
33F
100
AcDbEntity
  8
0
370
    13
390
0
 62
     7
 48
0.03937
100
AcDbText
 10
-3.370333
 20
0.4798
 30
0.0
 40
0.123032
  1
X
 72
     5
 11
-3.233612
 21
0.4798
 31
0.0
100
AcDbText
  0
ENDBLK
  5
340
100
AcDbEntity
  8
0
390
0
100
AcDbBlockEnd
  0
BLOCK
  5
341
100
AcDbEntity
  8
0
370
     0
390
0
100
AcDbBlockBegin
  2
BLOCK8
 70
     0
 10
0.0
 20
0.0
 30
0.0
  3
BLOCK8
  1

  0
SOLID
  5
342
100
AcDbEntity
  8
0
370
    13
390
0
 62
     7
 48
0.03937
100
AcDbTrace
 10
-1.189923
 20
-1.608044
 30
0.0
 11
-1.070033
 21
-1.384749
 31
0.0
 12
-1.189923
 22
-1.608044
 32
0.0
 13
-1.255862
 23
-1.557091
 33
0.0
  0
SOLID
  5
343
100
AcDbEntity
  8
0
370
    13
390
0
 62
     7
 48
0.03937
100
AcDbTrace
 10
1.189923
 20
1.608044
 30
0.0
 11
1.070033
 21
1.384749
 31
0.0
 12
1.189923
 22
1.608044
 32
0.0
 13
1.255862
 23
1.557091
 33
0.0
  0
TEXT
  5
344
100
AcDbEntity
  8
0
370
    13
390
0
 62
     7
 48
0.03937
100
AcDbText
 10
1.908701
 20
1.683176
 30
0.0
 40
0.123031
  1
3.5
 72
     5
 11
2.130941
 21
1.683176
 31
0.0
100
AcDbText
  0
TEXT
  5
345
100
AcDbEntity
  8
0
370
    13
390
0
 62
     7
 48
0.03937
100
AcDbText
 10
2.130941
 20
1.683176
 30
0.0
 40
0.123031
  1
"
 72
     5
 11
2.221164
 21
1.683176
 31
0.0
100
AcDbText
  0
TEXT
  5
346
100
AcDbEntity
  8
0
370
    13
390
0
 62
     7
 48
0.03937
100
AcDbText
 10
1.66067
 20
1.683176
 30
0.0
 40
0.123031
  1
%%c
 72
     5
 11
1.783702
 21
1.683176
 31
0.0
100
AcDbText
  0
LINE
  5
347
100
AcDbEntity
  8
0
370
    13
390
0
 62
     7
 48
0.005312
100
AcDbLine
 10
1.34817
 20
1.744692
 30
0.0
 11
1.56067
 21
1.744692
 31
0.0
210
0.0
220
0.0
230
1.0
  0
LINE
  5
348
100
AcDbEntity
  8
0
370
    13
390
0
 62
     7
 48
0.003593
100
AcDbLine
 10
-1.31076
 20
-1.696279
 30
0.0
 11
-1.222892
 21
-1.582568
 31
0.0
210
0.0
220
0.0
230
1.0
  0
LINE
  5
349
100
AcDbEntity
  8
0
370
    13
390
0
 62
     7
 48
0.005122
100
AcDbLine
 10
1.222892
 20
1.582568
 30
0.0
 11
1.34817
 21
1.744692
 31
0.0
210
0.0
220
0.0
230
1.0
  0
POLYLINE
  5
34A
100
AcDbEntity
  8
0
370
    13
390
0
 62
     7
 48
0.03937
100
AcDb2dPolyline
 66
     1
 10
0.0
 20
0.0
 30
0.0
 70
     1
 71
     3
  0
VERTEX
  5
34B
100
AcDbEntity
  8
0
370
     0
390
0
100
AcDbVertex
100
AcDb2dVertex
 10
-1.189923
 20
-1.608044
 30
0.0
  0
VERTEX
  5
34C
100
AcDbEntity
  8
0
370
     0
390
0
100
AcDbVertex
100
AcDb2dVertex
 10
-1.070033
 20
-1.384749
 30
0.0
  0
VERTEX
  5
34D
100
AcDbEntity
  8
0
370
     0
390
0
100
AcDbVertex
100
AcDb2dVertex
 10
-1.255862
 20
-1.557091
 30
0.0
  0
SEQEND
  5
34E
100
AcDbEntity
  8
0
370
     0
390
0
  0
POLYLINE
  5
34F
100
AcDbEntity
  8
0
370
    13
390
0
 62
     7
 48
0.03937
100
AcDb2dPolyline
 66
     1
 10
0.0
 20
0.0
 30
0.0
 70
     1
 71
     3
  0
VERTEX
  5
350
100
AcDbEntity
  8
0
370
     0
390
0
100
AcDbVertex
100
AcDb2dVertex
 10
1.189923
 20
1.608044
 30
0.0
  0
VERTEX
  5
351
100
AcDbEntity
  8
0
370
     0
390
0
100
AcDbVertex
100
AcDb2dVertex
 10
1.070033
 20
1.384749
 30
0.0
  0
VERTEX
  5
352
100
AcDbEntity
  8
0
370
     0
390
0
100
AcDbVertex
100
AcDb2dVertex
 10
1.255862
 20
1.557091
 30
0.0
  0
SEQEND
  5
353
100
AcDbEntity
  8
0
370
     0
390
0
  0
ENDBLK
  5
354
100
AcDbEntity
  8
0
390
0
100
AcDbBlockEnd
  0
BLOCK
  5
355
100
AcDbEntity
  8
0
370
     0
390
0
100
AcDbBlockBegin
  2
BLOCK9
 70
     0
 10
0.0
 20
0.0
 30
0.0
  3
BLOCK9
  1

  0
SOLID
  5
356
100
AcDbEntity
  8
0
370
    13
390
0
 62
     7
 48
0.03937
100
AcDbTrace
 10
-1.744002
 20
0.091729
 30
0.0
 11
-1.491236
 21
0.073192
 31
0.0
 12
-1.744002
 22
0.091729
 32
0.0
 13
-1.724327
 23
0.172705
 33
0.0
  0
TEXT
  5
357
100
AcDbEntity
  8
0
370
    13
390
0
 62
     7
 48
0.03937
100
AcDbText
 10
-3.199717
 20
0.253343
 30
0.0
 40
0.123031
  1
0.62
 72
     5
 11
-2.888582
 21
0.253343
 31
0.0
100
AcDbText
  0
TEXT
  5
358
100
AcDbEntity
  8
0
370
    13
390
0
 62
     7
 48
0.03937
100
AcDbText
 10
-2.888582
 20
0.253343
 30
0.0
 40
0.123031
  1
"
 72
     5
 11
-2.798359
 21
0.253343
 31
0.0
100
AcDbText
  0
TEXT
  5
359
100
AcDbEntity
  8
0
370
    13
390
0
 62
     7
 48
0.03937
100
AcDbText
 10
-3.447749
 20
0.253343
 30
0.0
 40
0.123031
  1
%%c
 72
     5
 11
-3.324717
 21
0.253343
 31
0.0
100
AcDbText
  0
LINE
  5
35A
100
AcDbEntity
  8
0
370
    13
390
0
 62
     7
 48
0.005313
100
AcDbLine
 10
-2.485859
 20
0.314859
 30
0.0
 11
-2.698359
 21
0.314859
 31
0.0
210
0.0
220
0.0
230
1.0
  0
LINE
  5
35B
100
AcDbEntity
  8
0
370
    13
390
0
 62
     7
 48
0.019339
100
AcDbLine
 10
-1.734164
 20
0.132217
 30
0.0
 11
-2.485859
 21
0.314859
 31
0.0
210
0.0
220
0.0
230
1.0
  0
POLYLINE
  5
35C
100
AcDbEntity
  8
0
370
    13
390
0
 62
     7
 48
0.03937
100
AcDb2dPolyline
 66
     1
 10
0.0
 20
0.0
 30
0.0
 70
     1
 71
     3
  0
VERTEX
  5
35D
100
AcDbEntity
  8
0
370
     0
390
0
100
AcDbVertex
100
AcDb2dVertex
 10
-1.744002
 20
0.091729
 30
0.0
  0
VERTEX
  5
35E
100
AcDbEntity
  8
0
370
     0
390
0
100
AcDbVertex
100
AcDb2dVertex
 10
-1.491236
 20
0.073192
 30
0.0
  0
VERTEX
  5
35F
100
AcDbEntity
  8
0
370
     0
390
0
100
AcDbVertex
100
AcDb2dVertex
 10
-1.724327
 20
0.172705
 30
0.0
  0
SEQEND
  5
360
100
AcDbEntity
  8
0
370
     0
390
0
  0
ENDBLK
  5
361
100
AcDbEntity
  8
0
390
0
100
AcDbBlockEnd
  0
BLOCK
  5
362
100
AcDbEntity
  8
0
370
     0
390
0
100
AcDbBlockBegin
  2
BLOCK10
 70
     0
 10
0.0
 20
0.0
 30
0.0
  3
BLOCK10
  1

  0
SOLID
  5
363
100
AcDbEntity
  8
0
370
    13
390
0
 62
     7
 48
0.03937
100
AcDbTrace
 10
-0.643276
 20
0.686686
 30
0.0
 11
-0.851217
 21
0.831582
 31
0.0
 12
-0.643276
 22
0.686686
 32
0.0
 13
-0.701509
 23
0.627078
 33
0.0
  0
SOLID
  5
364
100
AcDbEntity
  8
0
370
    13
390
0
 62
     7
 48
0.03937
100
AcDbTrace
 10
0.643276
 20
-0.686686
 30
0.0
 11
0.851217
 21
-0.831582
 31
0.0
 12
0.643276
 22
-0.686686
 32
0.0
 13
0.701509
 23
-0.627078
 33
0.0
  0
TEXT
  5
365
100
AcDbEntity
  8
0
370
    13
390
0
 62
     7
 48
0.03937
100
AcDbText
 10
2.036947
 20
-1.503874
 30
0.0
 40
0.123031
  1
2.38
 72
     5
 11
2.348082
 21
-1.503874
 31
0.0
100
AcDbText
  0
TEXT
  5
366
100
AcDbEntity
  8
0
370
    13
390
0
 62
     7
 48
0.03937
100
AcDbText
 10
2.348082
 20
-1.503874
 30
0.0
 40
0.123031
  1
"
 72
     5
 11
2.438305
 21
-1.503874
 31
0.0
100
AcDbText
  0
TEXT
  5
367
100
AcDbEntity
  8
0
370
    13
390
0
 62
     7
 48
0.03937
100
AcDbText
 10
1.788916
 20
-1.503874
 30
0.0
 40
0.123031
  1
%%c
 72
     5
 11
1.911947
 21
-1.503874
 31
0.0
100
AcDbText
  0
TEXT
  5
368
100
AcDbEntity
  8
0
370
    13
390
0
 62
     7
 48
0.03937
100
AcDbText
 10
1.788916
 20
-1.700725
 30
0.0
 40
0.123031
  1
BOLT CIRCLE
 72
     5
 11
3.024209
 21
-1.700725
 31
0.0
100
AcDbText
  0
LINE
  5
369
100
AcDbEntity
  8
0
370
    13
390
0
 62
     7
 48
0.005313
100
AcDbLine
 10
1.476416
 20
-1.442359
 30
0.0
 11
1.688916
 21
-1.442359
 31
0.0
210
0.0
220
0.0
230
1.0
  0
ARC
  5
36A
100
AcDbEntity
  8
0
370
    13
390
0
 62
     7
 48
0.03937
100
AcDbCircle
 10
0.0
 20
0.0
 30
0.0
 40
1.19
210
0.0
220
0.0
230
1.0
100
AcDbArc
 50
258.766911
 51
320.407453
  0
LINE
  5
36B
100
AcDbEntity
  8
0
370
    13
390
0
 62
     7
 48
0.03937
100
AcDbLine
 10
-0.672393
 20
0.656882
 30
0.0
 11
0.672393
 21
-0.656882
 31
0.0
210
0.0
220
0.0
230
1.0
  0
LINE
  5
36C
100
AcDbEntity
  8
0
370
    13
390
0
 62
     7
 48
0.03937
100
AcDbLine
 10
0.851217
 20
-0.831582
 30
0.0
 11
1.476416
 21
-1.442359
 31
0.0
210
0.0
220
0.0
230
1.0
  0
POLYLINE
  5
36D
100
AcDbEntity
  8
0
370
    13
390
0
 62
     7
 48
0.03937
100
AcDb2dPolyline
 66
     1
 10
0.0
 20
0.0
 30
0.0
 70
     1
 71
     3
  0
VERTEX
  5
36E
100
AcDbEntity
  8
0
370
     0
390
0
100
AcDbVertex
100
AcDb2dVertex
 10
-0.643276
 20
0.686686
 30
0.0
  0
VERTEX
  5
36F
100
AcDbEntity
  8
0
370
     0
390
0
100
AcDbVertex
100
AcDb2dVertex
 10
-0.851217
 20
0.831582
 30
0.0
  0
VERTEX
  5
370
100
AcDbEntity
  8
0
370
     0
390
0
100
AcDbVertex
100
AcDb2dVertex
 10
-0.701509
 20
0.627078
 30
0.0
  0
SEQEND
  5
371
100
AcDbEntity
  8
0
370
     0
390
0
  0
POLYLINE
  5
372
100
AcDbEntity
  8
0
370
    13
390
0
 62
     7
 48
0.03937
100
AcDb2dPolyline
 66
     1
 10
0.0
 20
0.0
 30
0.0
 70
     1
 71
     3
  0
VERTEX
  5
373
100
AcDbEntity
  8
0
370
     0
390
0
100
AcDbVertex
100
AcDb2dVertex
 10
0.643276
 20
-0.686686
 30
0.0
  0
VERTEX
  5
374
100
AcDbEntity
  8
0
370
     0
390
0
100
AcDbVertex
100
AcDb2dVertex
 10
0.851217
 20
-0.831582
 30
0.0
  0
VERTEX
  5
375
100
AcDbEntity
  8
0
370
     0
390
0
100
AcDbVertex
100
AcDb2dVertex
 10
0.701509
 20
-0.627078
 30
0.0
  0
SEQEND
  5
376
100
AcDbEntity
  8
0
370
     0
390
0
  0
ENDBLK
  5
377
100
AcDbEntity
  8
0
390
0
100
AcDbBlockEnd
  0
BLOCK
  5
378
100
AcDbEntity
  8
0
370
     0
390
0
100
AcDbBlockBegin
  2
BLOCK11
 70
     0
 10
0.0
 20
0.0
 30
0.0
  3
BLOCK11
  1

  0
LINE
  5
379
100
AcDbEntity
  8
0
370
    13
390
0
  6
DASHDOT
 62
     7
 48
0.03937
100
AcDbLine
 10
-2.727518
 20
0.0
 30
0.0
 11
0.347518
 21
0.0
 31
0.0
210
0.0
220
0.0
230
1.0
  0
ARC
  5
37A
100
AcDbEntity
  8
0
370
    13
390
0
  6
DASHDOT
 62
     7
 48
0.03937
100
AcDbCircle
 10
0.0
 20
0.0
 30
0.0
 40
1.19
210
0.0
220
0.0
230
1.0
100
AcDbArc
 50
105.972045
 51
254.027955
  0
ENDBLK
  5
37B
100
AcDbEntity
  8
0
390
0
100
AcDbBlockEnd
  0
BLOCK
  5
37C
100
AcDbEntity
  8
0
370
     0
390
0
100
AcDbBlockBegin
  2
BLOCK12
 70
     0
 10
0.0
 20
0.0
 30
0.0
  3
BLOCK12
  1

  0
LINE
  5
37D
100
AcDbEntity
  8
0
370
    13
390
0
  6
DASHDOT
 62
     7
 48
0.03937
100
AcDbLine
 10
0.0
 20
2.587646
 30
0.0
 11
0.0
 21
-0.207645
 31
0.0
210
0.0
220
0.0
230
1.0
  0
ARC
  5
37E
100
AcDbEntity
  8
0
370
    13
390
0
  6
DASHDOT
 62
     7
 48
0.03937
100
AcDbCircle
 10
0.0
 20
0.0
 30
0.0
 40
1.19
210
0.0
220
0.0
230
1.0
100
AcDbArc
 50
22.706563
 51
157.293437
  0
ENDBLK
  5
37F
100
AcDbEntity
  8
0
390
0
100
AcDbBlockEnd
  0
BLOCK
  5
380
100
AcDbEntity
  8
0
370
     0
390
0
100
AcDbBlockBegin
  2
BLOCK13
 70
     0
 10
0.0
 20
0.0
 30
0.0
  3
BLOCK13
  1

  0
LINE
  5
381
100
AcDbEntity
  8
0
370
    13
390
0
  6
DASHDOT
 62
     7
 48
0.03937
100
AcDbLine
 10
2.711976
 20
0.0
 30
0.0
 11
-0.331976
 21
0.0
 31
0.0
210
0.0
220
0.0
230
1.0
  0
ARC
  5
382
100
AcDbEntity
  8
0
370
    13
390
0
  6
DASHDOT
 62
     7
 48
0.03937
100
AcDbCircle
 10
0.0
 20
0.0
 30
0.0
 40
1.19
210
0.0
220
0.0
230
1.0
100
AcDbArc
 50
286.720335
 51
73.279672
  0
ENDBLK
  5
383
100
AcDbEntity
  8
0
390
0
100
AcDbBlockEnd
  0
BLOCK
  5
384
100
AcDbEntity
  8
0
370
     0
390
0
100
AcDbBlockBegin
  2
BLOCK14
 70
     0
 10
0.0
 20
0.0
 30
0.0
  3
BLOCK14
  1

  0
LINE
  5
385
100
AcDbEntity
  8
0
370
    13
390
0
  6
DASHDOT
 62
     7
 48
0.03937
100
AcDbLine
 10
0.0
 20
-2.542736
 30
0.0
 11
0.0
 21
0.162736
 31
0.0
210
0.0
220
0.0
230
1.0
  0
ARC
  5
386
100
AcDbEntity
  8
0
370
    13
390
0
  6
DASHDOT
 62
     7
 48
0.03937
100
AcDbCircle
 10
0.0
 20
0.0
 30
0.0
 40
1.19
210
0.0
220
0.0
230
1.0
100
AcDbArc
 50
204.868864
 51
335.131128
  0
ENDBLK
  5
387
100
AcDbEntity
  8
0
390
0
100
AcDbBlockEnd
  0
BLOCK
  5
388
100
AcDbEntity
  8
0
370
     0
390
0
100
AcDbBlockBegin
  2
BLOCK15
 70
     0
 10
0.0
 20
0.0
 30
0.0
  3
BLOCK15
  1

  0
SOLID
  5
389
100
AcDbEntity
  8
0
370
    13
390
0
 62
     7
 48
0.03937
100
AcDbTrace
 10
0.689997
 20
-0.44988
 30
0.0
 11
0.44
 21
-0.491546
 31
0.0
 12
0.689997
 22
-0.44988
 32
0.0
 13
0.689997
 23
-0.533212
 33
0.0
  0
SOLID
  5
38A
100
AcDbEntity
  8
0
370
    13
390
0
 62
     7
 48
0.03937
100
AcDbTrace
 10
-0.689997
 20
-0.533212
 30
0.0
 11
-0.44
 21
-0.491546
 31
0.0
 12
-0.689997
 22
-0.533212
 32
0.0
 13
-0.689997
 23
-0.44988
 33
0.0
  0
TEXT
  5
38B
100
AcDbEntity
  8
0
370
    13
390
0
 62
     7
 48
0.03937
100
AcDbText
 10
-0.076663
 20
-0.553062
 30
0.0
 40
0.123031
  1
0.88
 72
     5
 11
0.234471
 21
-0.553062
 31
0.0
100
AcDbText
  0
TEXT
  5
38C
100
AcDbEntity
  8
0
370
    13
390
0
 62
     7
 48
0.03937
100
AcDbText
 10
0.234471
 20
-0.553062
 30
0.0
 40
0.123031
  1
"
 72
     5
 11
0.324695
 21
-0.553062
 31
0.0
100
AcDbText
  0
TEXT
  5
38D
100
AcDbEntity
  8
0
370
    13
390
0
 62
     7
 48
0.03937
100
AcDbText
 10
-0.324695
 20
-0.553062
 30
0.0
 40
0.123031
  1
%%c
 72
     5
 11
-0.201663
 21
-0.553062
 31
0.0
100
AcDbText
  0
LINE
  5
38E
100
AcDbEntity
  8
0
370
    13
390
0
 62
     7
 48
0.010726
100
AcDbLine
 10
-0.44
 20
-0.160925
 30
0.0
 11
-0.44
 21
-0.589972
 31
0.0
210
0.0
220
0.0
230
1.0
  0
LINE
  5
38F
100
AcDbEntity
  8
0
370
    13
390
0
 62
     7
 48
0.010726
100
AcDbLine
 10
0.44
 20
-0.160925
 30
0.0
 11
0.44
 21
-0.589972
 31
0.0
210
0.0
220
0.0
230
1.0
  0
LINE
  5
390
100
AcDbEntity
  8
0
370
    13
390
0
 62
     7
 48
0.003593
100
AcDbLine
 10
-0.833701
 20
-0.491546
 30
0.0
 11
-0.689997
 21
-0.491546
 31
0.0
210
0.0
220
0.0
230
1.0
  0
LINE
  5
391
100
AcDbEntity
  8
0
370
    13
390
0
 62
     7
 48
0.003593
100
AcDbLine
 10
0.689997
 20
-0.491546
 30
0.0
 11
0.833701
 21
-0.491546
 31
0.0
210
0.0
220
0.0
230
1.0
  0
POLYLINE
  5
392
100
AcDbEntity
  8
0
370
    13
390
0
 62
     7
 48
0.03937
100
AcDb2dPolyline
 66
     1
 10
0.0
 20
0.0
 30
0.0
 70
     1
 71
     3
  0
VERTEX
  5
393
100
AcDbEntity
  8
0
370
     0
390
0
100
AcDbVertex
100
AcDb2dVertex
 10
0.689997
 20
-0.44988
 30
0.0
  0
VERTEX
  5
394
100
AcDbEntity
  8
0
370
     0
390
0
100
AcDbVertex
100
AcDb2dVertex
 10
0.44
 20
-0.491546
 30
0.0
  0
VERTEX
  5
395
100
AcDbEntity
  8
0
370
     0
390
0
100
AcDbVertex
100
AcDb2dVertex
 10
0.689997
 20
-0.533212
 30
0.0
  0
SEQEND
  5
396
100
AcDbEntity
  8
0
370
     0
390
0
  0
POLYLINE
  5
397
100
AcDbEntity
  8
0
370
    13
390
0
 62
     7
 48
0.03937
100
AcDb2dPolyline
 66
     1
 10
0.0
 20
0.0
 30
0.0
 70
     1
 71
     3
  0
VERTEX
  5
398
100
AcDbEntity
  8
0
370
     0
390
0
100
AcDbVertex
100
AcDb2dVertex
 10
-0.689997
 20
-0.533212
 30
0.0
  0
VERTEX
  5
399
100
AcDbEntity
  8
0
370
     0
390
0
100
AcDbVertex
100
AcDb2dVertex
 10
-0.44
 20
-0.491546
 30
0.0
  0
VERTEX
  5
39A
100
AcDbEntity
  8
0
370
     0
390
0
100
AcDbVertex
100
AcDb2dVertex
 10
-0.689997
 20
-0.44988
 30
0.0
  0
SEQEND
  5
39B
100
AcDbEntity
  8
0
370
     0
390
0
  0
ENDBLK
  5
39C
100
AcDbEntity
  8
0
390
0
100
AcDbBlockEnd
  0
BLOCK
  5
39D
100
AcDbEntity
  8
0
370
     0
390
0
100
AcDbBlockBegin
  2
BLOCK16
 70
     0
 10
0.0
 20
0.0
 30
0.0
  3
BLOCK16
  1

  0
SOLID
  5
39E
100
AcDbEntity
  8
0
370
    13
390
0
 62
     7
 48
0.03937
100
AcDbTrace
 10
0.440003
 20
-0.984393
 30
0.0
 11
0.69
 21
-0.942727
 31
0.0
 12
0.440003
 22
-0.984393
 32
0.0
 13
0.440003
 23
-0.901061
 33
0.0
  0
SOLID
  5
39F
100
AcDbEntity
  8
0
370
    13
390
0
 62
     7
 48
0.03937
100
AcDbTrace
 10
-0.440003
 20
-0.901061
 30
0.0
 11
-0.69
 21
-0.942727
 31
0.0
 12
-0.440003
 22
-0.901061
 32
0.0
 13
-0.440003
 23
-0.984393
 33
0.0
  0
TEXT
  5
3A0
100
AcDbEntity
  8
0
370
    13
390
0
 62
     7
 48
0.03937
100
AcDbText
 10
-0.080404
 20
-1.004243
 30
0.0
 40
0.123031
  1
1.38
 72
     5
 11
0.238212
 21
-1.004243
 31
0.0
100
AcDbText
  0
TEXT
  5
3A1
100
AcDbEntity
  8
0
370
    13
390
0
 62
     7
 48
0.03937
100
AcDbText
 10
0.238212
 20
-1.004243
 30
0.0
 40
0.123031
  1
"
 72
     5
 11
0.328435
 21
-1.004243
 31
0.0
100
AcDbText
  0
TEXT
  5
3A2
100
AcDbEntity
  8
0
370
    13
390
0
 62
     7
 48
0.03937
100
AcDbText
 10
-0.328435
 20
-1.004243
 30
0.0
 40
0.123031
  1
%%c
 72
     5
 11
-0.205404
 21
-1.004243
 31
0.0
100
AcDbText
  0
LINE
  5
3A3
100
AcDbEntity
  8
0
370
    13
390
0
 62
     7
 48
0.03937
100
AcDbLine
 10
-0.69
 20
-0.160925
 30
0.0
 11
-0.69
 21
-1.041153
 31
0.0
210
0.0
220
0.0
230
1.0
  0
LINE
  5
3A4
100
AcDbEntity
  8
0
370
    13
390
0
 62
     7
 48
0.03937
100
AcDbLine
 10
0.69
 20
-0.160925
 30
0.0
 11
0.69
 21
-1.041153
 31
0.0
210
0.0
220
0.0
230
1.0
  0
LINE
  5
3A5
100
AcDbEntity
  8
0
370
    13
390
0
 62
     7
 48
0.000289
100
AcDbLine
 10
-0.440003
 20
-0.942727
 30
0.0
 11
-0.428435
 21
-0.942727
 31
0.0
210
0.0
220
0.0
230
1.0
  0
LINE
  5
3A6
100
AcDbEntity
  8
0
370
    13
390
0
 62
     7
 48
0.000289
100
AcDbLine
 10
0.428435
 20
-0.942727
 30
0.0
 11
0.440003
 21
-0.942727
 31
0.0
210
0.0
220
0.0
230
1.0
  0
POLYLINE
  5
3A7
100
AcDbEntity
  8
0
370
    13
390
0
 62
     7
 48
0.03937
100
AcDb2dPolyline
 66
     1
 10
0.0
 20
0.0
 30
0.0
 70
     1
 71
     3
  0
VERTEX
  5
3A8
100
AcDbEntity
  8
0
370
     0
390
0
100
AcDbVertex
100
AcDb2dVertex
 10
0.440003
 20
-0.984393
 30
0.0
  0
VERTEX
  5
3A9
100
AcDbEntity
  8
0
370
     0
390
0
100
AcDbVertex
100
AcDb2dVertex
 10
0.69
 20
-0.942727
 30
0.0
  0
VERTEX
  5
3AA
100
AcDbEntity
  8
0
370
     0
390
0
100
AcDbVertex
100
AcDb2dVertex
 10
0.440003
 20
-0.901061
 30
0.0
  0
SEQEND
  5
3AB
100
AcDbEntity
  8
0
370
     0
390
0
  0
POLYLINE
  5
3AC
100
AcDbEntity
  8
0
370
    13
390
0
 62
     7
 48
0.03937
100
AcDb2dPolyline
 66
     1
 10
0.0
 20
0.0
 30
0.0
 70
     1
 71
     3
  0
VERTEX
  5
3AD
100
AcDbEntity
  8
0
370
     0
390
0
100
AcDbVertex
100
AcDb2dVertex
 10
-0.440003
 20
-0.901061
 30
0.0
  0
VERTEX
  5
3AE
100
AcDbEntity
  8
0
370
     0
390
0
100
AcDbVertex
100
AcDb2dVertex
 10
-0.69
 20
-0.942727
 30
0.0
  0
VERTEX
  5
3AF
100
AcDbEntity
  8
0
370
     0
390
0
100
AcDbVertex
100
AcDb2dVertex
 10
-0.440003
 20
-0.984393
 30
0.0
  0
SEQEND
  5
3B0
100
AcDbEntity
  8
0
370
     0
390
0
  0
ENDBLK
  5
3B1
100
AcDbEntity
  8
0
390
0
100
AcDbBlockEnd
  0
BLOCK
  5
3B2
100
AcDbEntity
  8
0
370
     0
390
0
100
AcDbBlockBegin
  2
BLOCK17
 70
     0
 10
0.0
 20
0.0
 30
0.0
  3
BLOCK17
  1

  0
SOLID
  5
3B3
100
AcDbEntity
  8
0
370
    13
390
0
 62
     7
 48
0.03937
100
AcDbTrace
 10
0.345003
 20
1.167006
 30
0.0
 11
0.595
 21
1.208672
 31
0.0
 12
0.345003
 22
1.167006
 32
0.0
 13
0.345003
 23
1.250338
 33
0.0
  0
SOLID
  5
3B4
100
AcDbEntity
  8
0
370
    13
390
0
 62
     7
 48
0.03937
100
AcDbTrace
 10
-0.345003
 20
1.250338
 30
0.0
 11
-0.595
 21
1.208672
 31
0.0
 12
-0.345003
 22
1.250338
 32
0.0
 13
-0.345003
 23
1.167006
 33
0.0
  0
TEXT
  5
3B5
100
AcDbEntity
  8
0
370
    13
390
0
 62
     7
 48
0.03937
100
AcDbText
 10
-0.035292
 20
1.147157
 30
0.0
 40
0.123031
  1
1.19
 72
     5
 11
0.283324
 21
1.147157
 31
0.0
100
AcDbText
  0
TEXT
  5
3B6
100
AcDbEntity
  8
0
370
    13
390
0
 62
     7
 48
0.03937
100
AcDbText
 10
-0.283324
 20
1.147157
 30
0.0
 40
0.123031
  1
%%c
 72
     5
 11
-0.160292
 21
1.147157
 31
0.0
100
AcDbText
  0
LINE
  5
3B7
100
AcDbEntity
  8
0
370
    13
390
0
 62
     7
 48
0.015696
100
AcDbLine
 10
-0.595
 20
0.679239
 30
0.0
 11
-0.595
 21
1.307097
 31
0.0
210
0.0
220
0.0
230
1.0
  0
LINE
  5
3B8
100
AcDbEntity
  8
0
370
    13
390
0
 62
     7
 48
0.016012
100
AcDbLine
 10
0.595
 20
0.666599
 30
0.0
 11
0.595
 21
1.307097
 31
0.0
210
0.0
220
0.0
230
1.0
  0
POLYLINE
  5
3B9
100
AcDbEntity
  8
0
370
    13
390
0
 62
     7
 48
0.03937
100
AcDb2dPolyline
 66
     1
 10
0.0
 20
0.0
 30
0.0
 70
     1
 71
     3
  0
VERTEX
  5
3BA
100
AcDbEntity
  8
0
370
     0
390
0
100
AcDbVertex
100
AcDb2dVertex
 10
0.345003
 20
1.167006
 30
0.0
  0
VERTEX
  5
3BB
100
AcDbEntity
  8
0
370
     0
390
0
100
AcDbVertex
100
AcDb2dVertex
 10
0.595
 20
1.208672
 30
0.0
  0
VERTEX
  5
3BC
100
AcDbEntity
  8
0
370
     0
390
0
100
AcDbVertex
100
AcDb2dVertex
 10
0.345003
 20
1.250338
 30
0.0
  0
SEQEND
  5
3BD
100
AcDbEntity
  8
0
370
     0
390
0
  0
POLYLINE
  5
3BE
100
AcDbEntity
  8
0
370
    13
390
0
 62
     7
 48
0.03937
100
AcDb2dPolyline
 66
     1
 10
0.0
 20
0.0
 30
0.0
 70
     1
 71
     3
  0
VERTEX
  5
3BF
100
AcDbEntity
  8
0
370
     0
390
0
100
AcDbVertex
100
AcDb2dVertex
 10
-0.345003
 20
1.250338
 30
0.0
  0
VERTEX
  5
3C0
100
AcDbEntity
  8
0
370
     0
390
0
100
AcDbVertex
100
AcDb2dVertex
 10
-0.595
 20
1.208672
 30
0.0
  0
VERTEX
  5
3C1
100
AcDbEntity
  8
0
370
     0
390
0
100
AcDbVertex
100
AcDb2dVertex
 10
-0.345003
 20
1.167006
 30
0.0
  0
SEQEND
  5
3C2
100
AcDbEntity
  8
0
370
     0
390
0
  0
ENDBLK
  5
3C3
100
AcDbEntity
  8
0
390
0
100
AcDbBlockEnd
  0
BLOCK
  5
3C4
100
AcDbEntity
  8
0
370
     0
390
0
100
AcDbBlockBegin
  2
BLOCK18
 70
     0
 10
0.0
 20
0.0
 30
0.0
  3
BLOCK18
  1

  0
SOLID
  5
3C5
100
AcDbEntity
  8
0
370
    13
390
0
 62
     7
 48
0.03937
100
AcDbTrace
 10
3.336566
 20
0.249997
 30
0.0
 11
3.378233
 21
0.0
 31
0.0
 12
3.336566
 22
0.249997
 32
0.0
 13
3.419898
 23
0.249997
 33
0.0
  0
SOLID
  5
3C6
100
AcDbEntity
  8
0
370
    13
390
0
 62
     7
 48
0.03937
100
AcDbTrace
 10
3.419898
 20
-0.312497
 30
0.0
 11
3.378233
 21
-0.0625
 31
0.0
 12
3.419898
 22
-0.312497
 32
0.0
 13
3.336566
 23
-0.312497
 33
0.0
  0
TEXT
  5
3C7
100
AcDbEntity
  8
0
370
    13
390
0
 62
     7
 48
0.03937
100
AcDbText
 10
3.133106
 20
-0.740315
 30
0.0
 40
0.123031
  1
0.063
 72
     5
 11
3.533136
 21
-0.740315
 31
0.0
100
AcDbText
  0
TEXT
  5
3C8
100
AcDbEntity
  8
0
370
    13
390
0
 62
     7
 48
0.03937
100
AcDbText
 10
3.533136
 20
-0.740315
 30
0.0
 40
0.123031
  1
"
 72
     5
 11
3.623359
 21
-0.740315
 31
0.0
100
AcDbText
  0
LINE
  5
3C9
100
AcDbEntity
  8
0
370
    13
390
0
 62
     7
 48
0.03937
100
AcDbLine
 10
0.788425
 20
-0.0625
 30
0.0
 11
3.476658
 21
-0.0625
 31
0.0
210
0.0
220
0.0
230
1.0
  0
LINE
  5
3CA
100
AcDbEntity
  8
0
370
    13
390
0
 62
     7
 48
0.03937
100
AcDbLine
 10
1.848425
 20
0.0
 30
0.0
 11
3.476658
 21
0.0
 31
0.0
210
0.0
220
0.0
230
1.0
  0
LINE
  5
3CB
100
AcDbEntity
  8
0
370
    13
390
0
 62
     7
 48
0.00512
100
AcDbLine
 10
3.378233
 20
-0.517284
 30
0.0
 11
3.378233
 21
-0.312497
 31
0.0
210
0.0
220
0.0
230
1.0
  0
LINE
  5
3CC
100
AcDbEntity
  8
0
370
    13
390
0
 62
     7
 48
0.003593
100
AcDbLine
 10
3.378233
 20
0.249997
 30
0.0
 11
3.378233
 21
0.393701
 31
0.0
210
0.0
220
0.0
230
1.0
  0
POLYLINE
  5
3CD
100
AcDbEntity
  8
0
370
    13
390
0
 62
     7
 48
0.03937
100
AcDb2dPolyline
 66
     1
 10
0.0
 20
0.0
 30
0.0
 70
     1
 71
     3
  0
VERTEX
  5
3CE
100
AcDbEntity
  8
0
370
     0
390
0
100
AcDbVertex
100
AcDb2dVertex
 10
3.336566
 20
0.249997
 30
0.0
  0
VERTEX
  5
3CF
100
AcDbEntity
  8
0
370
     0
390
0
100
AcDbVertex
100
AcDb2dVertex
 10
3.378233
 20
0.0
 30
0.0
  0
VERTEX
  5
3D0
100
AcDbEntity
  8
0
370
     0
390
0
100
AcDbVertex
100
AcDb2dVertex
 10
3.419898
 20
0.249997
 30
0.0
  0
SEQEND
  5
3D1
100
AcDbEntity
  8
0
370
     0
390
0
  0
POLYLINE
  5
3D2
100
AcDbEntity
  8
0
370
    13
390
0
 62
     7
 48
0.03937
100
AcDb2dPolyline
 66
     1
 10
0.0
 20
0.0
 30
0.0
 70
     1
 71
     3
  0
VERTEX
  5
3D3
100
AcDbEntity
  8
0
370
     0
390
0
100
AcDbVertex
100
AcDb2dVertex
 10
3.419898
 20
-0.312497
 30
0.0
  0
VERTEX
  5
3D4
100
AcDbEntity
  8
0
370
     0
390
0
100
AcDbVertex
100
AcDb2dVertex
 10
3.378233
 20
-0.0625
 30
0.0
  0
VERTEX
  5
3D5
100
AcDbEntity
  8
0
370
     0
390
0
100
AcDbVertex
100
AcDb2dVertex
 10
3.336566
 20
-0.312497
 30
0.0
  0
SEQEND
  5
3D6
100
AcDbEntity
  8
0
370
     0
390
0
  0
ENDBLK
  5
3D7
100
AcDbEntity
  8
0
390
0
100
AcDbBlockEnd
  0
BLOCK
  5
3D8
100
AcDbEntity
  8
0
370
     0
390
0
100
AcDbBlockBegin
  2
BLOCK19
 70
     0
 10
0.0
 20
0.0
 30
0.0
  3
BLOCK19
  1

  0
SOLID
  5
3D9
100
AcDbEntity
  8
0
370
    13
390
0
 62
     7
 48
0.03937
100
AcDbTrace
 10
2.927772
 20
-0.249997
 30
0.0
 11
2.886107
 21
0.0
 31
0.0
 12
2.927772
 22
-0.249997
 32
0.0
 13
2.84444
 23
-0.249997
 33
0.0
  0
SOLID
  5
3DA
100
AcDbEntity
  8
0
370
    13
390
0
 62
     7
 48
0.03937
100
AcDbTrace
 10
2.84444
 20
0.629997
 30
0.0
 11
2.886107
 21
0.38
 31
0.0
 12
2.84444
 22
0.629997
 32
0.0
 13
2.927772
 23
0.629997
 33
0.0
  0
TEXT
  5
3DB
100
AcDbEntity
  8
0
370
    13
390
0
 62
     7
 48
0.03937
100
AcDbText
 10
2.685428
 20
0.128484
 30
0.0
 40
0.123031
  1
0.38
 72
     5
 11
2.996562
 21
0.128484
 31
0.0
100
AcDbText
  0
TEXT
  5
3DC
100
AcDbEntity
  8
0
370
    13
390
0
 62
     7
 48
0.03937
100
AcDbText
 10
2.996562
 20
0.128484
 30
0.0
 40
0.123031
  1
"
 72
     5
 11
3.086785
 21
0.128484
 31
0.0
100
AcDbText
  0
LINE
  5
3DD
100
AcDbEntity
  8
0
370
    13
390
0
 62
     7
 48
0.03937
100
AcDbLine
 10
1.848425
 20
0.0
 30
0.0
 11
2.984532
 21
0.0
 31
0.0
210
0.0
220
0.0
230
1.0
  0
LINE
  5
3DE
100
AcDbEntity
  8
0
370
    13
390
0
 62
     7
 48
0.03937
100
AcDbLine
 10
1.848425
 20
0.38
 30
0.0
 11
2.984532
 21
0.38
 31
0.0
210
0.0
220
0.0
230
1.0
  0
LINE
  5
3DF
100
AcDbEntity
  8
0
370
    13
390
0
 62
     7
 48
0.003593
100
AcDbLine
 10
2.886107
 20
-0.393701
 30
0.0
 11
2.886107
 21
-0.249997
 31
0.0
210
0.0
220
0.0
230
1.0
  0
LINE
  5
3E0
100
AcDbEntity
  8
0
370
    13
390
0
 62
     7
 48
0.003593
100
AcDbLine
 10
2.886107
 20
0.629997
 30
0.0
 11
2.886107
 21
0.773701
 31
0.0
210
0.0
220
0.0
230
1.0
  0
POLYLINE
  5
3E1
100
AcDbEntity
  8
0
370
    13
390
0
 62
     7
 48
0.03937
100
AcDb2dPolyline
 66
     1
 10
0.0
 20
0.0
 30
0.0
 70
     1
 71
     3
  0
VERTEX
  5
3E2
100
AcDbEntity
  8
0
370
     0
390
0
100
AcDbVertex
100
AcDb2dVertex
 10
2.927772
 20
-0.249997
 30
0.0
  0
VERTEX
  5
3E3
100
AcDbEntity
  8
0
370
     0
390
0
100
AcDbVertex
100
AcDb2dVertex
 10
2.886107
 20
0.0
 30
0.0
  0
VERTEX
  5
3E4
100
AcDbEntity
  8
0
370
     0
390
0
100
AcDbVertex
100
AcDb2dVertex
 10
2.84444
 20
-0.249997
 30
0.0
  0
SEQEND
  5
3E5
100
AcDbEntity
  8
0
370
     0
390
0
  0
POLYLINE
  5
3E6
100
AcDbEntity
  8
0
370
    13
390
0
 62
     7
 48
0.03937
100
AcDb2dPolyline
 66
     1
 10
0.0
 20
0.0
 30
0.0
 70
     1
 71
     3
  0
VERTEX
  5
3E7
100
AcDbEntity
  8
0
370
     0
390
0
100
AcDbVertex
100
AcDb2dVertex
 10
2.84444
 20
0.629997
 30
0.0
  0
VERTEX
  5
3E8
100
AcDbEntity
  8
0
370
     0
390
0
100
AcDbVertex
100
AcDb2dVertex
 10
2.886107
 20
0.38
 30
0.0
  0
VERTEX
  5
3E9
100
AcDbEntity
  8
0
370
     0
390
0
100
AcDbVertex
100
AcDb2dVertex
 10
2.927772
 20
0.629997
 30
0.0
  0
SEQEND
  5
3EA
100
AcDbEntity
  8
0
370
     0
390
0
  0
ENDBLK
  5
3EB
100
AcDbEntity
  8
0
390
0
100
AcDbBlockEnd
  0
BLOCK
  5
3EC
100
AcDbEntity
  8
0
370
     0
390
0
100
AcDbBlockBegin
  2
BLOCK20
 70
     0
 10
0.0
 20
0.0
 30
0.0
  3
BLOCK20
  1

  0
SOLID
  5
3ED
100
AcDbEntity
  8
0
370
    13
390
0
 62
     7
 48
0.03937
100
AcDbTrace
 10
3.336566
 20
0.249997
 30
0.0
 11
3.378233
 21
0.0
 31
0.0
 12
3.336566
 22
0.249997
 32
0.0
 13
3.419898
 23
0.249997
 33
0.0
  0
SOLID
  5
3EE
100
AcDbEntity
  8
0
370
    13
390
0
 62
     7
 48
0.03937
100
AcDbTrace
 10
3.419898
 20
0.310003
 30
0.0
 11
3.378233
 21
0.56
 31
0.0
 12
3.419898
 22
0.310003
 32
0.0
 13
3.336566
 23
0.310003
 33
0.0
  0
TEXT
  5
3EF
100
AcDbEntity
  8
0
370
    13
390
0
 62
     7
 48
0.03937
100
AcDbText
 10
3.177554
 20
0.962664
 30
0.0
 40
0.123031
  1
0.56
 72
     5
 11
3.488688
 21
0.962664
 31
0.0
100
AcDbText
  0
TEXT
  5
3F0
100
AcDbEntity
  8
0
370
    13
390
0
 62
     7
 48
0.03937
100
AcDbText
 10
3.488688
 20
0.962664
 30
0.0
 40
0.123031
  1
"
 72
     5
 11
3.578911
 21
0.962664
 31
0.0
100
AcDbText
  0
LINE
  5
3F1
100
AcDbEntity
  8
0
370
    13
390
0
 62
     7
 48
0.03937
100
AcDbLine
 10
1.848425
 20
0.0
 30
0.0
 11
3.476658
 21
0.0
 31
0.0
210
0.0
220
0.0
230
1.0
  0
LINE
  5
3F2
100
AcDbEntity
  8
0
370
    13
390
0
 62
     7
 48
0.03937
100
AcDbLine
 10
0.61134
 20
0.56
 30
0.0
 11
3.476658
 21
0.56
 31
0.0
210
0.0
220
0.0
230
1.0
  0
LINE
  5
3F3
100
AcDbEntity
  8
0
370
    13
390
0
 62
     7
 48
0.0015
100
AcDbLine
 10
3.378233
 20
0.249997
 30
0.0
 11
3.378233
 21
0.310003
 31
0.0
210
0.0
220
0.0
230
1.0
  0
LINE
  5
3F4
100
AcDbEntity
  8
0
370
    13
390
0
 62
     7
 48
0.007567
100
AcDbLine
 10
3.378233
 20
0.56
 30
0.0
 11
3.378233
 21
0.862664
 31
0.0
210
0.0
220
0.0
230
1.0
  0
POLYLINE
  5
3F5
100
AcDbEntity
  8
0
370
    13
390
0
 62
     7
 48
0.03937
100
AcDb2dPolyline
 66
     1
 10
0.0
 20
0.0
 30
0.0
 70
     1
 71
     3
  0
VERTEX
  5
3F6
100
AcDbEntity
  8
0
370
     0
390
0
100
AcDbVertex
100
AcDb2dVertex
 10
3.336566
 20
0.249997
 30
0.0
  0
VERTEX
  5
3F7
100
AcDbEntity
  8
0
370
     0
390
0
100
AcDbVertex
100
AcDb2dVertex
 10
3.378233
 20
0.0
 30
0.0
  0
VERTEX
  5
3F8
100
AcDbEntity
  8
0
370
     0
390
0
100
AcDbVertex
100
AcDb2dVertex
 10
3.419898
 20
0.249997
 30
0.0
  0
SEQEND
  5
3F9
100
AcDbEntity
  8
0
370
     0
390
0
  0
POLYLINE
  5
3FA
100
AcDbEntity
  8
0
370
    13
390
0
 62
     7
 48
0.03937
100
AcDb2dPolyline
 66
     1
 10
0.0
 20
0.0
 30
0.0
 70
     1
 71
     3
  0
VERTEX
  5
3FB
100
AcDbEntity
  8
0
370
     0
390
0
100
AcDbVertex
100
AcDb2dVertex
 10
3.419898
 20
0.310003
 30
0.0
  0
VERTEX
  5
3FC
100
AcDbEntity
  8
0
370
     0
390
0
100
AcDbVertex
100
AcDb2dVertex
 10
3.378233
 20
0.56
 30
0.0
  0
VERTEX
  5
3FD
100
AcDbEntity
  8
0
370
     0
390
0
100
AcDbVertex
100
AcDb2dVertex
 10
3.336566
 20
0.310003
 30
0.0
  0
SEQEND
  5
3FE
100
AcDbEntity
  8
0
370
     0
390
0
  0
ENDBLK
  5
3FF
100
AcDbEntity
  8
0
390
0
100
AcDbBlockEnd
  0
BLOCK
  5
400
100
AcDbEntity
  8
0
370
     0
390
0
100
AcDbBlockBegin
  2
BLOCK21
 70
     0
 10
0.0
 20
0.0
 30
0.0
  3
BLOCK21
  1

  0
LINE
  5
401
100
AcDbEntity
  8
0
370
     5
390
0
 62
     7
 48
0.0095
100
AcDbLine
 10
-1.75
 20
0.0
 30
0.0
 11
-1.75
 21
0.38
 31
0.0
210
0.0
220
0.0
230
1.0
  0
LINE
  5
402
100
AcDbEntity
  8
0
370
     5
390
0
 62
     7
 48
0.00625
100
AcDbLine
 10
-1.75
 20
0.38
 30
0.0
 11
-1.5
 21
0.38
 31
0.0
210
0.0
220
0.0
230
1.0
  0
LINE
  5
403
100
AcDbEntity
  8
0
370
     5
390
0
 62
     7
 48
0.0095
100
AcDbLine
 10
-1.5
 20
0.38
 30
0.0
 11
-1.5
 21
0.0
 31
0.0
210
0.0
220
0.0
230
1.0
  0
LINE
  5
404
100
AcDbEntity
  8
0
370
     5
390
0
 62
     7
 48
0.00625
100
AcDbLine
 10
-1.5
 20
0.0
 30
0.0
 11
-1.75
 21
0.0
 31
0.0
210
0.0
220
0.0
230
1.0
  0
ENDBLK
  5
405
100
AcDbEntity
  8
0
390
0
100
AcDbBlockEnd
  0
BLOCK
  5
406
100
AcDbEntity
  8
0
370
     0
390
0
100
AcDbBlockBegin
  2
BLOCK22
 70
     0
 10
0.0
 20
0.0
 30
0.0
  3
BLOCK22
  1

  0
LINE
  5
407
100
AcDbEntity
  8
0
370
     5
390
0
 62
     7
 48
0.00475
100
AcDbLine
 10
-0.69
 20
0.0
 30
0.0
 11
-0.88
 21
0.0
 31
0.0
210
0.0
220
0.0
230
1.0
  0
LINE
  5
408
100
AcDbEntity
  8
0
370
     5
390
0
 62
     7
 48
0.0095
100
AcDbLine
 10
-0.88
 20
0.0
 30
0.0
 11
-0.88
 21
0.38
 31
0.0
210
0.0
220
0.0
230
1.0
  0
LINE
  5
409
100
AcDbEntity
  8
0
370
     5
390
0
 62
     7
 48
0.005866
100
AcDbLine
 10
-0.88
 20
0.38
 30
0.0
 11
-0.645346
 21
0.38
 31
0.0
210
0.0
220
0.0
230
1.0
  0
LINE
  5
40A
100
AcDbEntity
  8
0
370
     5
390
0
 62
     7
 48
0.00011
100
AcDbLine
 10
-0.645346
 20
0.38
 30
0.0
 11
-0.640941
 21
0.380162
 31
0.0
210
0.0
220
0.0
230
1.0
  0
LINE
  5
40B
100
AcDbEntity
  8
0
370
     5
390
0
 62
     7
 48
0.00011
100
AcDbLine
 10
-0.640941
 20
0.380162
 30
0.0
 11
-0.636559
 21
0.380647
 31
0.0
210
0.0
220
0.0
230
1.0
  0
LINE
  5
40C
100
AcDbEntity
  8
0
370
     5
390
0
 62
     7
 48
0.00011
100
AcDbLine
 10
-0.636559
 20
0.380647
 30
0.0
 11
-0.632225
 21
0.381452
 31
0.0
210
0.0
220
0.0
230
1.0
  0
LINE
  5
40D
100
AcDbEntity
  8
0
370
     5
390
0
 62
     7
 48
0.00011
100
AcDbLine
 10
-0.632225
 20
0.381452
 30
0.0
 11
-0.627962
 21
0.382574
 31
0.0
210
0.0
220
0.0
230
1.0
  0
LINE
  5
40E
100
AcDbEntity
  8
0
370
     5
390
0
 62
     7
 48
0.00011
100
AcDbLine
 10
-0.627962
 20
0.382574
 30
0.0
 11
-0.623792
 21
0.384005
 31
0.0
210
0.0
220
0.0
230
1.0
  0
LINE
  5
40F
100
AcDbEntity
  8
0
370
     5
390
0
 62
     7
 48
0.00011
100
AcDbLine
 10
-0.623792
 20
0.384005
 30
0.0
 11
-0.619739
 21
0.385739
 31
0.0
210
0.0
220
0.0
230
1.0
  0
LINE
  5
410
100
AcDbEntity
  8
0
370
     5
390
0
 62
     7
 48
0.00011
100
AcDbLine
 10
-0.619739
 20
0.385739
 30
0.0
 11
-0.615824
 21
0.387765
 31
0.0
210
0.0
220
0.0
230
1.0
  0
LINE
  5
411
100
AcDbEntity
  8
0
370
     5
390
0
 62
     7
 48
0.00011
100
AcDbLine
 10
-0.615824
 20
0.387765
 30
0.0
 11
-0.612069
 21
0.390074
 31
0.0
210
0.0
220
0.0
230
1.0
  0
LINE
  5
412
100
AcDbEntity
  8
0
370
     5
390
0
 62
     7
 48
0.00011
100
AcDbLine
 10
-0.612069
 20
0.390074
 30
0.0
 11
-0.608493
 21
0.392652
 31
0.0
210
0.0
220
0.0
230
1.0
  0
LINE
  5
413
100
AcDbEntity
  8
0
370
     5
390
0
 62
     7
 48
0.00011
100
AcDbLine
 10
-0.608493
 20
0.392652
 30
0.0
 11
-0.605116
 21
0.395485
 31
0.0
210
0.0
220
0.0
230
1.0
  0
LINE
  5
414
100
AcDbEntity
  8
0
370
     5
390
0
 62
     7
 48
0.00011
100
AcDbLine
 10
-0.605116
 20
0.395485
 30
0.0
 11
-0.601956
 21
0.398559
 31
0.0
210
0.0
220
0.0
230
1.0
  0
LINE
  5
415
100
AcDbEntity
  8
0
370
     5
390
0
 62
     7
 48
0.00011
100
AcDbLine
 10
-0.601956
 20
0.398559
 30
0.0
 11
-0.599031
 21
0.401857
 31
0.0
210
0.0
220
0.0
230
1.0
  0
LINE
  5
416
100
AcDbEntity
  8
0
370
     5
390
0
 62
     7
 48
0.00011
100
AcDbLine
 10
-0.599031
 20
0.401857
 30
0.0
 11
-0.596355
 21
0.40536
 31
0.0
210
0.0
220
0.0
230
1.0
  0
LINE
  5
417
100
AcDbEntity
  8
0
370
     5
390
0
 62
     7
 48
0.00011
100
AcDbLine
 10
-0.596355
 20
0.40536
 30
0.0
 11
-0.593944
 21
0.409051
 31
0.0
210
0.0
220
0.0
230
1.0
  0
LINE
  5
418
100
AcDbEntity
  8
0
370
     5
390
0
 62
     7
 48
0.00011
100
AcDbLine
 10
-0.593944
 20
0.409051
 30
0.0
 11
-0.591811
 21
0.412908
 31
0.0
210
0.0
220
0.0
230
1.0
  0
LINE
  5
419
100
AcDbEntity
  8
0
370
     5
390
0
 62
     7
 48
0.00011
100
AcDbLine
 10
-0.591811
 20
0.412908
 30
0.0
 11
-0.589966
 21
0.416912
 31
0.0
210
0.0
220
0.0
230
1.0
  0
LINE
  5
41A
100
AcDbEntity
  8
0
370
     5
390
0
 62
     7
 48
0.00011
100
AcDbLine
 10
-0.589966
 20
0.416912
 30
0.0
 11
-0.58842
 21
0.42104
 31
0.0
210
0.0
220
0.0
230
1.0
  0
LINE
  5
41B
100
AcDbEntity
  8
0
370
     5
390
0
 62
     7
 48
0.00011
100
AcDbLine
 10
-0.58842
 20
0.42104
 30
0.0
 11
-0.587182
 21
0.425271
 31
0.0
210
0.0
220
0.0
230
1.0
  0
LINE
  5
41C
100
AcDbEntity
  8
0
370
     5
390
0
 62
     7
 48
0.00011
100
AcDbLine
 10
-0.587182
 20
0.425271
 30
0.0
 11
-0.586258
 21
0.429581
 31
0.0
210
0.0
220
0.0
230
1.0
  0
LINE
  5
41D
100
AcDbEntity
  8
0
370
     5
390
0
 62
     7
 48
0.002052
100
AcDbLine
 10
-0.586258
 20
0.429581
 30
0.0
 11
-0.572004
 21
0.510419
 31
0.0
210
0.0
220
0.0
230
1.0
  0
LINE
  5
41E
100
AcDbEntity
  8
0
370
     5
390
0
 62
     7
 48
0.00011
100
AcDbLine
 10
-0.572004
 20
0.510419
 30
0.0
 11
-0.571079
 21
0.514729
 31
0.0
210
0.0
220
0.0
230
1.0
  0
LINE
  5
41F
100
AcDbEntity
  8
0
370
     5
390
0
 62
     7
 48
0.00011
100
AcDbLine
 10
-0.571079
 20
0.514729
 30
0.0
 11
-0.569841
 21
0.51896
 31
0.0
210
0.0
220
0.0
230
1.0
  0
LINE
  5
420
100
AcDbEntity
  8
0
370
     5
390
0
 62
     7
 48
0.00011
100
AcDbLine
 10
-0.569841
 20
0.51896
 30
0.0
 11
-0.568295
 21
0.523088
 31
0.0
210
0.0
220
0.0
230
1.0
  0
LINE
  5
421
100
AcDbEntity
  8
0
370
     5
390
0
 62
     7
 48
0.00011
100
AcDbLine
 10
-0.568295
 20
0.523088
 30
0.0
 11
-0.566451
 21
0.527092
 31
0.0
210
0.0
220
0.0
230
1.0
  0
LINE
  5
422
100
AcDbEntity
  8
0
370
     5
390
0
 62
     7
 48
0.00011
100
AcDbLine
 10
-0.566451
 20
0.527092
 30
0.0
 11
-0.564317
 21
0.530949
 31
0.0
210
0.0
220
0.0
230
1.0
  0
LINE
  5
423
100
AcDbEntity
  8
0
370
     5
390
0
 62
     7
 48
0.00011
100
AcDbLine
 10
-0.564317
 20
0.530949
 30
0.0
 11
-0.561906
 21
0.53464
 31
0.0
210
0.0
220
0.0
230
1.0
  0
LINE
  5
424
100
AcDbEntity
  8
0
370
     5
390
0
 62
     7
 48
0.00011
100
AcDbLine
 10
-0.561906
 20
0.53464
 30
0.0
 11
-0.55923
 21
0.538143
 31
0.0
210
0.0
220
0.0
230
1.0
  0
LINE
  5
425
100
AcDbEntity
  8
0
370
     5
390
0
 62
     7
 48
0.00011
100
AcDbLine
 10
-0.55923
 20
0.538143
 30
0.0
 11
-0.556305
 21
0.541441
 31
0.0
210
0.0
220
0.0
230
1.0
  0
LINE
  5
426
100
AcDbEntity
  8
0
370
     5
390
0
 62
     7
 48
0.00011
100
AcDbLine
 10
-0.556305
 20
0.541441
 30
0.0
 11
-0.553145
 21
0.544515
 31
0.0
210
0.0
220
0.0
230
1.0
  0
LINE
  5
427
100
AcDbEntity
  8
0
370
     5
390
0
 62
     7
 48
0.00011
100
AcDbLine
 10
-0.553145
 20
0.544515
 30
0.0
 11
-0.549768
 21
0.547348
 31
0.0
210
0.0
220
0.0
230
1.0
  0
LINE
  5
428
100
AcDbEntity
  8
0
370
     5
390
0
 62
     7
 48
0.00011
100
AcDbLine
 10
-0.549768
 20
0.547348
 30
0.0
 11
-0.546192
 21
0.549926
 31
0.0
210
0.0
220
0.0
230
1.0
  0
LINE
  5
429
100
AcDbEntity
  8
0
370
     5
390
0
 62
     7
 48
0.00011
100
AcDbLine
 10
-0.546192
 20
0.549926
 30
0.0
 11
-0.542437
 21
0.552235
 31
0.0
210
0.0
220
0.0
230
1.0
  0
LINE
  5
42A
100
AcDbEntity
  8
0
370
     5
390
0
 62
     7
 48
0.00011
100
AcDbLine
 10
-0.542437
 20
0.552235
 30
0.0
 11
-0.538522
 21
0.554261
 31
0.0
210
0.0
220
0.0
230
1.0
  0
LINE
  5
42B
100
AcDbEntity
  8
0
370
     5
390
0
 62
     7
 48
0.00011
100
AcDbLine
 10
-0.538522
 20
0.554261
 30
0.0
 11
-0.534469
 21
0.555995
 31
0.0
210
0.0
220
0.0
230
1.0
  0
LINE
  5
42C
100
AcDbEntity
  8
0
370
     5
390
0
 62
     7
 48
0.00011
100
AcDbLine
 10
-0.534469
 20
0.555995
 30
0.0
 11
-0.530299
 21
0.557426
 31
0.0
210
0.0
220
0.0
230
1.0
  0
LINE
  5
42D
100
AcDbEntity
  8
0
370
     5
390
0
 62
     7
 48
0.00011
100
AcDbLine
 10
-0.530299
 20
0.557426
 30
0.0
 11
-0.526036
 21
0.558548
 31
0.0
210
0.0
220
0.0
230
1.0
  0
LINE
  5
42E
100
AcDbEntity
  8
0
370
     5
390
0
 62
     7
 48
0.00011
100
AcDbLine
 10
-0.526036
 20
0.558548
 30
0.0
 11
-0.521702
 21
0.559353
 31
0.0
210
0.0
220
0.0
230
1.0
  0
LINE
  5
42F
100
AcDbEntity
  8
0
370
     5
390
0
 62
     7
 48
0.00011
100
AcDbLine
 10
-0.521702
 20
0.559353
 30
0.0
 11
-0.51732
 21
0.559838
 31
0.0
210
0.0
220
0.0
230
1.0
  0
LINE
  5
430
100
AcDbEntity
  8
0
370
     5
390
0
 62
     7
 48
0.00011
100
AcDbLine
 10
-0.51732
 20
0.559838
 30
0.0
 11
-0.512915
 21
0.56
 31
0.0
210
0.0
220
0.0
230
1.0
  0
LINE
  5
431
100
AcDbEntity
  8
0
370
     5
390
0
 62
     7
 48
0.001823
100
AcDbLine
 10
-0.512915
 20
0.56
 30
0.0
 11
-0.44
 21
0.56
 31
0.0
210
0.0
220
0.0
230
1.0
  0
LINE
  5
432
100
AcDbEntity
  8
0
370
     5
390
0
 62
     7
 48
0.015562
100
AcDbLine
 10
-0.44
 20
0.56
 30
0.0
 11
-0.44
 21
-0.0625
 31
0.0
210
0.0
220
0.0
230
1.0
  0
LINE
  5
433
100
AcDbEntity
  8
0
370
     5
390
0
 62
     7
 48
0.00625
100
AcDbLine
 10
-0.44
 20
-0.0625
 30
0.0
 11
-0.69
 21
-0.0625
 31
0.0
210
0.0
220
0.0
230
1.0
  0
LINE
  5
434
100
AcDbEntity
  8
0
370
     5
390
0
 62
     7
 48
0.001562
100
AcDbLine
 10
-0.69
 20
-0.0625
 30
0.0
 11
-0.69
 21
0.0
 31
0.0
210
0.0
220
0.0
230
1.0
  0
ENDBLK
  5
435
100
AcDbEntity
  8
0
390
0
100
AcDbBlockEnd
  0
BLOCK
  5
436
100
AcDbEntity
  8
0
370
     0
390
0
100
AcDbBlockBegin
  2
BLOCK23
 70
     0
 10
0.0
 20
0.0
 30
0.0
  3
BLOCK23
  1

  0
LINE
  5
437
100
AcDbEntity
  8
0
370
     5
390
0
 62
     7
 48
0.00475
100
AcDbLine
 10
0.88
 20
0.0
 30
0.0
 11
0.69
 21
0.0
 31
0.0
210
0.0
220
0.0
230
1.0
  0
LINE
  5
438
100
AcDbEntity
  8
0
370
     5
390
0
 62
     7
 48
0.001562
100
AcDbLine
 10
0.69
 20
0.0
 30
0.0
 11
0.69
 21
-0.0625
 31
0.0
210
0.0
220
0.0
230
1.0
  0
LINE
  5
439
100
AcDbEntity
  8
0
370
     5
390
0
 62
     7
 48
0.00625
100
AcDbLine
 10
0.69
 20
-0.0625
 30
0.0
 11
0.44
 21
-0.0625
 31
0.0
210
0.0
220
0.0
230
1.0
  0
LINE
  5
43A
100
AcDbEntity
  8
0
370
     5
390
0
 62
     7
 48
0.015562
100
AcDbLine
 10
0.44
 20
-0.0625
 30
0.0
 11
0.44
 21
0.56
 31
0.0
210
0.0
220
0.0
230
1.0
  0
LINE
  5
43B
100
AcDbEntity
  8
0
370
     5
390
0
 62
     7
 48
0.001823
100
AcDbLine
 10
0.44
 20
0.56
 30
0.0
 11
0.512915
 21
0.56
 31
0.0
210
0.0
220
0.0
230
1.0
  0
LINE
  5
43C
100
AcDbEntity
  8
0
370
     5
390
0
 62
     7
 48
0.00011
100
AcDbLine
 10
0.512915
 20
0.56
 30
0.0
 11
0.51732
 21
0.559838
 31
0.0
210
0.0
220
0.0
230
1.0
  0
LINE
  5
43D
100
AcDbEntity
  8
0
370
     5
390
0
 62
     7
 48
0.00011
100
AcDbLine
 10
0.51732
 20
0.559838
 30
0.0
 11
0.521702
 21
0.559353
 31
0.0
210
0.0
220
0.0
230
1.0
  0
LINE
  5
43E
100
AcDbEntity
  8
0
370
     5
390
0
 62
     7
 48
0.00011
100
AcDbLine
 10
0.521702
 20
0.559353
 30
0.0
 11
0.526036
 21
0.558548
 31
0.0
210
0.0
220
0.0
230
1.0
  0
LINE
  5
43F
100
AcDbEntity
  8
0
370
     5
390
0
 62
     7
 48
0.00011
100
AcDbLine
 10
0.526036
 20
0.558548
 30
0.0
 11
0.530299
 21
0.557426
 31
0.0
210
0.0
220
0.0
230
1.0
  0
LINE
  5
440
100
AcDbEntity
  8
0
370
     5
390
0
 62
     7
 48
0.00011
100
AcDbLine
 10
0.530299
 20
0.557426
 30
0.0
 11
0.534469
 21
0.555995
 31
0.0
210
0.0
220
0.0
230
1.0
  0
LINE
  5
441
100
AcDbEntity
  8
0
370
     5
390
0
 62
     7
 48
0.00011
100
AcDbLine
 10
0.534469
 20
0.555995
 30
0.0
 11
0.538522
 21
0.554261
 31
0.0
210
0.0
220
0.0
230
1.0
  0
LINE
  5
442
100
AcDbEntity
  8
0
370
     5
390
0
 62
     7
 48
0.00011
100
AcDbLine
 10
0.538522
 20
0.554261
 30
0.0
 11
0.542437
 21
0.552235
 31
0.0
210
0.0
220
0.0
230
1.0
  0
LINE
  5
443
100
AcDbEntity
  8
0
370
     5
390
0
 62
     7
 48
0.00011
100
AcDbLine
 10
0.542437
 20
0.552235
 30
0.0
 11
0.546192
 21
0.549926
 31
0.0
210
0.0
220
0.0
230
1.0
  0
LINE
  5
444
100
AcDbEntity
  8
0
370
     5
390
0
 62
     7
 48
0.00011
100
AcDbLine
 10
0.546192
 20
0.549926
 30
0.0
 11
0.549768
 21
0.547348
 31
0.0
210
0.0
220
0.0
230
1.0
  0
LINE
  5
445
100
AcDbEntity
  8
0
370
     5
390
0
 62
     7
 48
0.00011
100
AcDbLine
 10
0.549768
 20
0.547348
 30
0.0
 11
0.553145
 21
0.544515
 31
0.0
210
0.0
220
0.0
230
1.0
  0
LINE
  5
446
100
AcDbEntity
  8
0
370
     5
390
0
 62
     7
 48
0.00011
100
AcDbLine
 10
0.553145
 20
0.544515
 30
0.0
 11
0.556305
 21
0.541441
 31
0.0
210
0.0
220
0.0
230
1.0
  0
LINE
  5
447
100
AcDbEntity
  8
0
370
     5
390
0
 62
     7
 48
0.00011
100
AcDbLine
 10
0.556305
 20
0.541441
 30
0.0
 11
0.55923
 21
0.538143
 31
0.0
210
0.0
220
0.0
230
1.0
  0
LINE
  5
448
100
AcDbEntity
  8
0
370
     5
390
0
 62
     7
 48
0.00011
100
AcDbLine
 10
0.55923
 20
0.538143
 30
0.0
 11
0.561906
 21
0.53464
 31
0.0
210
0.0
220
0.0
230
1.0
  0
LINE
  5
449
100
AcDbEntity
  8
0
370
     5
390
0
 62
     7
 48
0.00011
100
AcDbLine
 10
0.561906
 20
0.53464
 30
0.0
 11
0.564317
 21
0.530949
 31
0.0
210
0.0
220
0.0
230
1.0
  0
LINE
  5
44A
100
AcDbEntity
  8
0
370
     5
390
0
 62
     7
 48
0.00011
100
AcDbLine
 10
0.564317
 20
0.530949
 30
0.0
 11
0.566451
 21
0.527092
 31
0.0
210
0.0
220
0.0
230
1.0
  0
LINE
  5
44B
100
AcDbEntity
  8
0
370
     5
390
0
 62
     7
 48
0.00011
100
AcDbLine
 10
0.566451
 20
0.527092
 30
0.0
 11
0.568295
 21
0.523088
 31
0.0
210
0.0
220
0.0
230
1.0
  0
LINE
  5
44C
100
AcDbEntity
  8
0
370
     5
390
0
 62
     7
 48
0.00011
100
AcDbLine
 10
0.568295
 20
0.523088
 30
0.0
 11
0.569841
 21
0.51896
 31
0.0
210
0.0
220
0.0
230
1.0
  0
LINE
  5
44D
100
AcDbEntity
  8
0
370
     5
390
0
 62
     7
 48
0.00011
100
AcDbLine
 10
0.569841
 20
0.51896
 30
0.0
 11
0.571079
 21
0.514729
 31
0.0
210
0.0
220
0.0
230
1.0
  0
LINE
  5
44E
100
AcDbEntity
  8
0
370
     5
390
0
 62
     7
 48
0.00011
100
AcDbLine
 10
0.571079
 20
0.514729
 30
0.0
 11
0.572004
 21
0.510419
 31
0.0
210
0.0
220
0.0
230
1.0
  0
LINE
  5
44F
100
AcDbEntity
  8
0
370
     5
390
0
 62
     7
 48
0.002052
100
AcDbLine
 10
0.572004
 20
0.510419
 30
0.0
 11
0.586258
 21
0.429581
 31
0.0
210
0.0
220
0.0
230
1.0
  0
LINE
  5
450
100
AcDbEntity
  8
0
370
     5
390
0
 62
     7
 48
0.00011
100
AcDbLine
 10
0.586258
 20
0.429581
 30
0.0
 11
0.587182
 21
0.425271
 31
0.0
210
0.0
220
0.0
230
1.0
  0
LINE
  5
451
100
AcDbEntity
  8
0
370
     5
390
0
 62
     7
 48
0.00011
100
AcDbLine
 10
0.587182
 20
0.425271
 30
0.0
 11
0.58842
 21
0.42104
 31
0.0
210
0.0
220
0.0
230
1.0
  0
LINE
  5
452
100
AcDbEntity
  8
0
370
     5
390
0
 62
     7
 48
0.00011
100
AcDbLine
 10
0.58842
 20
0.42104
 30
0.0
 11
0.589966
 21
0.416912
 31
0.0
210
0.0
220
0.0
230
1.0
  0
LINE
  5
453
100
AcDbEntity
  8
0
370
     5
390
0
 62
     7
 48
0.00011
100
AcDbLine
 10
0.589966
 20
0.416912
 30
0.0
 11
0.591811
 21
0.412908
 31
0.0
210
0.0
220
0.0
230
1.0
  0
LINE
  5
454
100
AcDbEntity
  8
0
370
     5
390
0
 62
     7
 48
0.00011
100
AcDbLine
 10
0.591811
 20
0.412908
 30
0.0
 11
0.593944
 21
0.409051
 31
0.0
210
0.0
220
0.0
230
1.0
  0
LINE
  5
455
100
AcDbEntity
  8
0
370
     5
390
0
 62
     7
 48
0.00011
100
AcDbLine
 10
0.593944
 20
0.409051
 30
0.0
 11
0.596355
 21
0.40536
 31
0.0
210
0.0
220
0.0
230
1.0
  0
LINE
  5
456
100
AcDbEntity
  8
0
370
     5
390
0
 62
     7
 48
0.00011
100
AcDbLine
 10
0.596355
 20
0.40536
 30
0.0
 11
0.599031
 21
0.401857
 31
0.0
210
0.0
220
0.0
230
1.0
  0
LINE
  5
457
100
AcDbEntity
  8
0
370
     5
390
0
 62
     7
 48
0.00011
100
AcDbLine
 10
0.599031
 20
0.401857
 30
0.0
 11
0.601956
 21
0.398559
 31
0.0
210
0.0
220
0.0
230
1.0
  0
LINE
  5
458
100
AcDbEntity
  8
0
370
     5
390
0
 62
     7
 48
0.00011
100
AcDbLine
 10
0.601956
 20
0.398559
 30
0.0
 11
0.605116
 21
0.395485
 31
0.0
210
0.0
220
0.0
230
1.0
  0
LINE
  5
459
100
AcDbEntity
  8
0
370
     5
390
0
 62
     7
 48
0.00011
100
AcDbLine
 10
0.605116
 20
0.395485
 30
0.0
 11
0.608493
 21
0.392652
 31
0.0
210
0.0
220
0.0
230
1.0
  0
LINE
  5
45A
100
AcDbEntity
  8
0
370
     5
390
0
 62
     7
 48
0.00011
100
AcDbLine
 10
0.608493
 20
0.392652
 30
0.0
 11
0.612069
 21
0.390074
 31
0.0
210
0.0
220
0.0
230
1.0
  0
LINE
  5
45B
100
AcDbEntity
  8
0
370
     5
390
0
 62
     7
 48
0.00011
100
AcDbLine
 10
0.612069
 20
0.390074
 30
0.0
 11
0.615824
 21
0.387765
 31
0.0
210
0.0
220
0.0
230
1.0
  0
LINE
  5
45C
100
AcDbEntity
  8
0
370
     5
390
0
 62
     7
 48
0.00011
100
AcDbLine
 10
0.615824
 20
0.387765
 30
0.0
 11
0.619739
 21
0.385739
 31
0.0
210
0.0
220
0.0
230
1.0
  0
LINE
  5
45D
100
AcDbEntity
  8
0
370
     5
390
0
 62
     7
 48
0.00011
100
AcDbLine
 10
0.619739
 20
0.385739
 30
0.0
 11
0.623792
 21
0.384005
 31
0.0
210
0.0
220
0.0
230
1.0
  0
LINE
  5
45E
100
AcDbEntity
  8
0
370
     5
390
0
 62
     7
 48
0.00011
100
AcDbLine
 10
0.623792
 20
0.384005
 30
0.0
 11
0.627962
 21
0.382574
 31
0.0
210
0.0
220
0.0
230
1.0
  0
LINE
  5
45F
100
AcDbEntity
  8
0
370
     5
390
0
 62
     7
 48
0.00011
100
AcDbLine
 10
0.627962
 20
0.382574
 30
0.0
 11
0.632225
 21
0.381452
 31
0.0
210
0.0
220
0.0
230
1.0
  0
LINE
  5
460
100
AcDbEntity
  8
0
370
     5
390
0
 62
     7
 48
0.00011
100
AcDbLine
 10
0.632225
 20
0.381452
 30
0.0
 11
0.636559
 21
0.380647
 31
0.0
210
0.0
220
0.0
230
1.0
  0
LINE
  5
461
100
AcDbEntity
  8
0
370
     5
390
0
 62
     7
 48
0.00011
100
AcDbLine
 10
0.636559
 20
0.380647
 30
0.0
 11
0.640941
 21
0.380162
 31
0.0
210
0.0
220
0.0
230
1.0
  0
LINE
  5
462
100
AcDbEntity
  8
0
370
     5
390
0
 62
     7
 48
0.00011
100
AcDbLine
 10
0.640941
 20
0.380162
 30
0.0
 11
0.645346
 21
0.38
 31
0.0
210
0.0
220
0.0
230
1.0
  0
LINE
  5
463
100
AcDbEntity
  8
0
370
     5
390
0
 62
     7
 48
0.005866
100
AcDbLine
 10
0.645346
 20
0.38
 30
0.0
 11
0.88
 21
0.38
 31
0.0
210
0.0
220
0.0
230
1.0
  0
LINE
  5
464
100
AcDbEntity
  8
0
370
     5
390
0
 62
     7
 48
0.0095
100
AcDbLine
 10
0.88
 20
0.38
 30
0.0
 11
0.88
 21
0.0
 31
0.0
210
0.0
220
0.0
230
1.0
  0
ENDBLK
  5
465
100
AcDbEntity
  8
0
390
0
100
AcDbBlockEnd
  0
BLOCK
  5
466
100
AcDbEntity
  8
0
370
     0
390
0
100
AcDbBlockBegin
  2
BLOCK24
 70
     0
 10
0.0
 20
0.0
 30
0.0
  3
BLOCK24
  1

  0
LINE
  5
467
100
AcDbEntity
  8
0
370
     5
390
0
 62
     7
 48
0.0095
100
AcDbLine
 10
1.5
 20
0.0
 30
0.0
 11
1.5
 21
0.38
 31
0.0
210
0.0
220
0.0
230
1.0
  0
LINE
  5
468
100
AcDbEntity
  8
0
370
     5
390
0
 62
     7
 48
0.00625
100
AcDbLine
 10
1.5
 20
0.38
 30
0.0
 11
1.75
 21
0.38
 31
0.0
210
0.0
220
0.0
230
1.0
  0
LINE
  5
469
100
AcDbEntity
  8
0
370
     5
390
0
 62
     7
 48
0.0095
100
AcDbLine
 10
1.75
 20
0.38
 30
0.0
 11
1.75
 21
0.0
 31
0.0
210
0.0
220
0.0
230
1.0
  0
LINE
  5
46A
100
AcDbEntity
  8
0
370
     5
390
0
 62
     7
 48
0.00625
100
AcDbLine
 10
1.75
 20
0.0
 30
0.0
 11
1.5
 21
0.0
 31
0.0
210
0.0
220
0.0
230
1.0
  0
ENDBLK
  5
46B
100
AcDbEntity
  8
0
390
0
100
AcDbBlockEnd
  0
ENDSEC
  0
SECTION
  2
ENTITIES
  0
VIEWPORT
  5
20C
100
AcDbEntity
 67
     1
  8
0
370
     0
390
0
 62
     0
 48
0.0
100
AcDbViewport
 10
0.0
 20
0.0
 30
0.0
 40
1000.0
 41
1000.0
 68
     1
 69
     1
 12
0.0
 22
0.0
 13
0.0
 23
0.0
 14
1.0
 24
1.0
 15
1.0
 25
1.0
 16
0.0
 26
0.0
 36
1.0
 17
0.0
 27
0.0
 37
0.0
 42
50.0
 43
0.0
 44
0.0
 45
1000.0
 50
0.0
 51
0.0
 72
   100
 90
        0
340
0
  1

281
     0
 71
     0
 74
     1
110
0.0
120
0.0
130
0.0
111
1.0
121
0.0
131
0.0
112
0.0
122
1.0
132
0.0
345
0
346
0
 79
     0
146
0.0
  0
TEXT
  5
27
100
AcDbEntity
  8
0
370
    13
390
0
 62
     7
 48
0.03937
100
AcDbText
 10
7.774762
 20
1.08216
 30
0.0
 40
0.06
  1
SIZE:
 72
     5
 11
8.064134
 21
1.08216
 31
0.0
100
AcDbText
  0
TEXT
  5
28
100
AcDbEntity
  8
0
370
    13
390
0
 62
     7
 48
0.03937
100
AcDbText
 10
7.774762
 20
0.894218
 30
0.0
 40
0.06
  1
TYPE:
 72
     5
 11
8.064134
 21
0.894218
 31
0.0
100
AcDbText
  0
POINT
  5
29
100
AcDbEntity
  8
0
370
     5
390
0
 62
     7
 48
0.03937
100
AcDbPoint
 10
0.0
 20
0.0
 30
0.0
210
0.0
220
0.0
230
1.0
  0
POINT
  5
2A
100
AcDbEntity
  8
0
370
     5
390
0
 62
     7
 48
0.03937
100
AcDbPoint
 10
8.029755
 20
0.53125
 30
0.0
210
0.0
220
0.0
230
1.0
  0
LINE
  5
2B
100
AcDbEntity
  8
1
370
    35
390
0
 62
     7
 48
0.000032
100
AcDbLine
 10
9.035676
 20
0.778761
 30
0.0
 11
9.036922
 21
0.778449
 31
0.0
210
0.0
220
0.0
230
1.0
  0
LINE
  5
2C
100
AcDbEntity
  8
1
370
    35
390
0
 62
     7
 48
0.03937
100
AcDbLine
 10
0.25
 20
0.25
 30
0.0
 11
0.25
 21
8.25
 31
0.0
210
0.0
220
0.0
230
1.0
  0
LINE
  5
2D
100
AcDbEntity
  8
1
370
    35
390
0
 62
     7
 48
0.03937
100
AcDbLine
 10
7.75
 20
1.1875
 30
0.0
 11
10.75
 21
1.1875
 31
0.0
210
0.0
220
0.0
230
1.0
  0
LINE
  5
2E
100
AcDbEntity
  8
1
370
    35
390
0
 62
     7
 48
0.03937
100
AcDbLine
 10
7.75
 20
1.0
 30
0.0
 11
10.75
 21
1.0
 31
0.0
210
0.0
220
0.0
230
1.0
  0
LINE
  5
2F
100
AcDbEntity
  8
1
370
    35
390
0
 62
     7
 48
0.03937
100
AcDbLine
 10
0.25
 20
8.25
 30
0.0
 11
10.75
 21
8.25
 31
0.0
210
0.0
220
0.0
230
1.0
  0
LINE
  5
30
100
AcDbEntity
  8
1
370
    35
390
0
 62
     7
 48
0.03937
100
AcDbLine
 10
7.75
 20
0.8125
 30
0.0
 11
10.75
 21
0.8125
 31
0.0
210
0.0
220
0.0
230
1.0
  0
LINE
  5
31
100
AcDbEntity
  8
1
370
    35
390
0
 62
     7
 48
0.03937
100
AcDbLine
 10
0.25
 20
0.25
 30
0.0
 11
10.75
 21
0.25
 31
0.0
210
0.0
220
0.0
230
1.0
  0
LINE
  5
32
100
AcDbEntity
  8
1
370
    35
390
0
 62
     7
 48
0.03937
100
AcDbLine
 10
10.75
 20
8.25
 30
0.0
 11
10.75
 21
0.25
 31
0.0
210
0.0
220
0.0
230
1.0
  0
LINE
  5
33
100
AcDbEntity
  8
1
370
    35
390
0
 62
     7
 48
0.03937
100
AcDbLine
 10
7.75
 20
1.1875
 30
0.0
 11
7.75
 21
0.25
 31
0.0
210
0.0
220
0.0
230
1.0
  0
CIRCLE
  5
34
100
AcDbEntity
  8
0
370
    70
390
0
 62
     7
 48
0.03937
100
AcDbCircle
 10
8.029755
 20
0.53125
 30
0.0
 40
0.2475
210
0.0
220
0.0
230
1.0
  0
CIRCLE
  5
35
100
AcDbEntity
  8
0
370
    70
390
0
 62
     7
 48
0.03937
100
AcDbCircle
 10
8.029755
 20
0.53125
 30
0.0
 40
0.195
210
0.0
220
0.0
230
1.0
  0
CIRCLE
  5
36
100
AcDbEntity
  8
0
370
    35
390
0
 62
     7
 48
0.03937
100
AcDbCircle
 10
8.029755
 20
0.7525
 30
0.0
 40
0.015
210
0.0
220
0.0
230
1.0
  0
CIRCLE
  5
37
100
AcDbEntity
  8
0
370
    35
390
0
 62
     7
 48
0.03937
100
AcDbCircle
 10
8.251005
 20
0.53125
 30
0.0
 40
0.015
210
0.0
220
0.0
230
1.0
  0
CIRCLE
  5
38
100
AcDbEntity
  8
0
370
    35
390
0
 62
     7
 48
0.03937
100
AcDbCircle
 10
8.186202
 20
0.687697
 30
0.0
 40
0.015
210
0.0
220
0.0
230
1.0
  0
CIRCLE
  5
39
100
AcDbEntity
  8
0
370
    35
390
0
 62
     7
 48
0.03937
100
AcDbCircle
 10
8.029755
 20
0.31
 30
0.0
 40
0.015
210
0.0
220
0.0
230
1.0
  0
CIRCLE
  5
3A
100
AcDbEntity
  8
0
370
    35
390
0
 62
     7
 48
0.03937
100
AcDbCircle
 10
8.186202
 20
0.374803
 30
0.0
 40
0.015
210
0.0
220
0.0
230
1.0
  0
CIRCLE
  5
3B
100
AcDbEntity
  8
0
370
    35
390
0
 62
     7
 48
0.03937
100
AcDbCircle
 10
7.808505
 20
0.53125
 30
0.0
 40
0.015
210
0.0
220
0.0
230
1.0
  0
CIRCLE
  5
3C
100
AcDbEntity
  8
0
370
    35
390
0
 62
     7
 48
0.03937
100
AcDbCircle
 10
7.873308
 20
0.687697
 30
0.0
 40
0.015
210
0.0
220
0.0
230
1.0
  0
CIRCLE
  5
3D
100
AcDbEntity
  8
0
370
    35
390
0
 62
     7
 48
0.03937
100
AcDbCircle
 10
7.873308
 20
0.374803
 30
0.0
 40
0.015
210
0.0
220
0.0
230
1.0
  0
POLYLINE
  5
3E
100
AcDbEntity
  8
0
370
    13
390
0
 62
     7
 48
0.03937
100
AcDb2dPolyline
 66
     1
 10
0.0
 20
0.0
 30
0.0
 70
     1
 71
   118
  0
VERTEX
  5
3F
100
AcDbEntity
  8
0
370
     0
390
0
100
AcDbVertex
100
AcDb2dVertex
 10
8.029831
 20
0.605292
 30
0.0
  0
VERTEX
  5
40
100
AcDbEntity
  8
0
370
     0
390
0
100
AcDbVertex
100
AcDb2dVertex
 10
8.029019
 20
0.60375
 30
0.0
  0
VERTEX
  5
41
100
AcDbEntity
  8
0
370
     0
390
0
100
AcDbVertex
100
AcDb2dVertex
 10
8.021177
 20
0.589826
 30
0.0
  0
VERTEX
  5
42
100
AcDbEntity
  8
0
370
     0
390
0
100
AcDbVertex
100
AcDb2dVertex
 10
8.020426
 20
0.588405
 30
0.0
  0
VERTEX
  5
43
100
AcDbEntity
  8
0
370
     0
390
0
100
AcDbVertex
100
AcDb2dVertex
 10
8.019684
 20
0.586917
 30
0.0
  0
VERTEX
  5
44
100
AcDbEntity
  8
0
370
     0
390
0
100
AcDbVertex
100
AcDb2dVertex
 10
8.018954
 20
0.58536
 30
0.0
  0
VERTEX
  5
45
100
AcDbEntity
  8
0
370
     0
390
0
100
AcDbVertex
100
AcDb2dVertex
 10
8.018235
 20
0.583734
 30
0.0
  0
VERTEX
  5
46
100
AcDbEntity
  8
0
370
     0
390
0
100
AcDbVertex
100
AcDb2dVertex
 10
8.017528
 20
0.582038
 30
0.0
  0
VERTEX
  5
47
100
AcDbEntity
  8
0
370
     0
390
0
100
AcDbVertex
100
AcDb2dVertex
 10
8.01683
 20
0.580272
 30
0.0
  0
VERTEX
  5
48
100
AcDbEntity
  8
0
370
     0
390
0
100
AcDbVertex
100
AcDb2dVertex
 10
8.016143
 20
0.578438
 30
0.0
  0
VERTEX
  5
49
100
AcDbEntity
  8
0
370
     0
390
0
100
AcDbVertex
100
AcDb2dVertex
 10
8.015467
 20
0.576534
 30
0.0
  0
VERTEX
  5
4A
100
AcDbEntity
  8
0
370
     0
390
0
100
AcDbVertex
100
AcDb2dVertex
 10
8.014802
 20
0.574562
 30
0.0
  0
VERTEX
  5
4B
100
AcDbEntity
  8
0
370
     0
390
0
100
AcDbVertex
100
AcDb2dVertex
 10
8.014147
 20
0.572519
 30
0.0
  0
VERTEX
  5
4C
100
AcDbEntity
  8
0
370
     0
390
0
100
AcDbVertex
100
AcDb2dVertex
 10
8.012525
 20
0.574142
 30
0.0
  0
VERTEX
  5
4D
100
AcDbEntity
  8
0
370
     0
390
0
100
AcDbVertex
100
AcDb2dVertex
 10
8.011871
 20
0.576531
 30
0.0
  0
VERTEX
  5
4E
100
AcDbEntity
  8
0
370
     0
390
0
100
AcDbVertex
100
AcDb2dVertex
 10
8.011163
 20
0.578771
 30
0.0
  0
VERTEX
  5
4F
100
AcDbEntity
  8
0
370
     0
390
0
100
AcDbVertex
100
AcDb2dVertex
 10
8.010404
 20
0.580859
 30
0.0
  0
VERTEX
  5
50
100
AcDbEntity
  8
0
370
     0
390
0
100
AcDbVertex
100
AcDb2dVertex
 10
8.009591
 20
0.582795
 30
0.0
  0
VERTEX
  5
51
100
AcDbEntity
  8
0
370
     0
390
0
100
AcDbVertex
100
AcDb2dVertex
 10
8.008726
 20
0.584579
 30
0.0
  0
VERTEX
  5
52
100
AcDbEntity
  8
0
370
     0
390
0
100
AcDbVertex
100
AcDb2dVertex
 10
8.007806
 20
0.586212
 30
0.0
  0
VERTEX
  5
53
100
AcDbEntity
  8
0
370
     0
390
0
100
AcDbVertex
100
AcDb2dVertex
 10
8.006836
 20
0.587694
 30
0.0
  0
VERTEX
  5
54
100
AcDbEntity
  8
0
370
     0
390
0
100
AcDbVertex
100
AcDb2dVertex
 10
8.00581
 20
0.589025
 30
0.0
  0
VERTEX
  5
55
100
AcDbEntity
  8
0
370
     0
390
0
100
AcDbVertex
100
AcDb2dVertex
 10
8.004733
 20
0.590204
 30
0.0
  0
VERTEX
  5
56
100
AcDbEntity
  8
0
370
     0
390
0
100
AcDbVertex
100
AcDb2dVertex
 10
8.003601
 20
0.591231
 30
0.0
  0
VERTEX
  5
57
100
AcDbEntity
  8
0
370
     0
390
0
100
AcDbVertex
100
AcDb2dVertex
 10
8.002384
 20
0.592136
 30
0.0
  0
VERTEX
  5
58
100
AcDbEntity
  8
0
370
     0
390
0
100
AcDbVertex
100
AcDb2dVertex
 10
8.001043
 20
0.592944
 30
0.0
  0
VERTEX
  5
59
100
AcDbEntity
  8
0
370
     0
390
0
100
AcDbVertex
100
AcDb2dVertex
 10
7.99958
 20
0.593658
 30
0.0
  0
VERTEX
  5
5A
100
AcDbEntity
  8
0
370
     0
390
0
100
AcDbVertex
100
AcDb2dVertex
 10
7.997995
 20
0.594276
 30
0.0
  0
VERTEX
  5
5B
100
AcDbEntity
  8
0
370
     0
390
0
100
AcDbVertex
100
AcDb2dVertex
 10
7.996287
 20
0.5948
 30
0.0
  0
VERTEX
  5
5C
100
AcDbEntity
  8
0
370
     0
390
0
100
AcDbVertex
100
AcDb2dVertex
 10
7.994457
 20
0.595229
 30
0.0
  0
VERTEX
  5
5D
100
AcDbEntity
  8
0
370
     0
390
0
100
AcDbVertex
100
AcDb2dVertex
 10
7.992506
 20
0.595562
 30
0.0
  0
VERTEX
  5
5E
100
AcDbEntity
  8
0
370
     0
390
0
100
AcDbVertex
100
AcDb2dVertex
 10
7.990431
 20
0.595799
 30
0.0
  0
VERTEX
  5
5F
100
AcDbEntity
  8
0
370
     0
390
0
100
AcDbVertex
100
AcDb2dVertex
 10
7.988236
 20
0.595943
 30
0.0
  0
VERTEX
  5
60
100
AcDbEntity
  8
0
370
     0
390
0
100
AcDbVertex
100
AcDb2dVertex
 10
7.985918
 20
0.595991
 30
0.0
  0
VERTEX
  5
61
100
AcDbEntity
  8
0
370
     0
390
0
100
AcDbVertex
100
AcDb2dVertex
 10
7.983971
 20
0.595973
 30
0.0
  0
VERTEX
  5
62
100
AcDbEntity
  8
0
370
     0
390
0
100
AcDbVertex
100
AcDb2dVertex
 10
7.982024
 20
0.59592
 30
0.0
  0
VERTEX
  5
63
100
AcDbEntity
  8
0
370
     0
390
0
100
AcDbVertex
100
AcDb2dVertex
 10
7.980077
 20
0.595835
 30
0.0
  0
VERTEX
  5
64
100
AcDbEntity
  8
0
370
     0
390
0
100
AcDbVertex
100
AcDb2dVertex
 10
7.97813
 20
0.595713
 30
0.0
  0
VERTEX
  5
65
100
AcDbEntity
  8
0
370
     0
390
0
100
AcDbVertex
100
AcDb2dVertex
 10
7.976183
 20
0.595557
 30
0.0
  0
VERTEX
  5
66
100
AcDbEntity
  8
0
370
     0
390
0
100
AcDbVertex
100
AcDb2dVertex
 10
7.974885
 20
0.478313
 30
0.0
  0
VERTEX
  5
67
100
AcDbEntity
  8
0
370
     0
390
0
100
AcDbVertex
100
AcDb2dVertex
 10
7.987647
 20
0.466523
 30
0.0
  0
VERTEX
  5
68
100
AcDbEntity
  8
0
370
     0
390
0
100
AcDbVertex
100
AcDb2dVertex
 10
7.93822
 20
0.466523
 30
0.0
  0
VERTEX
  5
69
100
AcDbEntity
  8
0
370
     0
390
0
100
AcDbVertex
100
AcDb2dVertex
 10
7.953361
 20
0.479178
 30
0.0
  0
VERTEX
  5
6A
100
AcDbEntity
  8
0
370
     0
390
0
100
AcDbVertex
100
AcDb2dVertex
 10
7.953361
 20
0.586796
 30
0.0
  0
VERTEX
  5
6B
100
AcDbEntity
  8
0
370
     0
390
0
100
AcDbVertex
100
AcDb2dVertex
 10
7.945682
 20
0.586905
 30
0.0
  0
VERTEX
  5
6C
100
AcDbEntity
  8
0
370
     0
390
0
100
AcDbVertex
100
AcDb2dVertex
 10
7.943519
 20
0.58686
 30
0.0
  0
VERTEX
  5
6D
100
AcDbEntity
  8
0
370
     0
390
0
100
AcDbVertex
100
AcDb2dVertex
 10
7.941484
 20
0.58673
 30
0.0
  0
VERTEX
  5
6E
100
AcDbEntity
  8
0
370
     0
390
0
100
AcDbVertex
100
AcDb2dVertex
 10
7.939577
 20
0.586511
 30
0.0
  0
VERTEX
  5
6F
100
AcDbEntity
  8
0
370
     0
390
0
100
AcDbVertex
100
AcDb2dVertex
 10
7.937799
 20
0.586203
 30
0.0
  0
VERTEX
  5
70
100
AcDbEntity
  8
0
370
     0
390
0
100
AcDbVertex
100
AcDb2dVertex
 10
7.936151
 20
0.585809
 30
0.0
  0
VERTEX
  5
71
100
AcDbEntity
  8
0
370
     0
390
0
100
AcDbVertex
100
AcDb2dVertex
 10
7.93463
 20
0.585327
 30
0.0
  0
VERTEX
  5
72
100
AcDbEntity
  8
0
370
     0
390
0
100
AcDbVertex
100
AcDb2dVertex
 10
7.93324
 20
0.584759
 30
0.0
  0
VERTEX
  5
73
100
AcDbEntity
  8
0
370
     0
390
0
100
AcDbVertex
100
AcDb2dVertex
 10
7.930843
 20
0.583356
 30
0.0
  0
VERTEX
  5
74
100
AcDbEntity
  8
0
370
     0
390
0
100
AcDbVertex
100
AcDb2dVertex
 10
7.928935
 20
0.581582
 30
0.0
  0
VERTEX
  5
75
100
AcDbEntity
  8
0
370
     0
390
0
100
AcDbVertex
100
AcDb2dVertex
 10
7.92736
 20
0.579297
 30
0.0
  0
VERTEX
  5
76
100
AcDbEntity
  8
0
370
     0
390
0
100
AcDbVertex
100
AcDb2dVertex
 10
7.926092
 20
0.57648
 30
0.0
  0
VERTEX
  5
77
100
AcDbEntity
  8
0
370
     0
390
0
100
AcDbVertex
100
AcDb2dVertex
 10
7.925573
 20
0.574872
 30
0.0
  0
VERTEX
  5
78
100
AcDbEntity
  8
0
370
     0
390
0
100
AcDbVertex
100
AcDb2dVertex
 10
7.92513
 20
0.573132
 30
0.0
  0
VERTEX
  5
79
100
AcDbEntity
  8
0
370
     0
390
0
100
AcDbVertex
100
AcDb2dVertex
 10
7.924766
 20
0.571259
 30
0.0
  0
VERTEX
  5
7A
100
AcDbEntity
  8
0
370
     0
390
0
100
AcDbVertex
100
AcDb2dVertex
 10
7.924478
 20
0.569252
 30
0.0
  0
VERTEX
  5
7B
100
AcDbEntity
  8
0
370
     0
390
0
100
AcDbVertex
100
AcDb2dVertex
 10
7.924266
 20
0.567111
 30
0.0
  0
VERTEX
  5
7C
100
AcDbEntity
  8
0
370
     0
390
0
100
AcDbVertex
100
AcDb2dVertex
 10
7.921454
 20
0.567111
 30
0.0
  0
VERTEX
  5
7D
100
AcDbEntity
  8
0
370
     0
390
0
100
AcDbVertex
100
AcDb2dVertex
 10
7.921734
 20
0.569565
 30
0.0
  0
VERTEX
  5
7E
100
AcDbEntity
  8
0
370
     0
390
0
100
AcDbVertex
100
AcDb2dVertex
 10
7.922096
 20
0.571866
 30
0.0
  0
VERTEX
  5
7F
100
AcDbEntity
  8
0
370
     0
390
0
100
AcDbVertex
100
AcDb2dVertex
 10
7.922543
 20
0.574013
 30
0.0
  0
VERTEX
  5
80
100
AcDbEntity
  8
0
370
     0
390
0
100
AcDbVertex
100
AcDb2dVertex
 10
7.923073
 20
0.576006
 30
0.0
  0
VERTEX
  5
81
100
AcDbEntity
  8
0
370
     0
390
0
100
AcDbVertex
100
AcDb2dVertex
 10
7.923684
 20
0.577847
 30
0.0
  0
VERTEX
  5
82
100
AcDbEntity
  8
0
370
     0
390
0
100
AcDbVertex
100
AcDb2dVertex
 10
7.924381
 20
0.579533
 30
0.0
  0
VERTEX
  5
83
100
AcDbEntity
  8
0
370
     0
390
0
100
AcDbVertex
100
AcDb2dVertex
 10
7.92516
 20
0.581064
 30
0.0
  0
VERTEX
  5
84
100
AcDbEntity
  8
0
370
     0
390
0
100
AcDbVertex
100
AcDb2dVertex
 10
7.926023
 20
0.582444
 30
0.0
  0
VERTEX
  5
85
100
AcDbEntity
  8
0
370
     0
390
0
100
AcDbVertex
100
AcDb2dVertex
 10
7.926968
 20
0.58367
 30
0.0
  0
VERTEX
  5
86
100
AcDbEntity
  8
0
370
     0
390
0
100
AcDbVertex
100
AcDb2dVertex
 10
7.929138
 20
0.585687
 30
0.0
  0
VERTEX
  5
87
100
AcDbEntity
  8
0
370
     0
390
0
100
AcDbVertex
100
AcDb2dVertex
 10
7.930418
 20
0.586532
 30
0.0
  0
VERTEX
  5
88
100
AcDbEntity
  8
0
370
     0
390
0
100
AcDbVertex
100
AcDb2dVertex
 10
7.931839
 20
0.587279
 30
0.0
  0
VERTEX
  5
89
100
AcDbEntity
  8
0
370
     0
390
0
100
AcDbVertex
100
AcDb2dVertex
 10
7.933397
 20
0.587925
 30
0.0
  0
VERTEX
  5
8A
100
AcDbEntity
  8
0
370
     0
390
0
100
AcDbVertex
100
AcDb2dVertex
 10
7.935095
 20
0.588473
 30
0.0
  0
VERTEX
  5
8B
100
AcDbEntity
  8
0
370
     0
390
0
100
AcDbVertex
100
AcDb2dVertex
 10
7.936934
 20
0.588921
 30
0.0
  0
VERTEX
  5
8C
100
AcDbEntity
  8
0
370
     0
390
0
100
AcDbVertex
100
AcDb2dVertex
 10
7.938912
 20
0.589269
 30
0.0
  0
VERTEX
  5
8D
100
AcDbEntity
  8
0
370
     0
390
0
100
AcDbVertex
100
AcDb2dVertex
 10
7.941029
 20
0.589518
 30
0.0
  0
VERTEX
  5
8E
100
AcDbEntity
  8
0
370
     0
390
0
100
AcDbVertex
100
AcDb2dVertex
 10
7.943286
 20
0.589667
 30
0.0
  0
VERTEX
  5
8F
100
AcDbEntity
  8
0
370
     0
390
0
100
AcDbVertex
100
AcDb2dVertex
 10
7.945682
 20
0.589716
 30
0.0
  0
VERTEX
  5
90
100
AcDbEntity
  8
0
370
     0
390
0
100
AcDbVertex
100
AcDb2dVertex
 10
7.952171
 20
0.589608
 30
0.0
  0
VERTEX
  5
91
100
AcDbEntity
  8
0
370
     0
390
0
100
AcDbVertex
100
AcDb2dVertex
 10
7.953361
 20
0.594908
 30
0.0
  0
VERTEX
  5
92
100
AcDbEntity
  8
0
370
     0
390
0
100
AcDbVertex
100
AcDb2dVertex
 10
7.951177
 20
0.595142
 30
0.0
  0
VERTEX
  5
93
100
AcDbEntity
  8
0
370
     0
390
0
100
AcDbVertex
100
AcDb2dVertex
 10
7.949034
 20
0.595323
 30
0.0
  0
VERTEX
  5
94
100
AcDbEntity
  8
0
370
     0
390
0
100
AcDbVertex
100
AcDb2dVertex
 10
7.946936
 20
0.595454
 30
0.0
  0
VERTEX
  5
95
100
AcDbEntity
  8
0
370
     0
390
0
100
AcDbVertex
100
AcDb2dVertex
 10
7.944881
 20
0.595532
 30
0.0
  0
VERTEX
  5
96
100
AcDbEntity
  8
0
370
     0
390
0
100
AcDbVertex
100
AcDb2dVertex
 10
7.94287
 20
0.595557
 30
0.0
  0
VERTEX
  5
97
100
AcDbEntity
  8
0
370
     0
390
0
100
AcDbVertex
100
AcDb2dVertex
 10
7.940158
 20
0.5955
 30
0.0
  0
VERTEX
  5
98
100
AcDbEntity
  8
0
370
     0
390
0
100
AcDbVertex
100
AcDb2dVertex
 10
7.9376
 20
0.595331
 30
0.0
  0
VERTEX
  5
99
100
AcDbEntity
  8
0
370
     0
390
0
100
AcDbVertex
100
AcDb2dVertex
 10
7.9352
 20
0.595046
 30
0.0
  0
VERTEX
  5
9A
100
AcDbEntity
  8
0
370
     0
390
0
100
AcDbVertex
100
AcDb2dVertex
 10
7.932953
 20
0.594648
 30
0.0
  0
VERTEX
  5
9B
100
AcDbEntity
  8
0
370
     0
390
0
100
AcDbVertex
100
AcDb2dVertex
 10
7.930864
 20
0.594138
 30
0.0
  0
VERTEX
  5
9C
100
AcDbEntity
  8
0
370
     0
390
0
100
AcDbVertex
100
AcDb2dVertex
 10
7.92893
 20
0.593513
 30
0.0
  0
VERTEX
  5
9D
100
AcDbEntity
  8
0
370
     0
390
0
100
AcDbVertex
100
AcDb2dVertex
 10
7.927152
 20
0.592775
 30
0.0
  0
VERTEX
  5
9E
100
AcDbEntity
  8
0
370
     0
390
0
100
AcDbVertex
100
AcDb2dVertex
 10
7.92553
 20
0.591923
 30
0.0
  0
VERTEX
  5
9F
100
AcDbEntity
  8
0
370
     0
390
0
100
AcDbVertex
100
AcDb2dVertex
 10
7.924063
 20
0.590958
 30
0.0
  0
VERTEX
  5
A0
100
AcDbEntity
  8
0
370
     0
390
0
100
AcDbVertex
100
AcDb2dVertex
 10
7.922751
 20
0.58988
 30
0.0
  0
VERTEX
  5
A1
100
AcDbEntity
  8
0
370
     0
390
0
100
AcDbVertex
100
AcDb2dVertex
 10
7.921574
 20
0.588665
 30
0.0
  0
VERTEX
  5
A2
100
AcDbEntity
  8
0
370
     0
390
0
100
AcDbVertex
100
AcDb2dVertex
 10
7.920506
 20
0.587294
 30
0.0
  0
VERTEX
  5
A3
100
AcDbEntity
  8
0
370
     0
390
0
100
AcDbVertex
100
AcDb2dVertex
 10
7.919549
 20
0.585767
 30
0.0
  0
VERTEX
  5
A4
100
AcDbEntity
  8
0
370
     0
390
0
100
AcDbVertex
100
AcDb2dVertex
 10
7.918703
 20
0.584081
 30
0.0
  0
VERTEX
  5
A5
100
AcDbEntity
  8
0
370
     0
390
0
100
AcDbVertex
100
AcDb2dVertex
 10
7.917966
 20
0.58224
 30
0.0
  0
VERTEX
  5
A6
100
AcDbEntity
  8
0
370
     0
390
0
100
AcDbVertex
100
AcDb2dVertex
 10
7.917339
 20
0.580242
 30
0.0
  0
VERTEX
  5
A7
100
AcDbEntity
  8
0
370
     0
390
0
100
AcDbVertex
100
AcDb2dVertex
 10
7.916824
 20
0.578087
 30
0.0
  0
VERTEX
  5
A8
100
AcDbEntity
  8
0
370
     0
390
0
100
AcDbVertex
100
AcDb2dVertex
 10
7.916418
 20
0.575775
 30
0.0
  0
VERTEX
  5
A9
100
AcDbEntity
  8
0
370
     0
390
0
100
AcDbVertex
100
AcDb2dVertex
 10
7.916123
 20
0.573306
 30
0.0
  0
VERTEX
  5
AA
100
AcDbEntity
  8
0
370
     0
390
0
100
AcDbVertex
100
AcDb2dVertex
 10
7.915938
 20
0.570681
 30
0.0
  0
VERTEX
  5
AB
100
AcDbEntity
  8
0
370
     0
390
0
100
AcDbVertex
100
AcDb2dVertex
 10
7.913659
 20
0.573722
 30
0.0
  0
VERTEX
  5
AC
100
AcDbEntity
  8
0
370
     0
390
0
100
AcDbVertex
100
AcDb2dVertex
 10
7.912577
 20
0.576833
 30
0.0
  0
VERTEX
  5
AD
100
AcDbEntity
  8
0
370
     0
390
0
100
AcDbVertex
100
AcDb2dVertex
 10
7.911392
 20
0.580013
 30
0.0
  0
VERTEX
  5
AE
100
AcDbEntity
  8
0
370
     0
390
0
100
AcDbVertex
100
AcDb2dVertex
 10
7.910106
 20
0.583262
 30
0.0
  0
VERTEX
  5
AF
100
AcDbEntity
  8
0
370
     0
390
0
100
AcDbVertex
100
AcDb2dVertex
 10
7.908719
 20
0.58658
 30
0.0
  0
VERTEX
  5
B0
100
AcDbEntity
  8
0
370
     0
390
0
100
AcDbVertex
100
AcDb2dVertex
 10
7.907229
 20
0.589967
 30
0.0
  0
VERTEX
  5
B1
100
AcDbEntity
  8
0
370
     0
390
0
100
AcDbVertex
100
AcDb2dVertex
 10
7.905638
 20
0.593424
 30
0.0
  0
VERTEX
  5
B2
100
AcDbEntity
  8
0
370
     0
390
0
100
AcDbVertex
100
AcDb2dVertex
 10
7.903945
 20
0.596951
 30
0.0
  0
VERTEX
  5
B3
100
AcDbEntity
  8
0
370
     0
390
0
100
AcDbVertex
100
AcDb2dVertex
 10
7.902151
 20
0.600546
 30
0.0
  0
VERTEX
  5
B4
100
AcDbEntity
  8
0
370
     0
390
0
100
AcDbVertex
100
AcDb2dVertex
 10
7.900255
 20
0.604209
 30
0.0
  0
SEQEND
  5
B5
100
AcDbEntity
  8
0
370
     0
390
0
  0
POLYLINE
  5
B6
100
AcDbEntity
  8
0
370
    13
390
0
 62
     7
 48
0.03937
100
AcDb2dPolyline
 66
     1
 10
0.0
 20
0.0
 30
0.0
 70
     1
 71
    22
  0
VERTEX
  5
B7
100
AcDbEntity
  8
0
370
     0
390
0
100
AcDbVertex
100
AcDb2dVertex
 10
8.036644
 20
0.598478
 30
0.0
  0
VERTEX
  5
B8
100
AcDbEntity
  8
0
370
     0
390
0
100
AcDbVertex
100
AcDb2dVertex
 10
8.035144
 20
0.596448
 30
0.0
  0
VERTEX
  5
B9
100
AcDbEntity
  8
0
370
     0
390
0
100
AcDbVertex
100
AcDb2dVertex
 10
8.033629
 20
0.594168
 30
0.0
  0
VERTEX
  5
BA
100
AcDbEntity
  8
0
370
     0
390
0
100
AcDbVertex
100
AcDb2dVertex
 10
8.032099
 20
0.591638
 30
0.0
  0
VERTEX
  5
BB
100
AcDbEntity
  8
0
370
     0
390
0
100
AcDbVertex
100
AcDb2dVertex
 10
8.030552
 20
0.588855
 30
0.0
  0
VERTEX
  5
BC
100
AcDbEntity
  8
0
370
     0
390
0
100
AcDbVertex
100
AcDb2dVertex
 10
8.028992
 20
0.585822
 30
0.0
  0
VERTEX
  5
BD
100
AcDbEntity
  8
0
370
     0
390
0
100
AcDbVertex
100
AcDb2dVertex
 10
8.027416
 20
0.582539
 30
0.0
  0
VERTEX
  5
BE
100
AcDbEntity
  8
0
370
     0
390
0
100
AcDbVertex
100
AcDb2dVertex
 10
8.025824
 20
0.579005
 30
0.0
  0
VERTEX
  5
BF
100
AcDbEntity
  8
0
370
     0
390
0
100
AcDbVertex
100
AcDb2dVertex
 10
8.024219
 20
0.575219
 30
0.0
  0
VERTEX
  5
C0
100
AcDbEntity
  8
0
370
     0
390
0
100
AcDbVertex
100
AcDb2dVertex
 10
8.022597
 20
0.571182
 30
0.0
  0
VERTEX
  5
C1
100
AcDbEntity
  8
0
370
     0
390
0
100
AcDbVertex
100
AcDb2dVertex
 10
8.020961
 20
0.566895
 30
0.0
  0
VERTEX
  5
C2
100
AcDbEntity
  8
0
370
     0
390
0
100
AcDbVertex
100
AcDb2dVertex
 10
8.018149
 20
0.567869
 30
0.0
  0
VERTEX
  5
C3
100
AcDbEntity
  8
0
370
     0
390
0
100
AcDbVertex
100
AcDb2dVertex
 10
8.020069
 20
0.573183
 30
0.0
  0
VERTEX
  5
C4
100
AcDbEntity
  8
0
370
     0
390
0
100
AcDbVertex
100
AcDb2dVertex
 10
8.021652
 20
0.577253
 30
0.0
  0
VERTEX
  5
C5
100
AcDbEntity
  8
0
370
     0
390
0
100
AcDbVertex
100
AcDb2dVertex
 10
8.023227
 20
0.581049
 30
0.0
  0
VERTEX
  5
C6
100
AcDbEntity
  8
0
370
     0
390
0
100
AcDbVertex
100
AcDb2dVertex
 10
8.024791
 20
0.584573
 30
0.0
  0
VERTEX
  5
C7
100
AcDbEntity
  8
0
370
     0
390
0
100
AcDbVertex
100
AcDb2dVertex
 10
8.026342
 20
0.587825
 30
0.0
  0
VERTEX
  5
C8
100
AcDbEntity
  8
0
370
     0
390
0
100
AcDbVertex
100
AcDb2dVertex
 10
8.027884
 20
0.590802
 30
0.0
  0
VERTEX
  5
C9
100
AcDbEntity
  8
0
370
     0
390
0
100
AcDbVertex
100
AcDb2dVertex
 10
8.029413
 20
0.593508
 30
0.0
  0
VERTEX
  5
CA
100
AcDbEntity
  8
0
370
     0
390
0
100
AcDbVertex
100
AcDb2dVertex
 10
8.030933
 20
0.595943
 30
0.0
  0
VERTEX
  5
CB
100
AcDbEntity
  8
0
370
     0
390
0
100
AcDbVertex
100
AcDb2dVertex
 10
8.032442
 20
0.598104
 30
0.0
  0
VERTEX
  5
CC
100
AcDbEntity
  8
0
370
     0
390
0
100
AcDbVertex
100
AcDb2dVertex
 10
8.03394
 20
0.599991
 30
0.0
  0
SEQEND
  5
CD
100
AcDbEntity
  8
0
370
     0
390
0
  0
POLYLINE
  5
CE
100
AcDbEntity
  8
0
370
    13
390
0
 62
     7
 48
0.03937
100
AcDb2dPolyline
 66
     1
 10
0.0
 20
0.0
 30
0.0
 70
     1
 71
    34
  0
VERTEX
  5
CF
100
AcDbEntity
  8
0
370
     0
390
0
100
AcDbVertex
100
AcDb2dVertex
 10
8.007766
 20
0.581604
 30
0.0
  0
VERTEX
  5
D0
100
AcDbEntity
  8
0
370
     0
390
0
100
AcDbVertex
100
AcDb2dVertex
 10
8.006072
 20
0.582632
 30
0.0
  0
VERTEX
  5
D1
100
AcDbEntity
  8
0
370
     0
390
0
100
AcDbVertex
100
AcDb2dVertex
 10
8.004322
 20
0.583551
 30
0.0
  0
VERTEX
  5
D2
100
AcDbEntity
  8
0
370
     0
390
0
100
AcDbVertex
100
AcDb2dVertex
 10
8.002516
 20
0.584363
 30
0.0
  0
VERTEX
  5
D3
100
AcDbEntity
  8
0
370
     0
390
0
100
AcDbVertex
100
AcDb2dVertex
 10
8.000652
 20
0.585066
 30
0.0
  0
VERTEX
  5
D4
100
AcDbEntity
  8
0
370
     0
390
0
100
AcDbVertex
100
AcDb2dVertex
 10
7.998734
 20
0.58566
 30
0.0
  0
VERTEX
  5
D5
100
AcDbEntity
  8
0
370
     0
390
0
100
AcDbVertex
100
AcDb2dVertex
 10
7.996758
 20
0.586148
 30
0.0
  0
VERTEX
  5
D6
100
AcDbEntity
  8
0
370
     0
390
0
100
AcDbVertex
100
AcDb2dVertex
 10
7.994728
 20
0.586526
 30
0.0
  0
VERTEX
  5
D7
100
AcDbEntity
  8
0
370
     0
390
0
100
AcDbVertex
100
AcDb2dVertex
 10
7.992641
 20
0.586796
 30
0.0
  0
VERTEX
  5
D8
100
AcDbEntity
  8
0
370
     0
390
0
100
AcDbVertex
100
AcDb2dVertex
 10
7.990496
 20
0.586959
 30
0.0
  0
VERTEX
  5
D9
100
AcDbEntity
  8
0
370
     0
390
0
100
AcDbVertex
100
AcDb2dVertex
 10
7.988297
 20
0.587013
 30
0.0
  0
VERTEX
  5
DA
100
AcDbEntity
  8
0
370
     0
390
0
100
AcDbVertex
100
AcDb2dVertex
 10
7.986785
 20
0.586983
 30
0.0
  0
VERTEX
  5
DB
100
AcDbEntity
  8
0
370
     0
390
0
100
AcDbVertex
100
AcDb2dVertex
 10
7.985234
 20
0.586896
 30
0.0
  0
VERTEX
  5
DC
100
AcDbEntity
  8
0
370
     0
390
0
100
AcDbVertex
100
AcDb2dVertex
 10
7.983644
 20
0.586751
 30
0.0
  0
VERTEX
  5
DD
100
AcDbEntity
  8
0
370
     0
390
0
100
AcDbVertex
100
AcDb2dVertex
 10
7.983538
 20
0.477987
 30
0.0
  0
VERTEX
  5
DE
100
AcDbEntity
  8
0
370
     0
390
0
100
AcDbVertex
100
AcDb2dVertex
 10
8.000735
 20
0.457653
 30
0.0
  0
VERTEX
  5
DF
100
AcDbEntity
  8
0
370
     0
390
0
100
AcDbVertex
100
AcDb2dVertex
 10
7.945466
 20
0.457653
 30
0.0
  0
VERTEX
  5
E0
100
AcDbEntity
  8
0
370
     0
390
0
100
AcDbVertex
100
AcDb2dVertex
 10
7.942978
 20
0.460574
 30
0.0
  0
VERTEX
  5
E1
100
AcDbEntity
  8
0
370
     0
390
0
100
AcDbVertex
100
AcDb2dVertex
 10
7.994786
 20
0.460574
 30
0.0
  0
VERTEX
  5
E2
100
AcDbEntity
  8
0
370
     0
390
0
100
AcDbVertex
100
AcDb2dVertex
 10
7.980293
 20
0.477123
 30
0.0
  0
VERTEX
  5
E3
100
AcDbEntity
  8
0
370
     0
390
0
100
AcDbVertex
100
AcDb2dVertex
 10
7.980293
 20
0.589826
 30
0.0
  0
VERTEX
  5
E4
100
AcDbEntity
  8
0
370
     0
390
0
100
AcDbVertex
100
AcDb2dVertex
 10
7.986134
 20
0.589934
 30
0.0
  0
VERTEX
  5
E5
100
AcDbEntity
  8
0
370
     0
390
0
100
AcDbVertex
100
AcDb2dVertex
 10
7.988171
 20
0.589916
 30
0.0
  0
VERTEX
  5
E6
100
AcDbEntity
  8
0
370
     0
390
0
100
AcDbVertex
100
AcDb2dVertex
 10
7.990086
 20
0.589866
 30
0.0
  0
VERTEX
  5
E7
100
AcDbEntity
  8
0
370
     0
390
0
100
AcDbVertex
100
AcDb2dVertex
 10
7.991879
 20
0.589782
 30
0.0
  0
VERTEX
  5
E8
100
AcDbEntity
  8
0
370
     0
390
0
100
AcDbVertex
100
AcDb2dVertex
 10
7.993549
 20
0.589665
 30
0.0
  0
VERTEX
  5
E9
100
AcDbEntity
  8
0
370
     0
390
0
100
AcDbVertex
100
AcDb2dVertex
 10
7.995098
 20
0.589514
 30
0.0
  0
VERTEX
  5
EA
100
AcDbEntity
  8
0
370
     0
390
0
100
AcDbVertex
100
AcDb2dVertex
 10
7.997828
 20
0.589112
 30
0.0
  0
VERTEX
  5
EB
100
AcDbEntity
  8
0
370
     0
390
0
100
AcDbVertex
100
AcDb2dVertex
 10
8.000069
 20
0.588575
 30
0.0
  0
VERTEX
  5
EC
100
AcDbEntity
  8
0
370
     0
390
0
100
AcDbVertex
100
AcDb2dVertex
 10
8.001862
 20
0.587888
 30
0.0
  0
VERTEX
  5
ED
100
AcDbEntity
  8
0
370
     0
390
0
100
AcDbVertex
100
AcDb2dVertex
 10
8.003455
 20
0.586953
 30
0.0
  0
VERTEX
  5
EE
100
AcDbEntity
  8
0
370
     0
390
0
100
AcDbVertex
100
AcDb2dVertex
 10
8.004886
 20
0.585755
 30
0.0
  0
VERTEX
  5
EF
100
AcDbEntity
  8
0
370
     0
390
0
100
AcDbVertex
100
AcDb2dVertex
 10
8.006157
 20
0.584294
 30
0.0
  0
VERTEX
  5
F0
100
AcDbEntity
  8
0
370
     0
390
0
100
AcDbVertex
100
AcDb2dVertex
 10
8.007269
 20
0.582567
 30
0.0
  0
SEQEND
  5
F1
100
AcDbEntity
  8
0
370
     0
390
0
  0
POLYLINE
  5
F2
100
AcDbEntity
  8
0
370
    13
390
0
 62
     7
 48
0.03937
100
AcDb2dPolyline
 66
     1
 10
0.0
 20
0.0
 30
0.0
 70
     1
 71
   138
  0
VERTEX
  5
F3
100
AcDbEntity
  8
0
370
     0
390
0
100
AcDbVertex
100
AcDb2dVertex
 10
8.03978
 20
0.605292
 30
0.0
  0
VERTEX
  5
F4
100
AcDbEntity
  8
0
370
     0
390
0
100
AcDbVertex
100
AcDb2dVertex
 10
8.152051
 20
0.605292
 30
0.0
  0
VERTEX
  5
F5
100
AcDbEntity
  8
0
370
     0
390
0
100
AcDbVertex
100
AcDb2dVertex
 10
8.150747
 20
0.603555
 30
0.0
  0
VERTEX
  5
F6
100
AcDbEntity
  8
0
370
     0
390
0
100
AcDbVertex
100
AcDb2dVertex
 10
8.149522
 20
0.601895
 30
0.0
  0
VERTEX
  5
F7
100
AcDbEntity
  8
0
370
     0
390
0
100
AcDbVertex
100
AcDb2dVertex
 10
8.148372
 20
0.600311
 30
0.0
  0
VERTEX
  5
F8
100
AcDbEntity
  8
0
370
     0
390
0
100
AcDbVertex
100
AcDb2dVertex
 10
8.1473
 20
0.598802
 30
0.0
  0
VERTEX
  5
F9
100
AcDbEntity
  8
0
370
     0
390
0
100
AcDbVertex
100
AcDb2dVertex
 10
8.146304
 20
0.597369
 30
0.0
  0
VERTEX
  5
FA
100
AcDbEntity
  8
0
370
     0
390
0
100
AcDbVertex
100
AcDb2dVertex
 10
8.145386
 20
0.596012
 30
0.0
  0
VERTEX
  5
FB
100
AcDbEntity
  8
0
370
     0
390
0
100
AcDbVertex
100
AcDb2dVertex
 10
8.144543
 20
0.594729
 30
0.0
  0
VERTEX
  5
FC
100
AcDbEntity
  8
0
370
     0
390
0
100
AcDbVertex
100
AcDb2dVertex
 10
8.143089
 20
0.592394
 30
0.0
  0
VERTEX
  5
FD
100
AcDbEntity
  8
0
370
     0
390
0
100
AcDbVertex
100
AcDb2dVertex
 10
8.14189
 20
0.590261
 30
0.0
  0
VERTEX
  5
FE
100
AcDbEntity
  8
0
370
     0
390
0
100
AcDbVertex
100
AcDb2dVertex
 10
8.140617
 20
0.587735
 30
0.0
  0
VERTEX
  5
FF
100
AcDbEntity
  8
0
370
     0
390
0
100
AcDbVertex
100
AcDb2dVertex
 10
8.139935
 20
0.586286
 30
0.0
  0
VERTEX
  5
100
100
AcDbEntity
  8
0
370
     0
390
0
100
AcDbVertex
100
AcDb2dVertex
 10
8.13922
 20
0.584714
 30
0.0
  0
VERTEX
  5
101
100
AcDbEntity
  8
0
370
     0
390
0
100
AcDbVertex
100
AcDb2dVertex
 10
8.138474
 20
0.583019
 30
0.0
  0
VERTEX
  5
102
100
AcDbEntity
  8
0
370
     0
390
0
100
AcDbVertex
100
AcDb2dVertex
 10
8.137697
 20
0.581201
 30
0.0
  0
VERTEX
  5
103
100
AcDbEntity
  8
0
370
     0
390
0
100
AcDbVertex
100
AcDb2dVertex
 10
8.136889
 20
0.57926
 30
0.0
  0
VERTEX
  5
104
100
AcDbEntity
  8
0
370
     0
390
0
100
AcDbVertex
100
AcDb2dVertex
 10
8.136049
 20
0.577196
 30
0.0
  0
VERTEX
  5
105
100
AcDbEntity
  8
0
370
     0
390
0
100
AcDbVertex
100
AcDb2dVertex
 10
8.135177
 20
0.575007
 30
0.0
  0
VERTEX
  5
106
100
AcDbEntity
  8
0
370
     0
390
0
100
AcDbVertex
100
AcDb2dVertex
 10
8.134311
 20
0.572844
 30
0.0
  0
VERTEX
  5
107
100
AcDbEntity
  8
0
370
     0
390
0
100
AcDbVertex
100
AcDb2dVertex
 10
8.132887
 20
0.575682
 30
0.0
  0
VERTEX
  5
108
100
AcDbEntity
  8
0
370
     0
390
0
100
AcDbVertex
100
AcDb2dVertex
 10
8.131463
 20
0.578313
 30
0.0
  0
VERTEX
  5
109
100
AcDbEntity
  8
0
370
     0
390
0
100
AcDbVertex
100
AcDb2dVertex
 10
8.130044
 20
0.580736
 30
0.0
  0
VERTEX
  5
10A
100
AcDbEntity
  8
0
370
     0
390
0
100
AcDbVertex
100
AcDb2dVertex
 10
8.128628
 20
0.582951
 30
0.0
  0
VERTEX
  5
10B
100
AcDbEntity
  8
0
370
     0
390
0
100
AcDbVertex
100
AcDb2dVertex
 10
8.127215
 20
0.584958
 30
0.0
  0
VERTEX
  5
10C
100
AcDbEntity
  8
0
370
     0
390
0
100
AcDbVertex
100
AcDb2dVertex
 10
8.125804
 20
0.586758
 30
0.0
  0
VERTEX
  5
10D
100
AcDbEntity
  8
0
370
     0
390
0
100
AcDbVertex
100
AcDb2dVertex
 10
8.124398
 20
0.58835
 30
0.0
  0
VERTEX
  5
10E
100
AcDbEntity
  8
0
370
     0
390
0
100
AcDbVertex
100
AcDb2dVertex
 10
8.122994
 20
0.589734
 30
0.0
  0
VERTEX
  5
10F
100
AcDbEntity
  8
0
370
     0
390
0
100
AcDbVertex
100
AcDb2dVertex
 10
8.121594
 20
0.59091
 30
0.0
  0
VERTEX
  5
110
100
AcDbEntity
  8
0
370
     0
390
0
100
AcDbVertex
100
AcDb2dVertex
 10
8.120198
 20
0.591881
 30
0.0
  0
VERTEX
  5
111
100
AcDbEntity
  8
0
370
     0
390
0
100
AcDbVertex
100
AcDb2dVertex
 10
8.118707
 20
0.592701
 30
0.0
  0
VERTEX
  5
112
100
AcDbEntity
  8
0
370
     0
390
0
100
AcDbVertex
100
AcDb2dVertex
 10
8.117024
 20
0.593438
 30
0.0
  0
VERTEX
  5
113
100
AcDbEntity
  8
0
370
     0
390
0
100
AcDbVertex
100
AcDb2dVertex
 10
8.11515
 20
0.594086
 30
0.0
  0
VERTEX
  5
114
100
AcDbEntity
  8
0
370
     0
390
0
100
AcDbVertex
100
AcDb2dVertex
 10
8.113085
 20
0.594648
 30
0.0
  0
VERTEX
  5
115
100
AcDbEntity
  8
0
370
     0
390
0
100
AcDbVertex
100
AcDb2dVertex
 10
8.110827
 20
0.595125
 30
0.0
  0
VERTEX
  5
116
100
AcDbEntity
  8
0
370
     0
390
0
100
AcDbVertex
100
AcDb2dVertex
 10
8.108379
 20
0.595514
 30
0.0
  0
VERTEX
  5
117
100
AcDbEntity
  8
0
370
     0
390
0
100
AcDbVertex
100
AcDb2dVertex
 10
8.10574
 20
0.595817
 30
0.0
  0
VERTEX
  5
118
100
AcDbEntity
  8
0
370
     0
390
0
100
AcDbVertex
100
AcDb2dVertex
 10
8.102909
 20
0.596033
 30
0.0
  0
VERTEX
  5
119
100
AcDbEntity
  8
0
370
     0
390
0
100
AcDbVertex
100
AcDb2dVertex
 10
8.099887
 20
0.596163
 30
0.0
  0
VERTEX
  5
11A
100
AcDbEntity
  8
0
370
     0
390
0
100
AcDbVertex
100
AcDb2dVertex
 10
8.096672
 20
0.596207
 30
0.0
  0
VERTEX
  5
11B
100
AcDbEntity
  8
0
370
     0
390
0
100
AcDbVertex
100
AcDb2dVertex
 10
8.090507
 20
0.596099
 30
0.0
  0
VERTEX
  5
11C
100
AcDbEntity
  8
0
370
     0
390
0
100
AcDbVertex
100
AcDb2dVertex
 10
8.080016
 20
0.596207
 30
0.0
  0
VERTEX
  5
11D
100
AcDbEntity
  8
0
370
     0
390
0
100
AcDbVertex
100
AcDb2dVertex
 10
8.076014
 20
0.596315
 30
0.0
  0
VERTEX
  5
11E
100
AcDbEntity
  8
0
370
     0
390
0
100
AcDbVertex
100
AcDb2dVertex
 10
8.076014
 20
0.545696
 30
0.0
  0
VERTEX
  5
11F
100
AcDbEntity
  8
0
370
     0
390
0
100
AcDbVertex
100
AcDb2dVertex
 10
8.082612
 20
0.545696
 30
0.0
  0
VERTEX
  5
120
100
AcDbEntity
  8
0
370
     0
390
0
100
AcDbVertex
100
AcDb2dVertex
 10
8.082612
 20
0.590366
 30
0.0
  0
VERTEX
  5
121
100
AcDbEntity
  8
0
370
     0
390
0
100
AcDbVertex
100
AcDb2dVertex
 10
8.085749
 20
0.590474
 30
0.0
  0
VERTEX
  5
122
100
AcDbEntity
  8
0
370
     0
390
0
100
AcDbVertex
100
AcDb2dVertex
 10
8.088465
 20
0.590591
 30
0.0
  0
VERTEX
  5
123
100
AcDbEntity
  8
0
370
     0
390
0
100
AcDbVertex
100
AcDb2dVertex
 10
8.091251
 20
0.590682
 30
0.0
  0
VERTEX
  5
124
100
AcDbEntity
  8
0
370
     0
390
0
100
AcDbVertex
100
AcDb2dVertex
 10
8.094107
 20
0.590747
 30
0.0
  0
VERTEX
  5
125
100
AcDbEntity
  8
0
370
     0
390
0
100
AcDbVertex
100
AcDb2dVertex
 10
8.097032
 20
0.590786
 30
0.0
  0
VERTEX
  5
126
100
AcDbEntity
  8
0
370
     0
390
0
100
AcDbVertex
100
AcDb2dVertex
 10
8.100026
 20
0.590798
 30
0.0
  0
VERTEX
  5
127
100
AcDbEntity
  8
0
370
     0
390
0
100
AcDbVertex
100
AcDb2dVertex
 10
8.104273
 20
0.590684
 30
0.0
  0
VERTEX
  5
128
100
AcDbEntity
  8
0
370
     0
390
0
100
AcDbVertex
100
AcDb2dVertex
 10
8.108189
 20
0.59034
 30
0.0
  0
VERTEX
  5
129
100
AcDbEntity
  8
0
370
     0
390
0
100
AcDbVertex
100
AcDb2dVertex
 10
8.111775
 20
0.589767
 30
0.0
  0
VERTEX
  5
12A
100
AcDbEntity
  8
0
370
     0
390
0
100
AcDbVertex
100
AcDb2dVertex
 10
8.115029
 20
0.588965
 30
0.0
  0
VERTEX
  5
12B
100
AcDbEntity
  8
0
370
     0
390
0
100
AcDbVertex
100
AcDb2dVertex
 10
8.117954
 20
0.587933
 30
0.0
  0
VERTEX
  5
12C
100
AcDbEntity
  8
0
370
     0
390
0
100
AcDbVertex
100
AcDb2dVertex
 10
8.120546
 20
0.586671
 30
0.0
  0
VERTEX
  5
12D
100
AcDbEntity
  8
0
370
     0
390
0
100
AcDbVertex
100
AcDb2dVertex
 10
8.122807
 20
0.58518
 30
0.0
  0
VERTEX
  5
12E
100
AcDbEntity
  8
0
370
     0
390
0
100
AcDbVertex
100
AcDb2dVertex
 10
8.124737
 20
0.583461
 30
0.0
  0
VERTEX
  5
12F
100
AcDbEntity
  8
0
370
     0
390
0
100
AcDbVertex
100
AcDb2dVertex
 10
8.126338
 20
0.581511
 30
0.0
  0
VERTEX
  5
130
100
AcDbEntity
  8
0
370
     0
390
0
100
AcDbVertex
100
AcDb2dVertex
 10
8.127607
 20
0.579333
 30
0.0
  0
VERTEX
  5
131
100
AcDbEntity
  8
0
370
     0
390
0
100
AcDbVertex
100
AcDb2dVertex
 10
8.125449
 20
0.581235
 30
0.0
  0
VERTEX
  5
132
100
AcDbEntity
  8
0
370
     0
390
0
100
AcDbVertex
100
AcDb2dVertex
 10
8.123219
 20
0.582873
 30
0.0
  0
VERTEX
  5
133
100
AcDbEntity
  8
0
370
     0
390
0
100
AcDbVertex
100
AcDb2dVertex
 10
8.120915
 20
0.584246
 30
0.0
  0
VERTEX
  5
134
100
AcDbEntity
  8
0
370
     0
390
0
100
AcDbVertex
100
AcDb2dVertex
 10
8.118538
 20
0.585356
 30
0.0
  0
VERTEX
  5
135
100
AcDbEntity
  8
0
370
     0
390
0
100
AcDbVertex
100
AcDb2dVertex
 10
8.116087
 20
0.586202
 30
0.0
  0
VERTEX
  5
136
100
AcDbEntity
  8
0
370
     0
390
0
100
AcDbVertex
100
AcDb2dVertex
 10
8.113329
 20
0.586844
 30
0.0
  0
VERTEX
  5
137
100
AcDbEntity
  8
0
370
     0
390
0
100
AcDbVertex
100
AcDb2dVertex
 10
8.111747
 20
0.587112
 30
0.0
  0
VERTEX
  5
138
100
AcDbEntity
  8
0
370
     0
390
0
100
AcDbVertex
100
AcDb2dVertex
 10
8.110031
 20
0.587343
 30
0.0
  0
VERTEX
  5
139
100
AcDbEntity
  8
0
370
     0
390
0
100
AcDbVertex
100
AcDb2dVertex
 10
8.108179
 20
0.58754
 30
0.0
  0
VERTEX
  5
13A
100
AcDbEntity
  8
0
370
     0
390
0
100
AcDbVertex
100
AcDb2dVertex
 10
8.106191
 20
0.5877
 30
0.0
  0
VERTEX
  5
13B
100
AcDbEntity
  8
0
370
     0
390
0
100
AcDbVertex
100
AcDb2dVertex
 10
8.104068
 20
0.587826
 30
0.0
  0
VERTEX
  5
13C
100
AcDbEntity
  8
0
370
     0
390
0
100
AcDbVertex
100
AcDb2dVertex
 10
8.101811
 20
0.587915
 30
0.0
  0
VERTEX
  5
13D
100
AcDbEntity
  8
0
370
     0
390
0
100
AcDbVertex
100
AcDb2dVertex
 10
8.099417
 20
0.587969
 30
0.0
  0
VERTEX
  5
13E
100
AcDbEntity
  8
0
370
     0
390
0
100
AcDbVertex
100
AcDb2dVertex
 10
8.09689
 20
0.587987
 30
0.0
  0
VERTEX
  5
13F
100
AcDbEntity
  8
0
370
     0
390
0
100
AcDbVertex
100
AcDb2dVertex
 10
8.094938
 20
0.587964
 30
0.0
  0
VERTEX
  5
140
100
AcDbEntity
  8
0
370
     0
390
0
100
AcDbVertex
100
AcDb2dVertex
 10
8.092805
 20
0.5879
 30
0.0
  0
VERTEX
  5
141
100
AcDbEntity
  8
0
370
     0
390
0
100
AcDbVertex
100
AcDb2dVertex
 10
8.090491
 20
0.587792
 30
0.0
  0
VERTEX
  5
142
100
AcDbEntity
  8
0
370
     0
390
0
100
AcDbVertex
100
AcDb2dVertex
 10
8.087994
 20
0.58764
 30
0.0
  0
VERTEX
  5
143
100
AcDbEntity
  8
0
370
     0
390
0
100
AcDbVertex
100
AcDb2dVertex
 10
8.085316
 20
0.587445
 30
0.0
  0
VERTEX
  5
144
100
AcDbEntity
  8
0
370
     0
390
0
100
AcDbVertex
100
AcDb2dVertex
 10
8.085316
 20
0.545696
 30
0.0
  0
VERTEX
  5
145
100
AcDbEntity
  8
0
370
     0
390
0
100
AcDbVertex
100
AcDb2dVertex
 10
8.101647
 20
0.545696
 30
0.0
  0
VERTEX
  5
146
100
AcDbEntity
  8
0
370
     0
390
0
100
AcDbVertex
100
AcDb2dVertex
 10
8.118953
 20
0.563975
 30
0.0
  0
VERTEX
  5
147
100
AcDbEntity
  8
0
370
     0
390
0
100
AcDbVertex
100
AcDb2dVertex
 10
8.118953
 20
0.518655
 30
0.0
  0
VERTEX
  5
148
100
AcDbEntity
  8
0
370
     0
390
0
100
AcDbVertex
100
AcDb2dVertex
 10
8.100782
 20
0.53661
 30
0.0
  0
VERTEX
  5
149
100
AcDbEntity
  8
0
370
     0
390
0
100
AcDbVertex
100
AcDb2dVertex
 10
8.076014
 20
0.53661
 30
0.0
  0
VERTEX
  5
14A
100
AcDbEntity
  8
0
370
     0
390
0
100
AcDbVertex
100
AcDb2dVertex
 10
8.076014
 20
0.482097
 30
0.0
  0
VERTEX
  5
14B
100
AcDbEntity
  8
0
370
     0
390
0
100
AcDbVertex
100
AcDb2dVertex
 10
8.089859
 20
0.468038
 30
0.0
  0
VERTEX
  5
14C
100
AcDbEntity
  8
0
370
     0
390
0
100
AcDbVertex
100
AcDb2dVertex
 10
8.036753
 20
0.468038
 30
0.0
  0
VERTEX
  5
14D
100
AcDbEntity
  8
0
370
     0
390
0
100
AcDbVertex
100
AcDb2dVertex
 10
8.054382
 20
0.482097
 30
0.0
  0
VERTEX
  5
14E
100
AcDbEntity
  8
0
370
     0
390
0
100
AcDbVertex
100
AcDb2dVertex
 10
8.054382
 20
0.528606
 30
0.0
  0
VERTEX
  5
14F
100
AcDbEntity
  8
0
370
     0
390
0
100
AcDbVertex
100
AcDb2dVertex
 10
8.052737
 20
0.528543
 30
0.0
  0
VERTEX
  5
150
100
AcDbEntity
  8
0
370
     0
390
0
100
AcDbVertex
100
AcDb2dVertex
 10
8.051134
 20
0.528356
 30
0.0
  0
VERTEX
  5
151
100
AcDbEntity
  8
0
370
     0
390
0
100
AcDbVertex
100
AcDb2dVertex
 10
8.049571
 20
0.528042
 30
0.0
  0
VERTEX
  5
152
100
AcDbEntity
  8
0
370
     0
390
0
100
AcDbVertex
100
AcDb2dVertex
 10
8.048048
 20
0.527603
 30
0.0
  0
VERTEX
  5
153
100
AcDbEntity
  8
0
370
     0
390
0
100
AcDbVertex
100
AcDb2dVertex
 10
8.046567
 20
0.527039
 30
0.0
  0
VERTEX
  5
154
100
AcDbEntity
  8
0
370
     0
390
0
100
AcDbVertex
100
AcDb2dVertex
 10
8.045129
 20
0.526349
 30
0.0
  0
VERTEX
  5
155
100
AcDbEntity
  8
0
370
     0
390
0
100
AcDbVertex
100
AcDb2dVertex
 10
8.04373
 20
0.525533
 30
0.0
  0
VERTEX
  5
156
100
AcDbEntity
  8
0
370
     0
390
0
100
AcDbVertex
100
AcDb2dVertex
 10
8.042372
 20
0.524592
 30
0.0
  0
VERTEX
  5
157
100
AcDbEntity
  8
0
370
     0
390
0
100
AcDbVertex
100
AcDb2dVertex
 10
8.041057
 20
0.523526
 30
0.0
  0
VERTEX
  5
158
100
AcDbEntity
  8
0
370
     0
390
0
100
AcDbVertex
100
AcDb2dVertex
 10
8.03978
 20
0.522333
 30
0.0
  0
VERTEX
  5
159
100
AcDbEntity
  8
0
370
     0
390
0
100
AcDbVertex
100
AcDb2dVertex
 10
8.037725
 20
0.524604
 30
0.0
  0
VERTEX
  5
15A
100
AcDbEntity
  8
0
370
     0
390
0
100
AcDbVertex
100
AcDb2dVertex
 10
8.039021
 20
0.52592
 30
0.0
  0
VERTEX
  5
15B
100
AcDbEntity
  8
0
370
     0
390
0
100
AcDbVertex
100
AcDb2dVertex
 10
8.0404
 20
0.527097
 30
0.0
  0
VERTEX
  5
15C
100
AcDbEntity
  8
0
370
     0
390
0
100
AcDbVertex
100
AcDb2dVertex
 10
8.041859
 20
0.528135
 30
0.0
  0
VERTEX
  5
15D
100
AcDbEntity
  8
0
370
     0
390
0
100
AcDbVertex
100
AcDb2dVertex
 10
8.043403
 20
0.529035
 30
0.0
  0
VERTEX
  5
15E
100
AcDbEntity
  8
0
370
     0
390
0
100
AcDbVertex
100
AcDb2dVertex
 10
8.045027
 20
0.529796
 30
0.0
  0
VERTEX
  5
15F
100
AcDbEntity
  8
0
370
     0
390
0
100
AcDbVertex
100
AcDb2dVertex
 10
8.046733
 20
0.53042
 30
0.0
  0
VERTEX
  5
160
100
AcDbEntity
  8
0
370
     0
390
0
100
AcDbVertex
100
AcDb2dVertex
 10
8.048522
 20
0.530904
 30
0.0
  0
VERTEX
  5
161
100
AcDbEntity
  8
0
370
     0
390
0
100
AcDbVertex
100
AcDb2dVertex
 10
8.050394
 20
0.531249
 30
0.0
  0
VERTEX
  5
162
100
AcDbEntity
  8
0
370
     0
390
0
100
AcDbVertex
100
AcDb2dVertex
 10
8.052347
 20
0.531458
 30
0.0
  0
VERTEX
  5
163
100
AcDbEntity
  8
0
370
     0
390
0
100
AcDbVertex
100
AcDb2dVertex
 10
8.054382
 20
0.531527
 30
0.0
  0
VERTEX
  5
164
100
AcDbEntity
  8
0
370
     0
390
0
100
AcDbVertex
100
AcDb2dVertex
 10
8.054382
 20
0.53661
 30
0.0
  0
VERTEX
  5
165
100
AcDbEntity
  8
0
370
     0
390
0
100
AcDbVertex
100
AcDb2dVertex
 10
8.052773
 20
0.536748
 30
0.0
  0
VERTEX
  5
166
100
AcDbEntity
  8
0
370
     0
390
0
100
AcDbVertex
100
AcDb2dVertex
 10
8.051138
 20
0.536826
 30
0.0
  0
VERTEX
  5
167
100
AcDbEntity
  8
0
370
     0
390
0
100
AcDbVertex
100
AcDb2dVertex
 10
8.049152
 20
0.536744
 30
0.0
  0
VERTEX
  5
168
100
AcDbEntity
  8
0
370
     0
390
0
100
AcDbVertex
100
AcDb2dVertex
 10
8.047222
 20
0.536498
 30
0.0
  0
VERTEX
  5
169
100
AcDbEntity
  8
0
370
     0
390
0
100
AcDbVertex
100
AcDb2dVertex
 10
8.045345
 20
0.536087
 30
0.0
  0
VERTEX
  5
16A
100
AcDbEntity
  8
0
370
     0
390
0
100
AcDbVertex
100
AcDb2dVertex
 10
8.043522
 20
0.535512
 30
0.0
  0
VERTEX
  5
16B
100
AcDbEntity
  8
0
370
     0
390
0
100
AcDbVertex
100
AcDb2dVertex
 10
8.041754
 20
0.534771
 30
0.0
  0
VERTEX
  5
16C
100
AcDbEntity
  8
0
370
     0
390
0
100
AcDbVertex
100
AcDb2dVertex
 10
8.04004
 20
0.533868
 30
0.0
  0
VERTEX
  5
16D
100
AcDbEntity
  8
0
370
     0
390
0
100
AcDbVertex
100
AcDb2dVertex
 10
8.038381
 20
0.532799
 30
0.0
  0
VERTEX
  5
16E
100
AcDbEntity
  8
0
370
     0
390
0
100
AcDbVertex
100
AcDb2dVertex
 10
8.036774
 20
0.531566
 30
0.0
  0
VERTEX
  5
16F
100
AcDbEntity
  8
0
370
     0
390
0
100
AcDbVertex
100
AcDb2dVertex
 10
8.035222
 20
0.530168
 30
0.0
  0
VERTEX
  5
170
100
AcDbEntity
  8
0
370
     0
390
0
100
AcDbVertex
100
AcDb2dVertex
 10
8.033725
 20
0.528606
 30
0.0
  0
VERTEX
  5
171
100
AcDbEntity
  8
0
370
     0
390
0
100
AcDbVertex
100
AcDb2dVertex
 10
8.032967
 20
0.530337
 30
0.0
  0
VERTEX
  5
172
100
AcDbEntity
  8
0
370
     0
390
0
100
AcDbVertex
100
AcDb2dVertex
 10
8.034058
 20
0.533022
 30
0.0
  0
VERTEX
  5
173
100
AcDbEntity
  8
0
370
     0
390
0
100
AcDbVertex
100
AcDb2dVertex
 10
8.03538
 20
0.535451
 30
0.0
  0
VERTEX
  5
174
100
AcDbEntity
  8
0
370
     0
390
0
100
AcDbVertex
100
AcDb2dVertex
 10
8.036938
 20
0.537626
 30
0.0
  0
VERTEX
  5
175
100
AcDbEntity
  8
0
370
     0
390
0
100
AcDbVertex
100
AcDb2dVertex
 10
8.03873
 20
0.539544
 30
0.0
  0
VERTEX
  5
176
100
AcDbEntity
  8
0
370
     0
390
0
100
AcDbVertex
100
AcDb2dVertex
 10
8.040755
 20
0.541208
 30
0.0
  0
VERTEX
  5
177
100
AcDbEntity
  8
0
370
     0
390
0
100
AcDbVertex
100
AcDb2dVertex
 10
8.043013
 20
0.542615
 30
0.0
  0
VERTEX
  5
178
100
AcDbEntity
  8
0
370
     0
390
0
100
AcDbVertex
100
AcDb2dVertex
 10
8.045504
 20
0.543768
 30
0.0
  0
VERTEX
  5
179
100
AcDbEntity
  8
0
370
     0
390
0
100
AcDbVertex
100
AcDb2dVertex
 10
8.048231
 20
0.544665
 30
0.0
  0
VERTEX
  5
17A
100
AcDbEntity
  8
0
370
     0
390
0
100
AcDbVertex
100
AcDb2dVertex
 10
8.051189
 20
0.545309
 30
0.0
  0
VERTEX
  5
17B
100
AcDbEntity
  8
0
370
     0
390
0
100
AcDbVertex
100
AcDb2dVertex
 10
8.054382
 20
0.545696
 30
0.0
  0
VERTEX
  5
17C
100
AcDbEntity
  8
0
370
     0
390
0
100
AcDbVertex
100
AcDb2dVertex
 10
8.054382
 20
0.591339
 30
0.0
  0
SEQEND
  5
17D
100
AcDbEntity
  8
0
370
     0
390
0
  0
POLYLINE
  5
17E
100
AcDbEntity
  8
0
370
    13
390
0
 62
     7
 48
0.03937
100
AcDb2dPolyline
 66
     1
 10
0.0
 20
0.0
 30
0.0
 70
     1
 71
    22
  0
VERTEX
  5
17F
100
AcDbEntity
  8
0
370
     0
390
0
100
AcDbVertex
100
AcDb2dVertex
 10
8.160271
 20
0.598694
 30
0.0
  0
VERTEX
  5
180
100
AcDbEntity
  8
0
370
     0
390
0
100
AcDbVertex
100
AcDb2dVertex
 10
8.157292
 20
0.595112
 30
0.0
  0
VERTEX
  5
181
100
AcDbEntity
  8
0
370
     0
390
0
100
AcDbVertex
100
AcDb2dVertex
 10
8.154542
 20
0.59159
 30
0.0
  0
VERTEX
  5
182
100
AcDbEntity
  8
0
370
     0
390
0
100
AcDbVertex
100
AcDb2dVertex
 10
8.152022
 20
0.588129
 30
0.0
  0
VERTEX
  5
183
100
AcDbEntity
  8
0
370
     0
390
0
100
AcDbVertex
100
AcDb2dVertex
 10
8.149732
 20
0.584729
 30
0.0
  0
VERTEX
  5
184
100
AcDbEntity
  8
0
370
     0
390
0
100
AcDbVertex
100
AcDb2dVertex
 10
8.147671
 20
0.581388
 30
0.0
  0
VERTEX
  5
185
100
AcDbEntity
  8
0
370
     0
390
0
100
AcDbVertex
100
AcDb2dVertex
 10
8.145838
 20
0.578109
 30
0.0
  0
VERTEX
  5
186
100
AcDbEntity
  8
0
370
     0
390
0
100
AcDbVertex
100
AcDb2dVertex
 10
8.144234
 20
0.57489
 30
0.0
  0
VERTEX
  5
187
100
AcDbEntity
  8
0
370
     0
390
0
100
AcDbVertex
100
AcDb2dVertex
 10
8.142862
 20
0.571733
 30
0.0
  0
VERTEX
  5
188
100
AcDbEntity
  8
0
370
     0
390
0
100
AcDbVertex
100
AcDb2dVertex
 10
8.141717
 20
0.568634
 30
0.0
  0
VERTEX
  5
189
100
AcDbEntity
  8
0
370
     0
390
0
100
AcDbVertex
100
AcDb2dVertex
 10
8.140802
 20
0.565596
 30
0.0
  0
VERTEX
  5
18A
100
AcDbEntity
  8
0
370
     0
390
0
100
AcDbVertex
100
AcDb2dVertex
 10
8.138531
 20
0.567111
 30
0.0
  0
VERTEX
  5
18B
100
AcDbEntity
  8
0
370
     0
390
0
100
AcDbVertex
100
AcDb2dVertex
 10
8.139469
 20
0.570503
 30
0.0
  0
VERTEX
  5
18C
100
AcDbEntity
  8
0
370
     0
390
0
100
AcDbVertex
100
AcDb2dVertex
 10
8.140637
 20
0.573882
 30
0.0
  0
VERTEX
  5
18D
100
AcDbEntity
  8
0
370
     0
390
0
100
AcDbVertex
100
AcDb2dVertex
 10
8.142038
 20
0.577251
 30
0.0
  0
VERTEX
  5
18E
100
AcDbEntity
  8
0
370
     0
390
0
100
AcDbVertex
100
AcDb2dVertex
 10
8.14367
 20
0.58061
 30
0.0
  0
VERTEX
  5
18F
100
AcDbEntity
  8
0
370
     0
390
0
100
AcDbVertex
100
AcDb2dVertex
 10
8.145533
 20
0.583958
 30
0.0
  0
VERTEX
  5
190
100
AcDbEntity
  8
0
370
     0
390
0
100
AcDbVertex
100
AcDb2dVertex
 10
8.147629
 20
0.587294
 30
0.0
  0
VERTEX
  5
191
100
AcDbEntity
  8
0
370
     0
390
0
100
AcDbVertex
100
AcDb2dVertex
 10
8.149955
 20
0.590619
 30
0.0
  0
VERTEX
  5
192
100
AcDbEntity
  8
0
370
     0
390
0
100
AcDbVertex
100
AcDb2dVertex
 10
8.152513
 20
0.593936
 30
0.0
  0
VERTEX
  5
193
100
AcDbEntity
  8
0
370
     0
390
0
100
AcDbVertex
100
AcDb2dVertex
 10
8.155303
 20
0.597239
 30
0.0
  0
VERTEX
  5
194
100
AcDbEntity
  8
0
370
     0
390
0
100
AcDbVertex
100
AcDb2dVertex
 10
8.158324
 20
0.600533
 30
0.0
  0
SEQEND
  5
195
100
AcDbEntity
  8
0
370
     0
390
0
  0
POLYLINE
  5
196
100
AcDbEntity
  8
0
370
    13
390
0
 62
     7
 48
0.03937
100
AcDb2dPolyline
 66
     1
 10
0.0
 20
0.0
 30
0.0
 70
     1
 71
     4
  0
VERTEX
  5
197
100
AcDbEntity
  8
0
370
     0
390
0
100
AcDbVertex
100
AcDb2dVertex
 10
8.126849
 20
0.560189
 30
0.0
  0
VERTEX
  5
198
100
AcDbEntity
  8
0
370
     0
390
0
100
AcDbVertex
100
AcDb2dVertex
 10
8.126849
 20
0.513464
 30
0.0
  0
VERTEX
  5
199
100
AcDbEntity
  8
0
370
     0
390
0
100
AcDbVertex
100
AcDb2dVertex
 10
8.124036
 20
0.515087
 30
0.0
  0
VERTEX
  5
19A
100
AcDbEntity
  8
0
370
     0
390
0
100
AcDbVertex
100
AcDb2dVertex
 10
8.124036
 20
0.561812
 30
0.0
  0
SEQEND
  5
19B
100
AcDbEntity
  8
0
370
     0
390
0
  0
POLYLINE
  5
19C
100
AcDbEntity
  8
0
370
    13
390
0
 62
     7
 48
0.03937
100
AcDb2dPolyline
 66
     1
 10
0.0
 20
0.0
 30
0.0
 70
     1
 71
    10
  0
VERTEX
  5
19D
100
AcDbEntity
  8
0
370
     0
390
0
100
AcDbVertex
100
AcDb2dVertex
 10
8.107488
 20
0.527525
 30
0.0
  0
VERTEX
  5
19E
100
AcDbEntity
  8
0
370
     0
390
0
100
AcDbVertex
100
AcDb2dVertex
 10
8.085316
 20
0.527525
 30
0.0
  0
VERTEX
  5
19F
100
AcDbEntity
  8
0
370
     0
390
0
100
AcDbVertex
100
AcDb2dVertex
 10
8.085316
 20
0.481233
 30
0.0
  0
VERTEX
  5
1A0
100
AcDbEntity
  8
0
370
     0
390
0
100
AcDbVertex
100
AcDb2dVertex
 10
8.104352
 20
0.457653
 30
0.0
  0
VERTEX
  5
1A1
100
AcDbEntity
  8
0
370
     0
390
0
100
AcDbVertex
100
AcDb2dVertex
 10
8.041727
 20
0.457653
 30
0.0
  0
VERTEX
  5
1A2
100
AcDbEntity
  8
0
370
     0
390
0
100
AcDbVertex
100
AcDb2dVertex
 10
8.039024
 20
0.460574
 30
0.0
  0
VERTEX
  5
1A3
100
AcDbEntity
  8
0
370
     0
390
0
100
AcDbVertex
100
AcDb2dVertex
 10
8.098295
 20
0.460574
 30
0.0
  0
VERTEX
  5
1A4
100
AcDbEntity
  8
0
370
     0
390
0
100
AcDbVertex
100
AcDb2dVertex
 10
8.082612
 20
0.479934
 30
0.0
  0
VERTEX
  5
1A5
100
AcDbEntity
  8
0
370
     0
390
0
100
AcDbVertex
100
AcDb2dVertex
 10
8.082612
 20
0.530445
 30
0.0
  0
VERTEX
  5
1A6
100
AcDbEntity
  8
0
370
     0
390
0
100
AcDbVertex
100
AcDb2dVertex
 10
8.104352
 20
0.530445
 30
0.0
  0
SEQEND
  5
1A7
100
AcDbEntity
  8
0
370
     0
390
0
  0
CIRCLE
  5
1A8
100
AcDbEntity
  8
0
370
    35
390
0
 62
     7
 48
0.03937
100
AcDbCircle
 10
2.538845
 20
5.729829
 30
0.0
 40
0.248
210
0.0
220
0.0
230
1.0
  0
CIRCLE
  5
1A9
100
AcDbEntity
  8
0
370
    35
390
0
 62
     7
 48
0.03937
100
AcDbCircle
 10
3.490845
 20
5.729829
 30
0.0
 40
1.4
210
0.0
220
0.0
230
1.0
  0
CIRCLE
  5
1AA
100
AcDbEntity
  8
0
370
    13
390
0
 62
     7
 48
0.03937
100
AcDbCircle
 10
3.490845
 20
5.729829
 30
0.0
 40
0.516277
210
0.0
220
0.0
230
1.0
  0
CIRCLE
  5
1AB
100
AcDbEntity
  8
0
370
    13
390
0
 62
     7
 48
0.03937
100
AcDbCircle
 10
3.490845
 20
5.729829
 30
0.0
 40
0.469006
210
0.0
220
0.0
230
1.0
  0
CIRCLE
  5
1AC
100
AcDbEntity
  8
0
370
    13
390
0
 62
     7
 48
0.03937
100
AcDbCircle
 10
3.490845
 20
5.729829
 30
0.0
 40
0.457603
210
0.0
220
0.0
230
1.0
  0
CIRCLE
  5
1AD
100
AcDbEntity
  8
0
370
    13
390
0
 62
     7
 48
0.03937
100
AcDbCircle
 10
3.490845
 20
5.729829
 30
0.0
 40
0.410332
210
0.0
220
0.0
230
1.0
  0
CIRCLE
  5
1AE
100
AcDbEntity
  8
0
370
    35
390
0
 62
     7
 48
0.03937
100
AcDbCircle
 10
3.490845
 20
5.729829
 30
0.0
 40
0.352
210
0.0
220
0.0
230
1.0
  0
CIRCLE
  5
1AF
100
AcDbEntity
  8
0
370
    35
390
0
 62
     7
 48
0.03937
100
AcDbCircle
 10
3.490845
 20
6.681829
 30
0.0
 40
0.248
210
0.0
220
0.0
230
1.0
  0
CIRCLE
  5
1B0
100
AcDbEntity
  8
0
370
    35
390
0
 62
     7
 48
0.03937
100
AcDbCircle
 10
4.442845
 20
5.729829
 30
0.0
 40
0.248
210
0.0
220
0.0
230
1.0
  0
CIRCLE
  5
1B1
100
AcDbEntity
  8
0
370
    35
390
0
 62
     7
 48
0.03937
100
AcDbCircle
 10
3.490845
 20
4.777829
 30
0.0
 40
0.248
210
0.0
220
0.0
230
1.0
  0
LINE
  5
1B2
100
AcDbEntity
  8
0
370
    13
390
0
  6
DASHDOT
 62
     7
 48
0.01494
100
AcDbLine
 10
3.490845
 20
2.168466
 30
0.0
 11
3.490845
 21
1.570847
 31
0.0
210
0.0
220
0.0
230
1.0
  0
LINE
  5
1B3
100
AcDbEntity
  8
0
370
    35
390
0
 62
     7
 48
0.0076
100
AcDbLine
 10
2.090845
 20
1.974664
 30
0.0
 11
2.090845
 21
1.670664
 31
0.0
210
0.0
220
0.0
230
1.0
  0
LINE
  5
1B4
100
AcDbEntity
  8
0
370
    35
390
0
 62
     7
 48
0.005
100
AcDbLine
 10
2.290845
 20
1.974664
 30
0.0
 11
2.090845
 21
1.974664
 31
0.0
210
0.0
220
0.0
230
1.0
  0
LINE
  5
1B5
100
AcDbEntity
  8
0
370
    35
390
0
 62
     7
 48
0.0076
100
AcDbLine
 10
2.290845
 20
1.974664
 30
0.0
 11
2.290845
 21
1.670664
 31
0.0
210
0.0
220
0.0
230
1.0
  0
LINE
  5
1B6
100
AcDbEntity
  8
0
370
    35
390
0
 62
     7
 48
0.005
100
AcDbLine
 10
2.290845
 20
1.670664
 30
0.0
 11
2.090845
 21
1.670664
 31
0.0
210
0.0
220
0.0
230
1.0
  0
LINE
  5
1B7
100
AcDbEntity
  8
0
370
    35
390
0
 62
     7
 48
0.004693
100
AcDbLine
 10
2.974568
 20
1.974664
 30
0.0
 11
2.786845
 21
1.974664
 31
0.0
210
0.0
220
0.0
230
1.0
  0
LINE
  5
1B8
100
AcDbEntity
  8
0
370
    35
390
0
 62
     7
 48
0.004693
100
AcDbLine
 10
4.194845
 20
1.974664
 30
0.0
 11
4.007122
 21
1.974664
 31
0.0
210
0.0
220
0.0
230
1.0
  0
LINE
  5
1B9
100
AcDbEntity
  8
0
370
    35
390
0
 62
     7
 48
0.000759
100
AcDbLine
 10
4.194845
 20
1.974664
 30
0.0
 11
4.225204
 21
1.974664
 31
0.0
210
0.0
220
0.0
230
1.0
  0
LINE
  5
1BA
100
AcDbEntity
  8
0
370
    35
390
0
 62
     7
 48
0.011641
100
AcDbLine
 10
4.225204
 20
1.974664
 30
0.0
 11
4.690845
 21
1.974664
 31
0.0
210
0.0
220
0.0
230
1.0
  0
LINE
  5
1BB
100
AcDbEntity
  8
0
370
    35
390
0
 62
     7
 48
0.005
100
AcDbLine
 10
4.890845
 20
1.974664
 30
0.0
 11
4.690845
 21
1.974664
 31
0.0
210
0.0
220
0.0
230
1.0
  0
LINE
  5
1BC
100
AcDbEntity
  8
0
370
    35
390
0
 62
     7
 48
0.000759
100
AcDbLine
 10
2.290845
 20
1.974664
 30
0.0
 11
2.321204
 21
1.974664
 31
0.0
210
0.0
220
0.0
230
1.0
  0
LINE
  5
1BD
100
AcDbEntity
  8
0
370
    35
390
0
 62
     7
 48
0.011641
100
AcDbLine
 10
2.321204
 20
1.974664
 30
0.0
 11
2.786845
 21
1.974664
 31
0.0
210
0.0
220
0.0
230
1.0
  0
LINE
  5
1BE
100
AcDbEntity
  8
0
370
    35
390
0
 62
     7
 48
0.011641
100
AcDbLine
 10
2.321204
 20
1.670664
 30
0.0
 11
2.786845
 21
1.670664
 31
0.0
210
0.0
220
0.0
230
1.0
  0
LINE
  5
1BF
100
AcDbEntity
  8
0
370
    35
390
0
 62
     7
 48
0.000759
100
AcDbLine
 10
2.290845
 20
1.670664
 30
0.0
 11
2.321204
 21
1.670664
 31
0.0
210
0.0
220
0.0
230
1.0
  0
LINE
  5
1C0
100
AcDbEntity
  8
0
370
    35
390
0
 62
     7
 48
0.005
100
AcDbLine
 10
4.890845
 20
1.670664
 30
0.0
 11
4.690845
 21
1.670664
 31
0.0
210
0.0
220
0.0
230
1.0
  0
LINE
  5
1C1
100
AcDbEntity
  8
0
370
    35
390
0
 62
     7
 48
0.011641
100
AcDbLine
 10
4.225204
 20
1.670664
 30
0.0
 11
4.690845
 21
1.670664
 31
0.0
210
0.0
220
0.0
230
1.0
  0
LINE
  5
1C2
100
AcDbEntity
  8
0
370
    35
390
0
 62
     7
 48
0.000759
100
AcDbLine
 10
4.194845
 20
1.670664
 30
0.0
 11
4.225204
 21
1.670664
 31
0.0
210
0.0
220
0.0
230
1.0
  0
LINE
  5
1C3
100
AcDbEntity
  8
0
370
    35
390
0
 62
     7
 48
0.0038
100
AcDbLine
 10
4.194845
 20
1.670664
 30
0.0
 11
4.042845
 21
1.670664
 31
0.0
210
0.0
220
0.0
230
1.0
  0
LINE
  5
1C4
100
AcDbEntity
  8
0
370
    35
390
0
 62
     7
 48
0.0038
100
AcDbLine
 10
2.938845
 20
1.670664
 30
0.0
 11
2.786845
 21
1.670664
 31
0.0
210
0.0
220
0.0
230
1.0
  0
LINE
  5
1C5
100
AcDbEntity
  8
0
370
    35
390
0
 62
     7
 48
0.0076
100
AcDbLine
 10
2.786845
 20
1.974664
 30
0.0
 11
2.786845
 21
1.670664
 31
0.0
210
0.0
220
0.0
230
1.0
  0
LINE
  5
1C6
100
AcDbEntity
  8
0
370
    35
390
0
 62
     7
 48
0.0076
100
AcDbLine
 10
4.890845
 20
1.974664
 30
0.0
 11
4.890845
 21
1.670664
 31
0.0
210
0.0
220
0.0
230
1.0
  0
LINE
  5
1C7
100
AcDbEntity
  8
0
370
    35
390
0
 62
     7
 48
0.0076
100
AcDbLine
 10
4.690845
 20
1.974664
 30
0.0
 11
4.690845
 21
1.670664
 31
0.0
210
0.0
220
0.0
230
1.0
  0
LINE
  5
1C8
100
AcDbEntity
  8
0
370
    35
390
0
 62
     7
 48
0.0076
100
AcDbLine
 10
4.194845
 20
1.974664
 30
0.0
 11
4.194845
 21
1.670664
 31
0.0
210
0.0
220
0.0
230
1.0
  0
POLYLINE
  5
1C9
100
AcDbEntity
  8
0
370
    35
390
0
 62
     7
 48
0.03937
100
AcDb2dPolyline
 66
     1
 10
0.0
 20
0.0
 30
0.0
 71
     2
  0
VERTEX
  5
1CA
100
AcDbEntity
  8
0
370
     0
390
0
100
AcDbVertex
100
AcDb2dVertex
 10
3.959851
 20
2.014329
 30
0.0
 42
0.363969
  0
VERTEX
  5
1CB
100
AcDbEntity
  8
0
370
     0
390
0
100
AcDbVertex
100
AcDb2dVertex
 10
4.007122
 20
1.974664
 30
0.0
  0
SEQEND
  5
1CC
100
AcDbEntity
  8
0
370
     0
390
0
  0
POLYLINE
  5
1CD
100
AcDbEntity
  8
0
370
    35
390
0
 62
     7
 48
0.03937
100
AcDb2dPolyline
 66
     1
 10
0.0
 20
0.0
 30
0.0
 71
     2
  0
VERTEX
  5
1CE
100
AcDbEntity
  8
0
370
     0
390
0
100
AcDbVertex
100
AcDb2dVertex
 10
2.974568
 20
1.974664
 30
0.0
 42
0.363969
  0
VERTEX
  5
1CF
100
AcDbEntity
  8
0
370
     0
390
0
100
AcDbVertex
100
AcDb2dVertex
 10
3.021839
 20
2.014329
 30
0.0
  0
SEQEND
  5
1D0
100
AcDbEntity
  8
0
370
     0
390
0
  0
LINE
  5
1D1
100
AcDbEntity
  8
0
370
    35
390
0
 62
     7
 48
0.00125
100
AcDbLine
 10
4.042845
 20
1.670664
 30
0.0
 11
4.042845
 21
1.620664
 31
0.0
210
0.0
220
0.0
230
1.0
  0
LINE
  5
1D2
100
AcDbEntity
  8
0
370
    35
390
0
 62
     7
 48
0.00125
100
AcDbLine
 10
2.938845
 20
1.670664
 30
0.0
 11
2.938845
 21
1.620664
 31
0.0
210
0.0
220
0.0
230
1.0
  0
LINE
  5
1D3
100
AcDbEntity
  8
0
370
    35
390
0
 62
     7
 48
0.001642
100
AcDbLine
 10
3.948448
 20
2.078999
 30
0.0
 11
3.959851
 21
2.014329
 31
0.0
210
0.0
220
0.0
230
1.0
  0
LINE
  5
1D4
100
AcDbEntity
  8
0
370
    35
390
0
 62
     7
 48
0.001642
100
AcDbLine
 10
3.033242
 20
2.078999
 30
0.0
 11
3.021839
 21
2.014329
 31
0.0
210
0.0
220
0.0
230
1.0
  0
LINE
  5
1D5
100
AcDbEntity
  8
0
370
    35
390
0
 62
     7
 48
0.005
100
AcDbLine
 10
4.042845
 20
1.620664
 30
0.0
 11
3.842845
 21
1.620664
 31
0.0
210
0.0
220
0.0
230
1.0
  0
LINE
  5
1D6
100
AcDbEntity
  8
0
370
    35
390
0
 62
     7
 48
0.004581
100
AcDbLine
 10
3.659603
 20
1.620664
 30
0.0
 11
3.842845
 21
1.620664
 31
0.0
210
0.0
220
0.0
230
1.0
  0
LINE
  5
1D7
100
AcDbEntity
  8
0
370
    35
390
0
 62
     7
 48
0.013019
100
AcDbLine
 10
3.138845
 20
1.620664
 30
0.0
 11
3.659603
 21
1.620664
 31
0.0
210
0.0
220
0.0
230
1.0
  0
LINE
  5
1D8
100
AcDbEntity
  8
0
370
    35
390
0
 62
     7
 48
0.005
100
AcDbLine
 10
3.138845
 20
1.620664
 30
0.0
 11
2.938845
 21
1.620664
 31
0.0
210
0.0
220
0.0
230
1.0
  0
POLYLINE
  5
1D9
100
AcDbEntity
  8
0
370
    35
390
0
 62
     7
 48
0.03937
100
AcDb2dPolyline
 66
     1
 10
0.0
 20
0.0
 30
0.0
 71
     2
  0
VERTEX
  5
1DA
100
AcDbEntity
  8
0
370
     0
390
0
100
AcDbVertex
100
AcDb2dVertex
 10
3.948448
 20
2.078999
 30
0.0
 42
0.363969
  0
VERTEX
  5
1DB
100
AcDbEntity
  8
0
370
     0
390
0
100
AcDbVertex
100
AcDb2dVertex
 10
3.901177
 20
2.118664
 30
0.0
  0
SEQEND
  5
1DC
100
AcDbEntity
  8
0
370
     0
390
0
  0
POLYLINE
  5
1DD
100
AcDbEntity
  8
0
370
    35
390
0
 62
     7
 48
0.03937
100
AcDb2dPolyline
 66
     1
 10
0.0
 20
0.0
 30
0.0
 71
     2
  0
VERTEX
  5
1DE
100
AcDbEntity
  8
0
370
     0
390
0
100
AcDbVertex
100
AcDb2dVertex
 10
3.080513
 20
2.118664
 30
0.0
 42
0.363969
  0
VERTEX
  5
1DF
100
AcDbEntity
  8
0
370
     0
390
0
100
AcDbVertex
100
AcDb2dVertex
 10
3.033242
 20
2.078999
 30
0.0
  0
SEQEND
  5
1E0
100
AcDbEntity
  8
0
370
     0
390
0
  0
LINE
  5
1E1
100
AcDbEntity
  8
0
370
    35
390
0
 62
     7
 48
0.01245
100
AcDbLine
 10
3.842845
 20
2.118664
 30
0.0
 11
3.842845
 21
1.620664
 31
0.0
210
0.0
220
0.0
230
1.0
  0
LINE
  5
1E2
100
AcDbEntity
  8
0
370
    35
390
0
 62
     7
 48
0.004581
100
AcDbLine
 10
3.659603
 20
2.118664
 30
0.0
 11
3.842845
 21
2.118664
 31
0.0
210
0.0
220
0.0
230
1.0
  0
LINE
  5
1E3
100
AcDbEntity
  8
0
370
    35
390
0
 62
     7
 48
0.01245
100
AcDbLine
 10
3.138845
 20
2.118664
 30
0.0
 11
3.138845
 21
1.620664
 31
0.0
210
0.0
220
0.0
230
1.0
  0
LINE
  5
1E4
100
AcDbEntity
  8
0
370
    35
390
0
 62
     7
 48
0.013019
100
AcDbLine
 10
3.138845
 20
2.118664
 30
0.0
 11
3.659603
 21
2.118664
 31
0.0
210
0.0
220
0.0
230
1.0
  0
LINE
  5
1E5
100
AcDbEntity
  8
0
370
    35
390
0
 62
     7
 48
0.001458
100
AcDbLine
 10
3.138845
 20
2.118664
 30
0.0
 11
3.080513
 21
2.118664
 31
0.0
210
0.0
220
0.0
230
1.0
  0
LINE
  5
1E6
100
AcDbEntity
  8
0
370
    35
390
0
 62
     7
 48
0.001458
100
AcDbLine
 10
3.901177
 20
2.118664
 30
0.0
 11
3.842845
 21
2.118664
 31
0.0
210
0.0
220
0.0
230
1.0
  0
ELLIPSE
  5
1E7
100
AcDbEntity
  8
0
370
    35
390
0
 62
     7
 48
0.03937
100
AcDbEllipse
 10
8.7051
 20
4.899955
 30
0.0
 11
0.0927824866753102
 21
-0.2299900218853807
 31
0.0
210
0.0
220
0.0
230
1.0
 40
0.616564
 41
3.1414735213477907
 42
6.2830661749375842
  0
ELLIPSE
  5
1E8
100
AcDbEntity
  8
0
370
    35
390
0
 62
     7
 48
0.03937
100
AcDbEllipse
 10
8.7051
 20
4.899955
 30
0.0
 11
0.0927824866753102
 21
-0.2299900218853807
 31
0.0
210
0.0
220
0.0
230
1.0
 40
0.616564
 41
0.4276278823656207
 42
3.1414735213477907
  0
ELLIPSE
  5
1E9
100
AcDbEntity
  8
0
370
    35
390
0
 62
     7
 48
0.03937
100
AcDbEllipse
 10
8.7051
 20
4.899955
 30
0.0
 11
0.0927824866753102
 21
-0.2299900218853807
 31
0.0
210
0.0
220
0.0
230
1.0
 40
0.616564
 41
6.2830661749375842
 42
6.7108131895452079
  0
ELLIPSE
  5
1EA
100
AcDbEntity
  8
0
370
    35
390
0
 62
     7
 48
0.03937
100
AcDbEllipse
 10
8.92706
 20
4.989498
 30
0.0
 11
0.0927824866753102
 21
-0.2299900218853807
 31
0.0
210
0.0
220
0.0
230
1.0
 40
0.616564
 41
4.0404710383442506
 42
5.3843069988203007
  0
ELLIPSE
  5
1EB
100
AcDbEntity
  8
0
370
    35
390
0
 62
     7
 48
0.03937
100
AcDbEllipse
 10
8.277873
 20
5.343259
 30
0.0
 11
0.5237721021993345
 21
-1.2983307687077938
 31
0.0
210
0.0
220
0.0
230
1.0
 40
0.616564
 41
1.9984242091605187
 42
3.1416185276537925
  0
ELLIPSE
  5
1EC
100
AcDbEntity
  8
0
370
    35
390
0
 62
     7
 48
0.03937
100
AcDbEllipse
 10
8.055913
 20
5.253716
 30
0.0
 11
0.5237721021993345
 21
-1.2983307687077938
 31
0.0
210
0.0
220
0.0
230
1.0
 40
0.616564
 41
3.1416185276537925
 42
6.2832111812435842
  0
ELLIPSE
  5
1ED
100
AcDbEntity
  8
0
370
    35
390
0
 62
     7
 48
0.03937
100
AcDbEllipse
 10
8.055913
 20
5.253716
 30
0.0
 11
0.5237721021993345
 21
-1.2983307687077938
 31
0.0
210
0.0
220
0.0
230
1.0
 40
0.616564
 41
1.9984242091605187
 42
3.1416185276537925
  0
ELLIPSE
  5
1EE
100
AcDbEntity
  8
0
370
    35
390
0
 62
     7
 48
0.03937
100
AcDbEllipse
 10
8.277873
 20
5.343259
 30
0.0
 11
0.5237721021993345
 21
-1.2983307687077938
 31
0.0
210
0.0
220
0.0
230
1.0
 40
0.616564
 41
0.0000258740639982
 42
1.9984242091605184
  0
ELLIPSE
  5
1EF
100
AcDbEntity
  8
0
370
    35
390
0
 62
     7
 48
0.03937
100
AcDbEllipse
 10
8.055913
 20
5.253716
 30
0.0
 11
0.5237721021993345
 21
-1.2983307687077938
 31
0.0
210
0.0
220
0.0
230
1.0
 40
0.616564
 41
0.0000258740639982
 42
1.9984242091605176
  0
ELLIPSE
  5
1F0
100
AcDbEntity
  8
0
370
    13
390
0
 62
     7
 48
0.03937
100
AcDbEllipse
 10
8.055913
 20
5.253716
 30
0.0
 11
0.1931509825572506
 21
-0.4787843083035809
 31
0.0
210
0.0
220
0.0
230
1.0
 40
0.616564
 41
5.7152880281921474
 42
9.9926750756717517
  0
ELLIPSE
  5
1F1
100
AcDbEntity
  8
0
370
    13
390
0
 62
     7
 48
0.03937
100
AcDbEllipse
 10
8.026953
 20
5.242033
 30
0.0
 11
0.1754659027724252
 21
-0.4349463812065157
 31
0.0
210
0.0
220
0.0
230
1.0
 40
0.616564
 41
6.1446539613479167
 42
9.5633116053717213
  0
ELLIPSE
  5
1F2
100
AcDbEntity
  8
0
370
    13
390
0
 62
     7
 48
0.03937
100
AcDbEllipse
 10
7.979735
 20
5.222984
 30
0.0
 11
0.1711997395203654
 21
-0.424371379232906
 31
0.0
210
0.0
220
0.0
230
1.0
 40
0.616564
 41
6.1446539613479212
 42
9.5633116053717231
  0
ELLIPSE
  5
1F3
100
AcDbEntity
  8
0
370
    13
390
0
 62
     7
 48
0.03937
100
AcDbEllipse
 10
7.950774
 20
5.211301
 30
0.0
 11
0.1535146597355401
 21
-0.3805334521358409
 31
0.0
210
0.0
220
0.0
230
1.0
 40
0.616564
 41
5.1400168627503113
 42
11.423202169929898
  0
ELLIPSE
  5
1F4
100
AcDbEntity
  8
0
370
    35
390
0
 62
     7
 48
0.03937
100
AcDbEllipse
 10
7.950774
 20
5.211301
 30
0.0
 11
0.1316912714101184
 21
-0.3264374504179596
 31
0.0
210
0.0
220
0.0
230
1.0
 40
0.616564
 41
3.1416185276537814
 42
6.2832111812435807
  0
ELLIPSE
  5
1F5
100
AcDbEntity
  8
0
370
    35
390
0
 62
     7
 48
0.03937
100
AcDbEllipse
 10
7.950774
 20
5.211301
 30
0.0
 11
0.1316912714101184
 21
-0.3264374504179596
 31
0.0
210
0.0
220
0.0
230
1.0
 40
0.616564
 41
1.9984242091605224
 42
3.1416185276537814
  0
ELLIPSE
  5
1F6
100
AcDbEntity
  8
0
370
    35
390
0
 62
     7
 48
0.03937
100
AcDbEllipse
 10
7.950774
 20
5.211301
 30
0.0
 11
0.1316912714101184
 21
-0.3264374504179596
 31
0.0
210
0.0
220
0.0
230
1.0
 40
0.616564
 41
0.0000258740639947
 42
1.9984242091605184
  0
ELLIPSE
  5
1F7
100
AcDbEntity
  8
0
370
    35
390
0
 62
     7
 48
0.03937
100
AcDbEllipse
 10
8.314379
 20
5.357986
 30
0.0
 11
0.1316912714101184
 21
-0.3264374504179596
 31
0.0
210
0.0
220
0.0
230
1.0
 40
0.616564
 41
5.1400168627503131
 42
5.1558380366997216
  0
ELLIPSE
  5
1F8
100
AcDbEntity
  8
0
370
    35
390
0
 62
     7
 48
0.03937
100
AcDbEllipse
 10
8.314379
 20
5.357986
 30
0.0
 11
0.1316912714101184
 21
-0.3264374504179596
 31
0.0
210
0.0
220
0.0
230
1.0
 40
0.616564
 41
4.2689399526885818
 42
5.1400168627503131
  0
ELLIPSE
  5
1F9
100
AcDbEntity
  8
0
370
    35
390
0
 62
     7
 48
0.03937
100
AcDbEllipse
 10
8.014455
 20
4.415547
 30
0.0
 11
0.0927824866753106
 21
-0.2299900218853805
 31
0.0
210
0.0
220
0.0
230
1.0
 40
0.616564
 41
3.1416185276537889
 42
6.2832111812435807
  0
ELLIPSE
  5
1FA
100
AcDbEntity
  8
0
370
    35
390
0
 62
     7
 48
0.03937
100
AcDbEllipse
 10
8.014455
 20
4.415547
 30
0.0
 11
0.0927824866753106
 21
-0.2299900218853805
 31
0.0
210
0.0
220
0.0
230
1.0
 40
0.616564
 41
1.9984242091605176
 42
3.1416185276537889
  0
ELLIPSE
  5
1FB
100
AcDbEntity
  8
0
370
    35
390
0
 62
     7
 48
0.03937
100
AcDbEllipse
 10
8.014455
 20
4.415547
 30
0.0
 11
0.0927824866753106
 21
-0.2299900218853805
 31
0.0
210
0.0
220
0.0
230
1.0
 40
0.616564
 41
0.0000258740639961
 42
1.9984242091605187
  0
ELLIPSE
  5
1FC
100
AcDbEntity
  8
0
370
    35
390
0
 62
     7
 48
0.03937
100
AcDbEllipse
 10
7.406726
 20
5.607477
 30
0.0
 11
0.0927824866753113
 21
-0.2299900218853805
 31
0.0
210
0.0
220
0.0
230
1.0
 40
0.616564
 41
3.1414735213477911
 42
6.2830661749375816
  0
ELLIPSE
  5
1FD
100
AcDbEntity
  8
0
370
    35
390
0
 62
     7
 48
0.03937
100
AcDbEllipse
 10
7.406726
 20
5.607477
 30
0.0
 11
0.0927824866753103
 21
-0.2299900218853809
 31
0.0
210
0.0
220
0.0
230
1.0
 40
0.616564
 41
0.4276278823656148
 42
3.1414735213477911
  0
ELLIPSE
  5
1FE
100
AcDbEntity
  8
0
370
    35
390
0
 62
     7
 48
0.03937
100
AcDbEllipse
 10
7.406726
 20
5.607477
 30
0.0
 11
0.0927824866753113
 21
-0.2299900218853805
 31
0.0
210
0.0
220
0.0
230
1.0
 40
0.616564
 41
6.2830661749375833
 42
6.7108131895452061
  0
ELLIPSE
  5
1FF
100
AcDbEntity
  8
0
370
    35
390
0
 62
     7
 48
0.03937
100
AcDbEllipse
 10
8.097371
 20
6.091885
 30
0.0
 11
0.0927824866753102
 21
-0.2299900218853807
 31
0.0
210
0.0
220
0.0
230
1.0
 40
0.616564
 41
0.0000258740639964
 42
3.1416185276537854
  0
ELLIPSE
  5
200
100
AcDbEntity
  8
0
370
    35
390
0
 62
     7
 48
0.03937
100
AcDbEllipse
 10
8.097371
 20
6.091885
 30
0.0
 11
0.0927824866753102
 21
-0.2299900218853807
 31
0.0
210
0.0
220
0.0
230
1.0
 40
0.616564
 41
5.1400168627503113
 42
6.2832111812435825
  0
ELLIPSE
  5
201
100
AcDbEntity
  8
0
370
    35
390
0
 62
     7
 48
0.03937
100
AcDbEllipse
 10
8.097371
 20
6.091885
 30
0.0
 11
0.0927824866753102
 21
-0.2299900218853807
 31
0.0
210
0.0
220
0.0
230
1.0
 40
0.616564
 41
3.141618527653788
 42
5.1400168627503113
  0
ELLIPSE
  5
202
100
AcDbEntity
  8
0
370
    35
390
0
 62
     7
 48
0.03937
100
AcDbEllipse
 10
8.236415
 20
4.50509
 30
0.0
 11
0.0927824866753102
 21
-0.2299900218853807
 31
0.0
210
0.0
220
0.0
230
1.0
 40
0.616564
 41
5.1400168627503131
 42
5.3843069988203007
  0
ELLIPSE
  5
203
100
AcDbEntity
  8
0
370
    35
390
0
 62
     7
 48
0.03937
100
AcDbEllipse
 10
8.236415
 20
4.50509
 30
0.0
 11
0.0927824866753102
 21
-0.2299900218853807
 31
0.0
210
0.0
220
0.0
230
1.0
 40
0.616564
 41
4.0404710383442488
 42
5.1400168627503104
  0
ELLIPSE
  5
204
100
AcDbEntity
  8
0
370
    35
390
0
 62
     7
 48
0.03937
100
AcDbEllipse
 10
7.628686
 20
5.69702
 30
0.0
 11
0.0927824866753103
 21
-0.2299900218853809
 31
0.0
210
0.0
220
0.0
230
1.0
 40
0.616564
 41
4.0404710383442497
 42
5.3843069988203016
  0
ELLIPSE
  5
205
100
AcDbEntity
  8
0
370
    35
390
0
 62
     7
 48
0.03937
100
AcDbEllipse
 10
8.31933
 20
6.181428
 30
0.0
 11
0.0927824866753102
 21
-0.2299900218853807
 31
0.0
210
0.0
220
0.0
230
1.0
 40
0.616564
 41
4.0404710383442524
 42
5.3843069988203007
  0
LINE
  5
206
100
AcDbEntity
  8
0
370
    35
390
0
 62
     7
 48
0.005984
100
AcDbLine
 10
7.53212
 20
6.552038
 30
0.0
 11
7.75408
 21
6.641581
 31
0.0
210
0.0
220
0.0
230
1.0
  0
LINE
  5
207
100
AcDbEntity
  8
0
370
    35
390
0
 62
     7
 48
0.005984
100
AcDbLine
 10
8.579706
 20
3.955394
 30
0.0
 11
8.801665
 21
4.044936
 31
0.0
210
0.0
220
0.0
230
1.0
  0
LINE
  5
208
100
AcDbEntity
  8
0
370
    35
390
0
 62
     7
 48
0.00128
100
AcDbLine
 10
8.113163
 20
4.788102
 30
0.0
 11
8.163706
 21
4.796314
 31
0.0
210
0.0
220
0.0
230
1.0
  0
LINE
  5
209
100
AcDbEntity
  8
0
370
    35
390
0
 62
     7
 48
0.00128
100
AcDbLine
 10
7.774044
 20
5.628714
 30
0.0
 11
7.816136
 21
5.657873
 31
0.0
210
0.0
220
0.0
230
1.0
  0
SPLINE
  5
20A
100
AcDbEntity
  8
0
370
    35
390
0
 62
     7
 48
0.03937
100
AcDbSpline
210
0.0
220
0.0
230
1.0
 70
     8
 71
     3
 72
    69
 73
    65
 74
     0
 42
0.0
 43
0.0
 40
0.0
 40
0.0
 40
0.0
 40
0.0
 40
0.2278854584633558
 40
0.4548735801219017
 40
0.681117448890064
 40
0.9064081727016068
 40
1.1309198369765578
 40
1.3544255367443434
 40
1.5770635402409818
 40
1.7987800362700914
 40
2.0195967842009726
 40
2.2394563992054852
 40
2.4583951731249791
 40
2.6761888721288578
 40
2.8930337964459589
 40
3.1088477412056834
 40
3.3236892780953355
 40
3.5373124197678201
 40
3.8091901892850566
 40
4.0792913694416715
 40
4.3476329853472215
 40
4.6142279594686419
 40
4.7639780276105119
 40
4.9130504042223304
 40
5.0617027801356755
 40
5.2096733031075795
 40
5.4140252146573005
 40
5.6173354553080665
 40
5.8195755331459207
 40
6.0207528957586858
 40
6.2208769611716406
 40
6.419958020417786
 40
6.6180083349511687
 40
6.8150028803466318
 40
7.0462586009993888
 40
7.2761296444832269
 40
7.4131771186752013
 40
7.5495904501234801
 40
7.6857131799122138
 40
7.8212123608078539
 40
7.9564301209739359
 40
8.0910365296651801
 40
8.2253762301686315
 40
8.3591185031393547
 40
8.5483872925454438
 40
8.7368359607420363
 40
8.9245042724830732
 40
9.1114328154900299
 40
9.2978794539712073
 40
9.4836445738276218
 40
9.6687477389166752
 40
9.853223448283428
 40
10.031998830882509
 40
10.210241509406742
 40
10.387978774134558
 40
10.565246451436998
 40
10.752715117464078
 40
10.939725025167048
 40
11.12644573287716
 40
11.312476815183704
 40
11.440980933235551
 40
11.569199695246887
 40
11.697381984165752
 40
11.825315980692364
 40
11.825315980692364
 40
11.825315980692364
 40
11.825315980692364
 10
7.7979929897889866
 20
4.9521681556755928
 30
0.0
 10
7.7994549455163638
 20
4.9502742524179055
 30
0.0
 10
7.8023953107277704
 20
4.946511110533395
 30
0.0
 10
7.8068648688172235
 20
4.9409289865651562
 30
0.0
 10
7.81138382913998
 20
4.9354219840147113
 30
0.0
 10
7.8159524795496695
 20
4.9299900564365409
 30
0.0
 10
7.8205685316380142
 20
4.9246362498540819
 30
0.0
 10
7.8252320295898361
 20
4.9193608312533854
 30
0.0
 10
7.8299414278877526
 20
4.9141658842451728
 30
0.0
 10
7.834696928370561
 20
4.909051583493893
 30
0.0
 10
7.839497341206159
 20
4.9040196474661197
 30
0.0
 10
7.8443421037251406
 20
4.8990711218818372
 30
0.0
 10
7.8492288155861907
 20
4.8942089052709044
 30
0.0
 10
7.8541568804845445
 20
4.8894339742774644
 30
0.0
 10
7.8591247898518661
 20
4.8847481898179295
 30
0.0
 10
7.8641331917864461
 20
4.8801514196457969
 30
0.0
 10
7.8691793100625098
 20
4.8756467046746419
 30
0.0
 10
7.8747324497028464
 20
4.8708271747594107
 30
0.0
 10
7.8808070703311346
 20
4.8657246205900337
 30
0.0
 10
7.8874215346006
 20
4.8603737878238888
 30
0.0
 10
7.8940917173367859
 20
4.8551823843578807
 30
0.0
 10
7.8998483776217556
 20
4.8508766122568678
 30
0.0
 10
7.904655909827027
 20
4.8473942765004061
 30
0.0
 10
7.9084911431657545
 20
4.8446809416837384
 30
0.0
 10
7.9123413746154627
 20
4.8420216697394824
 30
0.0
 10
7.9167029727410139
 20
4.8390821547999012
 30
0.0
 10
7.9215849666801859
 20
4.835888732129729
 30
0.0
 10
7.9270000924887087
 20
4.8324710331150227
 30
0.0
 10
7.9324425137579837
 20
4.8291606346431779
 30
0.0
 10
7.937910931281956
 20
4.8259590516836797
 30
0.0
 10
7.9434043456652716
 20
4.8228676091796983
 30
0.0
 10
7.9489217441558937
 20
4.8198876393848149
 30
0.0
 10
7.9544617402417437
 20
4.8170206680018
 30
0.0
 10
7.9603550816421311
 20
4.8141037963588618
 30
0.0
 10
7.9666077778950752
 20
4.811162485132475
 30
0.0
 10
7.9723483893736296
 20
4.8086146859115368
 30
0.0
 10
7.9772162288567774
 20
4.8065580548702549
 30
0.0
 10
7.9811998057858045
 20
4.8049384657126337
 30
0.0
 10
7.9851901417240407
 20
4.8033797410578742
 30
0.0
 10
7.9891900387550505
 20
4.8018811179078451
 30
0.0
 10
7.993195669573347
 20
4.8004443666715746
 30
0.0
 10
7.9972098603660084
 20
4.79906880856905
 30
0.0
 10
8.0012287578761097
 20
4.7977561048875517
 30
0.0
 10
8.0058144539246303
 20
4.7963319883243942
 30
0.0
 10
8.0109705219660619
 20
4.7948310944660673
 30
0.0
 10
8.0167042669392341
 20
4.7932937786449292
 30
0.0
 10
8.0224461147442874
 20
4.7918868308216842
 30
0.0
 10
8.028197023469609
 20
4.7906111233618889
 30
0.0
 10
8.033955446257572
 20
4.7894682648457758
 30
0.0
 10
8.0397194977238371
 20
4.7884599077139232
 30
0.0
 10
8.0454848396998173
 20
4.7875879454953223
 30
0.0
 10
8.0511962410010689
 20
4.7868605334516792
 30
0.0
 10
8.056851449744773
 20
4.7862745772507784
 30
0.0
 10
8.0624483185947184
 20
4.785826839845913
 30
0.0
 10
8.0680384431409031
 20
4.785512889444548
 30
0.0
 10
8.0737313224642016
 20
4.7853302139641478
 30
0.0
 10
8.0795244463344638
 20
4.785289490016063
 30
0.0
 10
8.0854159087518269
 20
4.7854018472938167
 30
0.0
 10
8.0912872759808749
 20
4.7856690550515726
 30
0.0
 10
8.0965367723636437
 20
4.7860485405082036
 30
0.0
 10
8.1011644176071247
 20
4.786489281199958
 30
0.0
 10
8.1051795626683383
 20
4.7869477784134347
 30
0.0
 10
8.1091794264796881
 20
4.7874811235941559
 30
0.0
 10
8.1118376320249581
 20
4.7878870211300892
 30
0.0
 10
8.1131634286382326
 20
4.7881024200125504
 30
0.0
  0
SPLINE
  5
20B
100
AcDbEntity
  8
0
370
    35
390
0
 62
     7
 48
0.03937
100
AcDbSpline
210
0.0
220
0.0
230
1.0
 70
     8
 71
     3
 72
   113
 73
   109
 74
     0
 42
0.0
 43
0.0
 40
0.0
 40
0.0
 40
0.0
 40
0.0
 40
0.2033465703184983
 40
0.4073597272355017
 40
0.6119290939555282
 40
0.8170333463706186
 40
1.0737058124649712
 40
1.3311609995890845
 40
1.5893650723885764
 40
1.8483721491783123
 40
2.0822003923589816
 40
2.3166103972451446
 40
2.5514851803260599
 40
2.7868722456261827
 40
3.0226627114383549
 40
3.2588951606135819
 40
3.4954765055136598
 40
3.7324274291953583
 40
3.9696383045709323
 40
4.2071479472864635
 40
4.4448838534893742
 40
4.6828443088865095
 40
4.9209651601042967
 40
5.1592366193801809
 40
5.3976060254181384
 40
5.636050809885818
 40
5.874526233255617
 40
6.1130042435095557
 40
6.3514517996093716
 40
6.5898265045388493
 40
6.8281070040052576
 40
7.0662402925951389
 40
7.3042136093210779
 40
7.5419648621918816
 40
7.7795146871826937
 40
8.0167708278639047
 40
8.2537419628932955
 40
8.4903459514763604
 40
8.7266079134352417
 40
8.9624311624613568
 40
9.1978487570504246
 40
9.4327565360748427
 40
9.6247940955235478
 40
9.81644878889227
 40
10.007760967116228
 40
10.198652535719541
 40
10.389178108415068
 40
10.579246742011485
 40
10.768926116384025
 40
10.958113484914705
 40
11.291920750171085
 40
11.52139659416922
 40
11.75003626032942
 40
11.977975712751501
 40
12.205020590506381
 40
12.431323097541698
 40
12.656675106169061
 40
12.881197149793277
 40
13.104843259789469
 40
13.327608997147232
 40
13.549458955424257
 40
13.770416165892252
 40
13.990273069300377
 40
14.209274091890377
 40
14.427132198599661
 40
14.644110885693864
 40
14.859907630097126
 40
15.053720108841688
 40
15.246545871794421
 40
15.438643227457357
 40
15.629731271411567
 40
15.82009948237701
 40
16.009439258185143
 40
16.198064759511642
 40
16.385646030032056
 40
16.549867138307981
 40
16.756436606819339
 40
16.961937701328914
 40
17.166358461865698
 40
17.369703134059819
 40
17.571977924196776
 40
17.77318991480783
 40
17.973348162575192
 40
18.172441077470705
 40
18.392978000025199
 40
18.612232888242243
 40
18.830248857004598
 40
19.047066658582981
 40
19.219314930334246
 40
19.390835726378171
 40
19.561626419466407
 40
19.731733032278846
 40
20.022225055441702
 40
20.310775813013311
 40
20.597449432128617
 40
20.882349886035406
 40
21.060225544067674
 40
21.237516239945144
 40
21.514086984466953
 40
21.789319757756999
 40
22.063280419956246
 40
22.336080716127015
 40
22.52039384218358
 40
22.704300399476164
 40
22.927988879356807
 40
23.151160956821943
 40
23.373837213286464
 40
23.596082297815965
 40
23.596082297815965
 40
23.596082297815965
 40
23.596082297815965
 10
7.7979929897889866
 20
4.9521681556755928
 30
0.0
 10
7.7966884621064247
 20
4.9538581174038514
 30
0.0
 10
7.7940929245901911
 20
4.9572572721286701
 30
0.0
 10
7.7902472664526119
 20
4.9624037322289452
 30
0.0
 10
7.7864440680357658
 20
4.96760451850718
 30
0.0
 10
7.7823726274140101
 20
4.9732936005658201
 30
0.0
 10
7.7780485497447627
 20
4.9794841554082963
 30
0.0
 10
7.7734893179510554
 20
4.9861896830776704
 30
0.0
 10
7.7690006834683958
 20
4.9929720816702314
 30
0.0
 10
7.7647308247063318
 20
4.9996010797229538
 30
0.0
 10
7.7606716604229966
 20
5.0060679640358261
 30
0.0
 10
7.7568163653386781
 20
5.0123631486845275
 30
0.0
 10
7.7530219345997651
 20
5.0187142742810975
 30
0.0
 10
7.7492897074440519
 20
5.0251189308639042
 30
0.0
 10
7.7456201793049981
 20
5.0315761138849995
 30
0.0
 10
7.7420145630383281
 20
5.03808353807114
 30
0.0
 10
7.7384733939866051
 20
5.0446401050523537
 30
0.0
 10
7.7349979330350251
 20
5.0512433470777074
 30
0.0
 10
7.73158876721235
 20
5.0578920126127844
 30
0.0
 10
7.7282469189466694
 20
5.0645839800092984
 30
0.0
 10
7.7249728939630309
 20
5.0713181406946299
 30
0.0
 10
7.7217676627112715
 20
5.0780924143991246
 30
0.0
 10
7.718631897614971
 20
5.0849053116430287
 30
0.0
 10
7.7155664800438357
 20
5.0917548533344794
 30
0.0
 10
7.7125720991803961
 20
5.0986394549161682
 30
0.0
 10
7.7096495757803503
 20
5.1055571906558299
 30
0.0
 10
7.706799615086311
 20
5.1125063675844373
 30
0.0
 10
7.7040229503743642
 20
5.1194851859740984
 30
0.0
 10
7.7013202942312207
 20
5.1264918642787514
 30
0.0
 10
7.6986923184608687
 20
5.1335246799352374
 30
0.0
 10
7.6961397581294388
 20
5.1405817091119399
 30
0.0
 10
7.6936632248300754
 20
5.1476613123219508
 30
0.0
 10
7.6912634618909435
 20
5.1547614408334672
 30
0.0
 10
7.6889409491574048
 20
5.1618807699262872
 30
0.0
 10
7.6866964247520846
 20
5.1690171779234646
 30
0.0
 10
7.6845303871890982
 20
5.176169242213251
 30
0.0
 10
7.6824436350870231
 20
5.1833344990916039
 30
0.0
 10
7.680436598635227
 20
5.1905116556473505
 30
0.0
 10
7.6785100029372915
 20
5.1976983470681422
 30
0.0
 10
7.6766642384581063
 20
5.204893365042957
 30
0.0
 10
7.6749000296586569
 20
5.2120941762156985
 30
0.0
 10
7.6733189447816335
 20
5.2188661378253753
 30
0.0
 10
7.6719054546593375
 20
5.2252050272901105
 30
0.0
 10
7.6706447528172728
 20
5.2311087964075051
 30
0.0
 10
7.6694399875934662
 20
5.2370119545131537
 30
0.0
 10
7.6682912761274808
 20
5.2429142004324456
 30
0.0
 10
7.6671990031060924
 20
5.2488138751504003
 30
0.0
 10
7.6661632631248855
 20
5.2547108152177282
 30
0.0
 10
7.6651844407505223
 20
5.2606032345980971
 30
0.0
 10
7.6640270943258724
 20
5.267995414223976
 30
0.0
 10
7.6629063368626671
 20
5.2758158858151525
 30
0.0
 10
7.6618437160963424
 20
5.2840620170081074
 30
0.0
 10
7.6610065869440689
 20
5.2912160518532723
 30
0.0
 10
7.6602564129749116
 20
5.2983540609658117
 30
0.0
 10
7.6595933680912101
 20
5.3054760512059813
 30
0.0
 10
7.6590179771832148
 20
5.3125784073594513
 30
0.0
 10
7.6585304544415189
 20
5.3196607893167087
 30
0.0
 10
7.6581311679602848
 20
5.3267207632326787
 30
0.0
 10
7.6578203764293313
 20
5.3337580103851714
 30
0.0
 10
7.6575984325084319
 20
5.3407705556669773
 30
0.0
 10
7.6574656564605439
 20
5.3477571242628485
 30
0.0
 10
7.6574223956618734
 20
5.3547142846797193
 30
0.0
 10
7.6574689085941099
 20
5.3616415168299545
 30
0.0
 10
7.6576054442344272
 20
5.3685350207313993
 30
0.0
 10
7.6578323142369067
 20
5.3753959133351659
 30
0.0
 10
7.6581496723674665
 20
5.3822195424619341
 30
0.0
 10
7.6585446039855531
 20
5.3887862369976336
 30
0.0
 10
7.6590069872674018
 20
5.3950942515450722
 30
0.0
 10
7.6595273313001009
 20
5.4011480570411825
 30
0.0
 10
7.6601218818487382
 20
5.4071662866657668
 30
0.0
 10
7.6607910925351224
 20
5.4131507145852504
 30
0.0
 10
7.6615347956529458
 20
5.4190971706472597
 30
0.0
 10
7.6623535499926589
 20
5.4250076633012689
 30
0.0
 10
7.6632470636568444
 20
5.4308777247481297
 30
0.0
 10
7.6641770298754111
 20
5.436474961371542
 30
0.0
 10
7.6652126240739467
 20
5.4422450719204374
 30
0.0
 10
7.6663639335715343
 20
5.4481850874833144
 30
0.0
 10
7.6676953569394168
 20
5.4545192881535272
 30
0.0
 10
7.6691203457676602
 20
5.4607983966758473
 30
0.0
 10
7.6706390757401692
 20
5.4670206390320795
 30
0.0
 10
7.6722517526836906
 20
5.4731843894329897
 30
0.0
 10
7.6739585797171257
 20
5.479288013294596
 30
0.0
 10
7.6757596907592607
 20
5.4853296440276074
 30
0.0
 10
7.677726590185344
 20
5.4915325523466869
 30
0.0
 10
7.679872850943541
 20
5.4978878220327978
 30
0.0
 10
7.6822131139410601
 20
5.5043858302451643
 30
0.0
 10
7.6846713354060938
 20
5.5107983508426184
 30
0.0
 10
7.6870760124138657
 20
5.5167014039618998
 30
0.0
 10
7.6893998344233951
 20
5.5221089272654158
 30
0.0
 10
7.6916176932011711
 20
5.5270351629756682
 30
0.0
 10
7.693911422841663
 20
5.5319017063064768
 30
0.0
 10
7.696843243345759
 20
5.5378471977812742
 30
0.0
 10
7.7004930500147353
 20
5.5448156962654291
 30
0.0
 10
7.7049631897450297
 20
5.5527310973325825
 30
0.0
 10
7.7096570823099144
 20
5.5604473409384179
 30
0.0
 10
7.713968230364979
 20
5.5670312684953061
 30
0.0
 10
7.7178041458462259
 20
5.5725493088678189
 30
0.0
 10
7.7217072866097114
 20
5.5779122137076573
 30
0.0
 10
7.7263853294559111
 20
5.5839729775337341
 30
0.0
 10
7.7319220993804114
 20
5.5906464185468758
 30
0.0
 10
7.7376690274237792
 20
5.5970868842312642
 30
0.0
 10
7.7429871954828968
 20
5.6026236852180098
 30
0.0
 10
7.7477996722735458
 20
5.6073290368042361
 30
0.0
 10
7.7523534666255678
 20
5.6115584990081198
 30
0.0
 10
7.7573342834197216
 20
5.6159243495008635
 30
0.0
 10
7.762767038155876
 20
5.6203866831430824
 30
0.0
 10
7.7683297498755914
 20
5.62466128959597
 30
0.0
 10
7.7721254575395422
 20
5.6273849127611593
 30
0.0
 10
7.7740436401601585
 20
5.6287137364586517
 30
0.0
  0
INSERT
  5
46C
100
AcDbEntity
  8
0
370
     0
390
0
100
AcDbBlockReference
  2
BLOCK1
 10
0.0
 20
0.0
 30
0.0
210
0.0
220
0.0
230
1.0
  0
INSERT
  5
46D
100
AcDbEntity
  8
0
370
     0
390
0
100
AcDbBlockReference
  2
BLOCK2
 10
0.0
 20
0.0
 30
0.0
210
0.0
220
0.0
230
1.0
  0
INSERT
  5
46E
100
AcDbEntity
  8
0
370
     0
390
0
100
AcDbBlockReference
  2
BLOCK3
 10
0.0
 20
0.0
 30
0.0
210
0.0
220
0.0
230
1.0
  0
INSERT
  5
46F
100
AcDbEntity
  8
0
370
     0
390
0
100
AcDbBlockReference
  2
BLOCK4
 10
0.0
 20
0.0
 30
0.0
210
0.0
220
0.0
230
1.0
  0
INSERT
  5
470
100
AcDbEntity
  8
0
370
     0
390
0
100
AcDbBlockReference
  2
BLOCK5
 10
0.0
 20
0.0
 30
0.0
210
0.0
220
0.0
230
1.0
  0
INSERT
  5
471
100
AcDbEntity
  8
0
370
     0
390
0
100
AcDbBlockReference
  2
BLOCK6
 10
0.0
 20
0.0
 30
0.0
210
0.0
220
0.0
230
1.0
  0
INSERT
  5
472
100
AcDbEntity
  8
0
370
     0
390
0
100
AcDbBlockReference
  2
BLOCK7
 10
3.490845
 20
5.729829
 30
0.0
 41
0.8
 42
0.8
 43
0.8
210
0.0
220
0.0
230
1.0
  0
INSERT
  5
473
100
AcDbEntity
  8
0
370
     0
390
0
100
AcDbBlockReference
  2
BLOCK8
 10
3.490845
 20
5.729829
 30
0.0
 41
0.8
 42
0.8
 43
0.8
210
0.0
220
0.0
230
1.0
  0
INSERT
  5
474
100
AcDbEntity
  8
0
370
     0
390
0
100
AcDbBlockReference
  2
BLOCK9
 10
3.490845
 20
5.729829
 30
0.0
 41
0.8
 42
0.8
 43
0.8
210
0.0
220
0.0
230
1.0
  0
INSERT
  5
475
100
AcDbEntity
  8
0
370
     0
390
0
100
AcDbBlockReference
  2
BLOCK10
 10
3.490845
 20
5.729829
 30
0.0
 41
0.8
 42
0.8
 43
0.8
210
0.0
220
0.0
230
1.0
  0
INSERT
  5
476
100
AcDbEntity
  8
0
370
     0
390
0
100
AcDbBlockReference
  2
BLOCK11
 10
3.490845
 20
5.729829
 30
0.0
 41
0.8
 42
0.8
 43
0.8
210
0.0
220
0.0
230
1.0
  0
INSERT
  5
477
100
AcDbEntity
  8
0
370
     0
390
0
100
AcDbBlockReference
  2
BLOCK12
 10
3.490845
 20
5.729829
 30
0.0
 41
0.8
 42
0.8
 43
0.8
210
0.0
220
0.0
230
1.0
  0
INSERT
  5
478
100
AcDbEntity
  8
0
370
     0
390
0
100
AcDbBlockReference
  2
BLOCK13
 10
3.490845
 20
5.729829
 30
0.0
 41
0.8
 42
0.8
 43
0.8
210
0.0
220
0.0
230
1.0
  0
INSERT
  5
479
100
AcDbEntity
  8
0
370
     0
390
0
100
AcDbBlockReference
  2
BLOCK14
 10
3.490845
 20
5.729829
 30
0.0
 41
0.8
 42
0.8
 43
0.8
210
0.0
220
0.0
230
1.0
  0
INSERT
  5
47A
100
AcDbEntity
  8
0
370
     0
390
0
100
AcDbBlockReference
  2
BLOCK15
 10
3.490845
 20
1.670664
 30
0.0
 41
0.8
 42
0.8
 43
0.8
210
0.0
220
0.0
230
1.0
  0
INSERT
  5
47B
100
AcDbEntity
  8
0
370
     0
390
0
100
AcDbBlockReference
  2
BLOCK16
 10
3.490845
 20
1.670664
 30
0.0
 41
0.8
 42
0.8
 43
0.8
210
0.0
220
0.0
230
1.0
  0
INSERT
  5
47C
100
AcDbEntity
  8
0
370
     0
390
0
100
AcDbBlockReference
  2
BLOCK17
 10
3.490845
 20
1.670664
 30
0.0
 41
0.8
 42
0.8
 43
0.8
210
0.0
220
0.0
230
1.0
  0
INSERT
  5
47D
100
AcDbEntity
  8
0
370
     0
390
0
100
AcDbBlockReference
  2
BLOCK18
 10
3.490845
 20
1.670664
 30
0.0
 41
0.8
 42
0.8
 43
0.8
210
0.0
220
0.0
230
1.0
  0
INSERT
  5
47E
100
AcDbEntity
  8
0
370
     0
390
0
100
AcDbBlockReference
  2
BLOCK19
 10
3.490845
 20
1.670664
 30
0.0
 41
0.8
 42
0.8
 43
0.8
210
0.0
220
0.0
230
1.0
  0
INSERT
  5
47F
100
AcDbEntity
  8
0
370
     0
390
0
100
AcDbBlockReference
  2
BLOCK20
 10
3.490845
 20
1.670664
 30
0.0
 41
0.8
 42
0.8
 43
0.8
210
0.0
220
0.0
230
1.0
  0
INSERT
  5
480
100
AcDbEntity
  8
0
370
     0
390
0
100
AcDbBlockReference
  2
BLOCK21
 10
3.490845
 20
1.670664
 30
0.0
 41
0.8
 42
0.8
 43
0.8
210
0.0
220
0.0
230
1.0
  0
INSERT
  5
481
100
AcDbEntity
  8
0
370
     0
390
0
100
AcDbBlockReference
  2
BLOCK22
 10
3.490845
 20
1.670664
 30
0.0
 41
0.8
 42
0.8
 43
0.8
210
0.0
220
0.0
230
1.0
  0
INSERT
  5
482
100
AcDbEntity
  8
0
370
     0
390
0
100
AcDbBlockReference
  2
BLOCK23
 10
3.490845
 20
1.670664
 30
0.0
 41
0.8
 42
0.8
 43
0.8
210
0.0
220
0.0
230
1.0
  0
INSERT
  5
483
100
AcDbEntity
  8
0
370
     0
390
0
100
AcDbBlockReference
  2
BLOCK24
 10
3.490845
 20
1.670664
 30
0.0
 41
0.8
 42
0.8
 43
0.8
210
0.0
220
0.0
230
1.0
  0
ENDSEC
  0
SECTION
  2
OBJECTS
  0
DICTIONARY
  5
19
100
AcDbDictionary
280
     0
281
     1
  3
ACAD_GROUP
350
1A
  3
ACAD_MLINESTYLE
350
1B
  3
ACAD_LAYOUT
350
1E
  3
ACAD_PLOTSETTINGS
350
22
  3
ACAD_PLOTSTYLENAME
350
1F
  3
ACAD_WIPEOUT_VARS
350
23
  0
DICTIONARY
  5
1A
102
{ACAD_REACTORS
330
19
102
}
100
AcDbDictionary
280
     0
281
     1
  0
DICTIONARY
  5
1B
102
{ACAD_REACTORS
330
19
102
}
100
AcDbDictionary
280
     0
281
     1
  3
Standard
350
1C
  0
MLINESTYLE
  5
1C
102
{ACAD_REACTORS
330
1B
102
}
100
AcDbMlineStyle
  2
Standard
 70
     0
  3

 62
     0
 51
90.0
 52
90.0
 71
     2
 49
0.5
 62
   256
  6
ByLayer
 49
-0.5
 62
   256
  6
ByLayer
  0
ACDBDICTIONARYWDFLT
  5
1F
102
{ACAD_REACTORS
330
19
102
}
100
AcDbDictionary
281
     1
  3
Normal
350
1D
100
AcDbDictionaryWithDefault
340
1D
  0
ACDBPLACEHOLDER
  5
1D
102
{ACAD_REACTORS
330
1F
102
}
  0
LAYOUT
  5
20
102
{ACAD_REACTORS
330
1E
102
}
100
AcDbPlotSettings
  1

  2

  4

  6

 40
0.0
 41
0.0
 42
0.0
 43
0.0
 44
0.0
 45
0.0
 46
0.0
 47
0.0
 48
0.0
 49
0.0
140
0.0
141
0.0
142
1.0
143
1.0
 70
  1024
 72
     0
 73
     0
 74
     0
  7

 75
     0
147
1.0
148
0.0
149
0.0
100
AcDbLayout
  1
Model
 70
     0
 71
     0
 10
0.0
 20
0.0
 11
0.0
 21
0.0
 12
0.0
 22
0.0
 32
0.0
 14
0.0
 24
0.0
 34
0.0
 15
0.0
 25
0.0
 35
0.0
146
0.0
 13
0.0
 23
0.0
 33
0.0
 16
0.0
 26
0.0
 36
0.0
 17
0.0
 27
0.0
 37
0.0
 76
     0
330
A
331
0
345
0
346
0
  0
LAYOUT
  5
21
102
{ACAD_REACTORS
330
1E
102
}
100
AcDbPlotSettings
  1

  2

  4

  6

 40
0.0
 41
0.0
 42
0.0
 43
0.0
 44
0.0
 45
0.0
 46
0.0
 47
0.0
 48
0.0
 49
0.0
140
0.0
141
0.0
142
1.0
143
1.0
 70
     0
 72
     0
 73
     0
 74
     0
  7

 75
     0
147
1.0
148
0.0
149
0.0
100
AcDbLayout
  1
Layout1
 70
     0
 71
     0
 10
0.0
 20
0.0
 11
0.0
 21
0.0
 12
0.0
 22
0.0
 32
0.0
 14
0.0
 24
0.0
 34
0.0
 15
0.0
 25
0.0
 35
0.0
146
0.0
 13
0.0
 23
0.0
 33
0.0
 16
0.0
 26
0.0
 36
0.0
 17
0.0
 27
0.0
 37
0.0
 76
     0
330
B
331
0
345
0
346
0
  0
DICTIONARY
  5
1E
102
{ACAD_REACTORS
330
19
102
}
100
AcDbDictionary
280
     0
281
     1
  3
Layout1
350
21
  3
Model
350
20
  0
DICTIONARY
  5
22
102
{ACAD_REACTORS
330
19
102
}
100
AcDbDictionary
280
     0
281
     1
  0
WIPEOUTVARIABLES
  5
23
100
AcDbWipeoutVariables
 70
     1
  0
ENDSEC
  0
EOF
