  0
SECTION
  2
HEADER
  9
$ACADVER
  1
AC1015
  9
$ACADMAINTVER
 70
     6
  9
$DWGCODEPAGE
  3
ANSI_1252
  9
$INSBASE
 10
0.0
 20
0.0
 30
0.0
  9
$EXTMIN
 10
0.0
 20
0.0
 30
0.0
  9
$EXTMAX
 10
164.367813
 20
1.519593
 30
2.0
  9
$LIMMIN
 10
0.0
 20
0.0
  9
$LIMMAX
 10
17.0
 20
11.0
  9
$ORTHOMODE
 70
     0
  9
$REGENMODE
 70
     1
  9
$FILLMODE
 70
     1
  9
$QTEXTMODE
 70
     0
  9
$MIRRTEXT
 70
     1
  9
$LTSCALE
 40
1.0
  9
$ATTMODE
 70
     1
  9
$TEXTSIZE
 40
0.2
  9
$TRACEWID
 40
0.05
  9
$TEXTSTYLE
  7
STANDARD
  9
$CLAYER
  8
0
  9
$CELTYPE
  6
ByLayer
  9
$CECOLOR
 62
   256
  9
$CELTSCALE
 40
1.0
  9
$DISPSILH
 70
     0
  9
$DIMSCALE
 40
1.0
  9
$DIMASZ
 40
0.18
  9
$DIMEXO
 40
0.0625
  9
$DIMDLI
 40
0.38
  9
$DIMRND
 40
0.0
  9
$DIMDLE
 40
0.0
  9
$DIMEXE
 40
0.18
  9
$DIMTP
 40
0.0
  9
$DIMTM
 40
0.0
  9
$DIMTXT
 40
0.18
  9
$DIMCEN
 40
0.09
  9
$DIMTSZ
 40
0.0
  9
$DIMTOL
 70
     0
  9
$DIMLIM
 70
     0
  9
$DIMTIH
 70
     1
  9
$DIMTOH
 70
     1
  9
$DIMSE1
 70
     0
  9
$DIMSE2
 70
     0
  9
$DIMTAD
 70
     0
  9
$DIMZIN
 70
     0
  9
$DIMBLK
  1

  9
$DIMASO
 70
     1
  9
$DIMSHO
 70
     1
  9
$DIMPOST
  1

  9
$DIMAPOST
  1

  9
$DIMALT
 70
     0
  9
$DIMALTD
 70
     2
  9
$DIMALTF
 40
25.4
  9
$DIMLFAC
 40
1.0
  9
$DIMTOFL
 70
     0
  9
$DIMTVP
 40
0.0
  9
$DIMTIX
 70
     0
  9
$DIMSOXD
 70
     0
  9
$DIMSAH
 70
     0
  9
$DIMBLK1
  1

  9
$DIMBLK2
  1

  9
$DIMSTYLE
  2
STANDARD
  9
$DIMCLRD
 70
     0
  9
$DIMCLRE
 70
     0
  9
$DIMCLRT
 70
     0
  9
$DIMTFAC
 40
1.0
  9
$DIMGAP
 40
0.09
  9
$DIMJUST
 70
     0
  9
$DIMSD1
 70
     0
  9
$DIMSD2
 70
     0
  9
$DIMTOLJ
 70
     1
  9
$DIMTZIN
 70
     0
  9
$DIMALTZ
 70
     0
  9
$DIMALTTZ
 70
     0
  9
$DIMUPT
 70
     0
  9
$DIMDEC
 70
     4
  9
$DIMTDEC
 70
     4
  9
$DIMALTU
 70
     2
  9
$DIMALTTD
 70
     2
  9
$DIMTXSTY
  7
STANDARD
  9
$DIMAUNIT
 70
     0
  9
$DIMADEC
 70
     0
  9
$DIMALTRND
 40
0.0
  9
$DIMAZIN
 70
     0
  9
$DIMDSEP
 70
    46
  9
$DIMATFIT
 70
     0
  9
$DIMFRAC
 70
     0
  9
$DIMLDRBLK
  1

  9
$DIMLUNIT
 70
     2
  9
$DIMLWD
 70
    -2
  9
$DIMLWE
 70
    -2
  9
$DIMTMOVE
 70
     0
  9
$LUNITS
 70
     2
  9
$LUPREC
 70
     4
  9
$SKETCHINC
 40
0.1
  9
$FILLETRAD
 40
0.125
  9
$AUNITS
 70
     0
  9
$AUPREC
 70
     0
  9
$MENU
  1
.
  9
$ELEVATION
 40
0.0
  9
$PELEVATION
 40
0.0
  9
$THICKNESS
 40
0.0
  9
$LIMCHECK
 70
     0
  9
$CHAMFERA
 40
0.125
  9
$CHAMFERB
 40
0.125
  9
$CHAMFERC
 40
0.0
  9
$CHAMFERD
 40
0.0
  9
$SKPOLY
 70
     0
  9
$TDCREATE
 40
0.000000000
  9
$TDUCREATE
 40
0.000000000
  9
$TDUPDATE
 40
0.000000000
  9
$TDUUPDATE
 40
0.000000000
  9
$TDINDWG
 40
0.0000000000
  9
$TDUSRTIMER
 40
0.0000000000
  9
$USRTIMER
 70
     1
  9
$ANGBASE
 50
0.0
  9
$ANGDIR
 70
     0
  9
$PDMODE
 70
     0
  9
$PDSIZE
 40
0.0
  9
$PLINEWID
 40
0.0
  9
$SPLFRAME
 70
     0
  9
$SPLINETYPE
 70
     6
  9
$SPLINESEGS
 70
     8
  9
$HANDSEED
  5
589
  9
$SURFTAB1
 70
     6
  9
$SURFTAB2
 70
     6
  9
$SURFTYPE
 70
     6
  9
$SURFU
 70
     6
  9
$SURFV
 70
     6
  9
$UCSBASE
  2

  9
$UCSNAME
  2

  9
$UCSORG
 10
0.0
 20
0.0
 30
0.0
  9
$UCSXDIR
 10
1.0
 20
0.0
 30
0.0
  9
$UCSYDIR
 10
0.0
 20
1.0
 30
0.0
  9
$UCSORTHOREF
  2

  9
$UCSORTHOVIEW
 70
     1
  9
$UCSORGTOP
 10
0.0
 20
0.0
 30
0.0
  9
$UCSORGBOTTOM
 10
0.0
 20
0.0
 30
0.0
  9
$UCSORGLEFT
 10
0.0
 20
0.0
 30
0.0
  9
$UCSORGRIGHT
 10
0.0
 20
0.0
 30
0.0
  9
$UCSORGFRONT
 10
0.0
 20
0.0
 30
0.0
  9
$UCSORGBACK
 10
0.0
 20
0.0
 30
0.0
  9
$PUCSBASE
  2

  9
$PUCSNAME
  2

  9
$PUCSORG
 10
0.0
 20
0.0
 30
0.0
  9
$PUCSXDIR
 10
1.0
 20
0.0
 30
0.0
  9
$PUCSYDIR
 10
0.0
 20
1.0
 30
0.0
  9
$PUCSORTHOREF
  2

  9
$PUCSORTHOVIEW
 70
     0
  9
$PUCSORGTOP
 10
0.0
 20
0.0
 30
0.0
  9
$PUCSORGBOTTOM
 10
0.0
 20
0.0
 30
0.0
  9
$PUCSORGLEFT
 10
0.0
 20
0.0
 30
0.0
  9
$PUCSORGRIGHT
 10
0.0
 20
0.0
 30
0.0
  9
$PUCSORGFRONT
 10
0.0
 20
0.0
 30
0.0
  9
$PUCSORGBACK
 10
0.0
 20
0.0
 30
0.0
  9
$USERI1
 70
     0
  9
$USERI2
 70
     0
  9
$USERI3
 70
     0
  9
$USERI4
 70
     0
  9
$USERI5
 70
     0
  9
$USERR1
 40
0.0
  9
$USERR2
 40
0.0
  9
$USERR3
 40
0.0
  9
$USERR4
 40
0.0
  9
$USERR5
 40
0.0
  9
$WORLDVIEW
 70
     1
  9
$SHADEDGE
 70
     3
  9
$SHADEDIF
 70
    70
  9
$TILEMODE
 70
     1
  9
$MAXACTVP
 70
    48
  9
$PINSBASE
 10
0.0
 20
0.0
 30
0.0
  9
$PLIMCHECK
 70
     0
  9
$PEXTMIN
 10
0.0
 20
0.0
 30
0.0
  9
$PEXTMAX
 10
164.367813
 20
1.519593
 30
2.0
  9
$PLIMMIN
 10
0.0
 20
0.0
  9
$PLIMMAX
 10
12.0
 20
9.0
  9
$UNITMODE
 70
     0
  9
$VISRETAIN
 70
     0
  9
$PLINEGEN
 70
     0
  9
$PSLTSCALE
 70
     1
  9
$TREEDEPTH
 70
  3020
  9
$CMLSTYLE
  2
Standard
  9
$CMLJUST
 70
     0
  9
$CMLSCALE
 40
1.0
  9
$PROXYGRAPHICS
 70
     1
  9
$MEASUREMENT
 70
     0
  9
$CELWEIGHT
370
    -1
  9
$ENDCAPS
280
     0
  9
$JOINSTYLE
280
     0
  9
$LWDISPLAY
290
     0
  9
$INSUNITS
 70
     0
  9
$HYPERLINKBASE
  1

  9
$STYLESHEET
  1

  9
$XEDIT
290
     1
  9
$CEPSNTYPE
380
     0
  9
$PSTYLEMODE
290
     0
  9
$FINGERPRINTGUID
  2

  9
$VERSIONGUID
  2

  9
$EXTNAMES
290
     0
  9
$PSVPSCALE
 40
0.0
  0
ENDSEC
  0
SECTION
  2
CLASSES
  0
CLASS
  1
LWPOLYLINE
  2
AcDbPolyline
  3
AutoCAD 2000
 90
        0
280
     0
281
     1
  0
CLASS
  1
IMAGE
  2
AcDbRasterImage
  3
ISM
 90
      127
280
     0
281
     1
  0
CLASS
  1
OLE2FRAME
  2
AcDbOle2Frame
  3
AutoCAD 2000
 90
        0
280
     0
281
     1
  0
CLASS
  1
HATCH
  2
AcDbHatch
  3
AutoCAD 2000
 90
        0
280
     0
281
     1
  0
CLASS
  1
DICTIONARYVAR
  2
AcDbDictionaryVar
  3
AutoCAD 2000
 90
        0
280
     0
281
     0
  0
CLASS
  1
RASTERVARIABLES
  2
AcDbRasterVariables
  3
ISM
 90
        0
280
     0
281
     0
  0
CLASS
  1
IMAGEDEF
  2
AcDbRasterImageDef
  3
ISM
 90
        0
280
     0
281
     0
  0
CLASS
  1
IMAGEDEF_REACTOR
  2
AcDbRasterImageDefReactor
  3
ISM
 90
        1
280
     0
281
     0
  0
CLASS
  1
IDBUFFER
  2
AcDbIdBuffer
  3
AutoCAD 2000
 90
        0
280
     0
281
     0
  0
CLASS
  1
SPATIAL_FILTER
  2
AcDbSpatialFilter
  3
AutoCAD 2000
 90
        0
280
     0
281
     0
  0
CLASS
  1
XRECORD
  2
AcDbXrecord
  3
AutoCAD 2000
 90
        0
280
     0
281
     0
  0
CLASS
  1
SORTENTSTABLE
  2
AcDbSortentsTable
  3
AutoCAD 2000
 90
        0
280
     0
281
     0
  0
CLASS
  1
LAYER_INDEX
  2
AcDbLayerIndex
  3
AutoCAD 2000
 90
        0
280
     0
281
     0
  0
CLASS
  1
SPATIAL_INDEX
  2
AcDbSpatialIndex
  3
AutoCAD 2000
 90
        0
280
     0
281
     0
  0
CLASS
  1
OBJECT_PTR
  2
CAseDLPNTableRecord
  3
"ASE-LPNTableRecord"
 90
        1
280
     0
281
     0
  0
CLASS
  1
LAYOUT
  2
AcDbLayout
  3
AutoCAD 2000
 90
        0
280
     0
281
     0
  0
CLASS
  1
PLOTSETTINGS
  2
AcDbPlotSettings
  3
AutoCAD 2000
 90
        0
280
     0
281
     0
  0
CLASS
  1
ACDBDICTIONARYWDFLT
  2
AcDbDictionaryWithDefault
  3
AutoCAD 2000
 90
        0
280
     0
281
     0
  0
CLASS
  1
ACDBPLACEHOLDER
  2
AcDbPlaceHolder
  3
AutoCAD 2000
 90
        0
280
     0
281
     0
  0
CLASS
  1
VBA_PROJECT
  2
AcDbVbaProject
  3
acadvba
 90
        0
280
     0
281
     0
  0
CLASS
  1
WIPEOUT
  2
AcDbWipeout
  3
WipeOut|AutoCAD Express Tool|expresstools@autodesk.com
 90
      127
280
     0
281
     1
  0
CLASS
  1
WIPEOUTVARIABLES
  2
AcDbWipeoutVariables
  3
WipeOut|AutoCAD Express Tool|expresstools@autodesk.com
 90
        0
280
     0
281
     0
  0
CLASS
  1
RTEXT
  2
RText
  3
RText|AutoCAD Express Tool|expresstools@autodesk.com
 90
        0
280
     0
281
     1
  0
CLASS
  1
ARCALIGNEDTEXT
  2
AcDbArcAlignedText
  3
ATEXT|AutoCAD Express Tool|expresstools@autodesk.com
 90
        0
280
     0
281
     1
  0
ENDSEC
  0
SECTION
  2
TABLES
  0
TABLE
  2
VPORT
  5
7
100
AcDbSymbolTable
 70
     1
  0
VPORT
  5
15
100
AcDbSymbolTableRecord
100
AcDbViewportTableRecord
  2
*ACTIVE
 70
     0
 10
0.0
 20
0.0
 11
1.0
 21
1.0
 12
6.591288
 22
4.579184
 13
0.0
 23
0.0
 14
1.0
 24
1.0
 15
0.0
 25
0.0
 16
0.0
 26
0.0
 36
1.0
 17
0.0
 27
0.0
 37
0.0
 40
9.158369
 41
0.688564
 42
50.0
 43
0.0
 44
0.0
 50
0.0
 51
0.0
 71
     0
 72
   100
 73
     1
 74
     1
 75
     0
 76
     0
 77
     0
 78
     0
281
     0
 65
     0
110
0.0
120
0.0
130
0.0
111
1.0
121
0.0
131
0.0
112
0.0
122
1.0
132
0.0
345
0
346
0
 79
     0
146
0.0
  0
ENDTAB
  0
TABLE
  2
LTYPE
  5
4
100
AcDbSymbolTable
 70
     4
  0
LTYPE
  5
11
100
AcDbSymbolTableRecord
100
AcDbLinetypeTableRecord
  2
ByBlock
 70
    64
  3

 72
    65
 73
     0
 40
0.0
  0
LTYPE
  5
12
100
AcDbSymbolTableRecord
100
AcDbLinetypeTableRecord
  2
ByLayer
 70
    64
  3

 72
    65
 73
     0
 40
0.0
  0
LTYPE
  5
13
100
AcDbSymbolTableRecord
100
AcDbLinetypeTableRecord
  2
Continuous
 70
    64
  3
Solid line
 72
    65
 73
     0
 40
0.0
  0
LTYPE
  5
24
100
AcDbSymbolTableRecord
100
AcDbLinetypeTableRecord
  2
DASHDOT
 70
     0
  3
 __ . __ . __ . __ . __ . __ . __ . 
 72
    65
 73
     4
 40
18.5
 49
12.0
 74
     0
 49
-3.0
 74
     0
 49
0.5
 74
     0
 49
-3.0
 74
     0
  0
ENDTAB
  0
TABLE
  2
LAYER
  5
2
100
AcDbSymbolTable
 70
     2
  0
LAYER
  5
14
100
AcDbSymbolTableRecord
100
AcDbLayerTableRecord
  2
0
 70
     0
 62
     7
  6
Continuous
290
     1
370
    13
390
1D
  0
LAYER
  5
25
100
AcDbSymbolTableRecord
100
AcDbLayerTableRecord
  2
1
 70
     0
 62
     7
  6
Continuous
290
     1
370
    13
390
1D
  0
ENDTAB
  0
TABLE
  2
STYLE
  5
3
100
AcDbSymbolTable
 70
     2
  0
STYLE
  5
17
100
AcDbSymbolTableRecord
100
AcDbTextStyleTableRecord
  2
STANDARD
 70
     0
 40
0.0
 41
1.0
 50
0.0
 71
     0
 42
0.0
  3
isocp.shx
  4

  0
STYLE
  5
26
100
AcDbSymbolTableRecord
100
AcDbTextStyleTableRecord
  2
GDT
 70
     0
 40
0.0
 41
1.0
 50
0.0
 71
     0
 42
0.0
  3
gdt.shx
  4

  0
ENDTAB
  0
TABLE
  2
VIEW
  5
5
100
AcDbSymbolTable
 70
     0
  0
ENDTAB
  0
TABLE
  2
UCS
  5
6
100
AcDbSymbolTable
 70
     0
  0
ENDTAB
  0
TABLE
  2
APPID
  5
8
100
AcDbSymbolTable
 70
     1
  0
APPID
  5
16
100
AcDbSymbolTableRecord
100
AcDbRegAppTableRecord
  2
ACAD
 70
     0
  0
ENDTAB
  0
TABLE
  2
DIMSTYLE
  5
9
100
AcDbSymbolTable
 70
     1
100
AcDbDimStyleTable
 71
     0
  0
DIMSTYLE
105
18
100
AcDbSymbolTableRecord
100
AcDbDimStyleTableRecord
  2
STANDARD
 70
     0
  3

  4

 40
1.0
 41
0.18
 42
0.0625
 43
0.38
 44
0.18
 45
0.0
 46
0.0
 47
0.0
 48
0.0
 71
     0
 72
     0
 73
     1
 74
     1
 75
     0
 76
     0
 77
     0
 78
     0
 79
     0
140
0.18
141
0.09
142
0.0
143
25.4
144
1.0
145
0.0
146
1.0
147
0.09
148
0.0
170
     0
171
     2
172
     0
173
     0
174
     0
175
     0
176
     0
177
     0
178
     0
179
     0
271
     4
272
     4
273
     2
274
     2
275
     0
276
     0
277
     2
278
    46
279
     0
280
     0
281
     0
282
     0
283
     1
284
     0
285
     0
286
     0
288
     0
289
     0
340
0
341
0
342
0
343
0
344
0
371
    -2
372
    -2
  0
ENDTAB
  0
TABLE
  2
BLOCK_RECORD
  5
1
100
AcDbSymbolTable
 70
    19
  0
BLOCK_RECORD
  5
A
100
AcDbSymbolTableRecord
100
AcDbBlockTableRecord
  2
*MODEL_SPACE
340
20
  0
BLOCK_RECORD
  5
B
100
AcDbSymbolTableRecord
100
AcDbBlockTableRecord
  2
*PAPER_SPACE
340
21
  0
BLOCK_RECORD
  5
3B3
100
AcDbSymbolTableRecord
100
AcDbBlockTableRecord
  2
BLOCK1
340
0
102
{BLKREFS
331
576
102
}
  0
BLOCK_RECORD
  5
3B4
100
AcDbSymbolTableRecord
100
AcDbBlockTableRecord
  2
BLOCK2
340
0
102
{BLKREFS
331
577
102
}
  0
BLOCK_RECORD
  5
3B5
100
AcDbSymbolTableRecord
100
AcDbBlockTableRecord
  2
BLOCK3
340
0
102
{BLKREFS
331
578
102
}
  0
BLOCK_RECORD
  5
3B6
100
AcDbSymbolTableRecord
100
AcDbBlockTableRecord
  2
BLOCK4
340
0
102
{BLKREFS
331
579
102
}
  0
BLOCK_RECORD
  5
3B7
100
AcDbSymbolTableRecord
100
AcDbBlockTableRecord
  2
BLOCK5
340
0
102
{BLKREFS
331
57A
102
}
  0
BLOCK_RECORD
  5
3B8
100
AcDbSymbolTableRecord
100
AcDbBlockTableRecord
  2
BLOCK6
340
0
102
{BLKREFS
331
57B
102
}
  0
BLOCK_RECORD
  5
3B9
100
AcDbSymbolTableRecord
100
AcDbBlockTableRecord
  2
BLOCK7
340
0
102
{BLKREFS
331
57C
102
}
  0
BLOCK_RECORD
  5
3BA
100
AcDbSymbolTableRecord
100
AcDbBlockTableRecord
  2
BLOCK8
340
0
102
{BLKREFS
331
57D
102
}
  0
BLOCK_RECORD
  5
3BB
100
AcDbSymbolTableRecord
100
AcDbBlockTableRecord
  2
BLOCK9
340
0
102
{BLKREFS
331
57E
102
}
  0
BLOCK_RECORD
  5
3BC
100
AcDbSymbolTableRecord
100
AcDbBlockTableRecord
  2
BLOCK10
340
0
102
{BLKREFS
331
57F
102
}
  0
BLOCK_RECORD
  5
3BD
100
AcDbSymbolTableRecord
100
AcDbBlockTableRecord
  2
BLOCK11
340
0
102
{BLKREFS
331
580
102
}
  0
BLOCK_RECORD
  5
3BE
100
AcDbSymbolTableRecord
100
AcDbBlockTableRecord
  2
BLOCK12
340
0
102
{BLKREFS
331
581
102
}
  0
BLOCK_RECORD
  5
3BF
100
AcDbSymbolTableRecord
100
AcDbBlockTableRecord
  2
BLOCK13
340
0
102
{BLKREFS
331
582
102
}
  0
BLOCK_RECORD
  5
3C0
100
AcDbSymbolTableRecord
100
AcDbBlockTableRecord
  2
BLOCK14
340
0
102
{BLKREFS
331
583
102
}
  0
BLOCK_RECORD
  5
3C1
100
AcDbSymbolTableRecord
100
AcDbBlockTableRecord
  2
BLOCK15
340
0
102
{BLKREFS
331
584
102
}
  0
BLOCK_RECORD
  5
3C2
100
AcDbSymbolTableRecord
100
AcDbBlockTableRecord
  2
BLOCK16
340
0
102
{BLKREFS
331
585
102
}
  0
BLOCK_RECORD
  5
3C3
100
AcDbSymbolTableRecord
100
AcDbBlockTableRecord
  2
BLOCK17
340
0
102
{BLKREFS
331
586
102
}
  0
BLOCK_RECORD
  5
3C4
100
AcDbSymbolTableRecord
100
AcDbBlockTableRecord
  2
BLOCK18
340
0
102
{BLKREFS
331
587
102
}
  0
BLOCK_RECORD
  5
3C5
100
AcDbSymbolTableRecord
100
AcDbBlockTableRecord
  2
BLOCK19
340
0
102
{BLKREFS
331
588
102
}
  0
ENDTAB
  0
ENDSEC
  0
SECTION
  2
BLOCKS
  0
BLOCK
  5
D
100
AcDbEntity
  8
0
390
0
100
AcDbBlockBegin
  2
*MODEL_SPACE
 70
     0
 10
0.0
 20
0.0
 30
0.0
  3
*MODEL_SPACE
  1

  0
ENDBLK
  5
E
100
AcDbEntity
  8
0
390
0
100
AcDbBlockEnd
  0
BLOCK
  5
F
100
AcDbEntity
 67
     1
  8
0
390
0
100
AcDbBlockBegin
  2
*PAPER_SPACE
 70
     0
 10
0.0
 20
0.0
 30
0.0
  3
*PAPER_SPACE
  1

  0
ENDBLK
  5
10
100
AcDbEntity
 67
     1
  8
0
390
0
100
AcDbBlockEnd
  0
BLOCK
  5
3C6
100
AcDbEntity
  8
0
370
     0
390
0
100
AcDbBlockBegin
  2
BLOCK1
 70
     0
 10
0.0
 20
0.0
 30
0.0
  3
BLOCK1
  1

  0
TEXT
  5
3C7
100
AcDbEntity
  8
0
370
    13
390
0
 62
     7
 48
0.03937
100
AcDbText
 10
8.690642
 20
1.043156
 30
0.0
 40
0.098425
  1
SIZE 
 72
     5
 11
9.064599
 21
1.043156
 31
0.0
100
AcDbText
  0
TEXT
  5
3C8
100
AcDbEntity
  8
0
370
    13
390
0
 62
     7
 48
0.03937
100
AcDbText
 10
9.066098
 20
1.043156
 30
0.0
 40
0.098425
  1
0.5
 72
     5
 11
9.24689
 21
1.043156
 31
0.0
100
AcDbText
  0
TEXT
  5
3C9
100
AcDbEntity
  8
0
370
    13
390
0
 62
     7
 48
0.03937
100
AcDbText
 10
9.24839
 20
1.043156
 30
0.0
 40
0.098425
  1
 INCH ID
 72
     5
 11
9.879737
 21
1.043156
 31
0.0
100
AcDbText
  0
ENDBLK
  5
3CA
100
AcDbEntity
  8
0
390
0
100
AcDbBlockEnd
  0
BLOCK
  5
3CB
100
AcDbEntity
  8
0
370
     0
390
0
100
AcDbBlockBegin
  2
BLOCK2
 70
     0
 10
0.0
 20
0.0
 30
0.0
  3
BLOCK2
  1

  0
TEXT
  5
3CC
100
AcDbEntity
  8
0
370
    13
390
0
 62
     7
 48
0.03937
100
AcDbText
 10
10.093103
 20
0.689966
 30
0.0
 40
0.06
  1
PO Box 2889
 72
     5
 11
10.730818
 21
0.689966
 31
0.0
100
AcDbText
  0
TEXT
  5
3CD
100
AcDbEntity
  8
0
370
    13
390
0
 62
     7
 48
0.03937
100
AcDbText
 10
9.686702
 20
0.589966
 30
0.0
 40
0.06
  1
Pearland, TX 77588
 72
     5
 11
10.730818
 21
0.589966
 31
0.0
100
AcDbText
  0
TEXT
  5
3CE
100
AcDbEntity
  8
0
370
    13
390
0
 62
     7
 48
0.03937
100
AcDbText
 10
9.802816
 20
0.489966
 30
0.0
 40
0.06
  1
PH: 800-826-3801
 72
     5
 11
10.730818
 21
0.489966
 31
0.0
100
AcDbText
  0
TEXT
  5
3CF
100
AcDbEntity
  8
0
370
    13
390
0
 62
     7
 48
0.03937
100
AcDbText
 10
9.744759
 20
0.389966
 30
0.0
 40
0.06
  1
FAX: 281-484-8730
 72
     5
 11
10.730818
 21
0.389966
 31
0.0
100
AcDbText
  0
TEXT
  5
3D0
100
AcDbEntity
  8
0
370
    13
390
0
 62
     7
 48
0.03937
100
AcDbText
 10
9.628644
 20
0.289966
 30
0.0
 40
0.06
  1
www.texasflange.com
 72
     5
 11
10.730818
 21
0.289966
 31
0.0
100
AcDbText
  0
ENDBLK
  5
3D1
100
AcDbEntity
  8
0
390
0
100
AcDbBlockEnd
  0
BLOCK
  5
3D2
100
AcDbEntity
  8
0
370
     0
390
0
100
AcDbBlockBegin
  2
BLOCK3
 70
     0
 10
0.0
 20
0.0
 30
0.0
  3
BLOCK3
  1

  0
TEXT
  5
3D3
100
AcDbEntity
  8
0
370
    13
390
0
 62
     7
 48
0.03937
100
AcDbText
 10
8.289209
 20
0.587871
 30
0.0
 40
0.2
  1
Texas
 72
     5
 11
9.383692
 21
0.587871
 31
0.0
100
AcDbText
  0
TEXT
  5
3D4
100
AcDbEntity
  8
0
370
    13
390
0
 62
     7
 48
0.03937
100
AcDbText
 10
8.289209
 20
0.327871
 30
0.0
 40
0.2
  1
Flange
 72
     5
 11
9.608945
 21
0.327871
 31
0.0
100
AcDbText
  0
ENDBLK
  5
3D5
100
AcDbEntity
  8
0
390
0
100
AcDbBlockEnd
  0
BLOCK
  5
3D6
100
AcDbEntity
  8
0
370
     0
390
0
100
AcDbBlockBegin
  2
BLOCK4
 70
     0
 10
0.0
 20
0.0
 30
0.0
  3
BLOCK4
  1

  0
LINE
  5
3D7
100
AcDbEntity
  8
0
370
     5
390
0
 62
     7
 48
0.00324
100
AcDbLine
 10
8.029831
 20
0.605292
 30
0.0
 11
7.900255
 21
0.604209
 31
0.0
210
0.0
220
0.0
230
1.0
  0
LINE
  5
3D8
100
AcDbEntity
  8
0
370
     5
390
0
 62
     7
 48
0.000103
100
AcDbLine
 10
7.900255
 20
0.604209
 30
0.0
 11
7.902151
 21
0.600546
 31
0.0
210
0.0
220
0.0
230
1.0
  0
LINE
  5
3D9
100
AcDbEntity
  8
0
370
     5
390
0
 62
     7
 48
0.0001
100
AcDbLine
 10
7.902151
 20
0.600546
 30
0.0
 11
7.903945
 21
0.596951
 31
0.0
210
0.0
220
0.0
230
1.0
  0
LINE
  5
3DA
100
AcDbEntity
  8
0
370
     5
390
0
 62
     7
 48
0.000098
100
AcDbLine
 10
7.903945
 20
0.596951
 30
0.0
 11
7.905638
 21
0.593424
 31
0.0
210
0.0
220
0.0
230
1.0
  0
LINE
  5
3DB
100
AcDbEntity
  8
0
370
     5
390
0
 62
     7
 48
0.000095
100
AcDbLine
 10
7.905638
 20
0.593424
 30
0.0
 11
7.907229
 21
0.589967
 31
0.0
210
0.0
220
0.0
230
1.0
  0
LINE
  5
3DC
100
AcDbEntity
  8
0
370
     5
390
0
 62
     7
 48
0.000093
100
AcDbLine
 10
7.907229
 20
0.589967
 30
0.0
 11
7.908719
 21
0.58658
 31
0.0
210
0.0
220
0.0
230
1.0
  0
LINE
  5
3DD
100
AcDbEntity
  8
0
370
     5
390
0
 62
     7
 48
0.00009
100
AcDbLine
 10
7.908719
 20
0.58658
 30
0.0
 11
7.910106
 21
0.583262
 31
0.0
210
0.0
220
0.0
230
1.0
  0
LINE
  5
3DE
100
AcDbEntity
  8
0
370
     5
390
0
 62
     7
 48
0.000087
100
AcDbLine
 10
7.910106
 20
0.583262
 30
0.0
 11
7.911392
 21
0.580013
 31
0.0
210
0.0
220
0.0
230
1.0
  0
LINE
  5
3DF
100
AcDbEntity
  8
0
370
     5
390
0
 62
     7
 48
0.000085
100
AcDbLine
 10
7.911392
 20
0.580013
 30
0.0
 11
7.912577
 21
0.576833
 31
0.0
210
0.0
220
0.0
230
1.0
  0
LINE
  5
3E0
100
AcDbEntity
  8
0
370
     5
390
0
 62
     7
 48
0.000082
100
AcDbLine
 10
7.912577
 20
0.576833
 30
0.0
 11
7.913659
 21
0.573722
 31
0.0
210
0.0
220
0.0
230
1.0
  0
LINE
  5
3E1
100
AcDbEntity
  8
0
370
     5
390
0
 62
     7
 48
0.000095
100
AcDbLine
 10
7.913659
 20
0.573722
 30
0.0
 11
7.915938
 21
0.570681
 31
0.0
210
0.0
220
0.0
230
1.0
  0
LINE
  5
3E2
100
AcDbEntity
  8
0
370
     5
390
0
 62
     7
 48
0.000066
100
AcDbLine
 10
7.915938
 20
0.570681
 30
0.0
 11
7.916123
 21
0.573306
 31
0.0
210
0.0
220
0.0
230
1.0
  0
LINE
  5
3E3
100
AcDbEntity
  8
0
370
     5
390
0
 62
     7
 48
0.000062
100
AcDbLine
 10
7.916123
 20
0.573306
 30
0.0
 11
7.916418
 21
0.575775
 31
0.0
210
0.0
220
0.0
230
1.0
  0
LINE
  5
3E4
100
AcDbEntity
  8
0
370
     5
390
0
 62
     7
 48
0.000059
100
AcDbLine
 10
7.916418
 20
0.575775
 30
0.0
 11
7.916824
 21
0.578087
 31
0.0
210
0.0
220
0.0
230
1.0
  0
LINE
  5
3E5
100
AcDbEntity
  8
0
370
     5
390
0
 62
     7
 48
0.000055
100
AcDbLine
 10
7.916824
 20
0.578087
 30
0.0
 11
7.917339
 21
0.580242
 31
0.0
210
0.0
220
0.0
230
1.0
  0
LINE
  5
3E6
100
AcDbEntity
  8
0
370
     5
390
0
 62
     7
 48
0.000052
100
AcDbLine
 10
7.917339
 20
0.580242
 30
0.0
 11
7.917966
 21
0.58224
 31
0.0
210
0.0
220
0.0
230
1.0
  0
LINE
  5
3E7
100
AcDbEntity
  8
0
370
     5
390
0
 62
     7
 48
0.00005
100
AcDbLine
 10
7.917966
 20
0.58224
 30
0.0
 11
7.918703
 21
0.584081
 31
0.0
210
0.0
220
0.0
230
1.0
  0
LINE
  5
3E8
100
AcDbEntity
  8
0
370
     5
390
0
 62
     7
 48
0.000047
100
AcDbLine
 10
7.918703
 20
0.584081
 30
0.0
 11
7.919549
 21
0.585767
 31
0.0
210
0.0
220
0.0
230
1.0
  0
LINE
  5
3E9
100
AcDbEntity
  8
0
370
     5
390
0
 62
     7
 48
0.000045
100
AcDbLine
 10
7.919549
 20
0.585767
 30
0.0
 11
7.920506
 21
0.587294
 31
0.0
210
0.0
220
0.0
230
1.0
  0
LINE
  5
3EA
100
AcDbEntity
  8
0
370
     5
390
0
 62
     7
 48
0.000043
100
AcDbLine
 10
7.920506
 20
0.587294
 30
0.0
 11
7.921574
 21
0.588665
 31
0.0
210
0.0
220
0.0
230
1.0
  0
LINE
  5
3EB
100
AcDbEntity
  8
0
370
     5
390
0
 62
     7
 48
0.000042
100
AcDbLine
 10
7.921574
 20
0.588665
 30
0.0
 11
7.922751
 21
0.58988
 31
0.0
210
0.0
220
0.0
230
1.0
  0
LINE
  5
3EC
100
AcDbEntity
  8
0
370
     5
390
0
 62
     7
 48
0.000042
100
AcDbLine
 10
7.922751
 20
0.58988
 30
0.0
 11
7.924063
 21
0.590958
 31
0.0
210
0.0
220
0.0
230
1.0
  0
LINE
  5
3ED
100
AcDbEntity
  8
0
370
     5
390
0
 62
     7
 48
0.000044
100
AcDbLine
 10
7.924063
 20
0.590958
 30
0.0
 11
7.92553
 21
0.591923
 31
0.0
210
0.0
220
0.0
230
1.0
  0
LINE
  5
3EE
100
AcDbEntity
  8
0
370
     5
390
0
 62
     7
 48
0.000046
100
AcDbLine
 10
7.92553
 20
0.591923
 30
0.0
 11
7.927152
 21
0.592775
 31
0.0
210
0.0
220
0.0
230
1.0
  0
LINE
  5
3EF
100
AcDbEntity
  8
0
370
     5
390
0
 62
     7
 48
0.000048
100
AcDbLine
 10
7.927152
 20
0.592775
 30
0.0
 11
7.92893
 21
0.593513
 31
0.0
210
0.0
220
0.0
230
1.0
  0
LINE
  5
3F0
100
AcDbEntity
  8
0
370
     5
390
0
 62
     7
 48
0.000051
100
AcDbLine
 10
7.92893
 20
0.593513
 30
0.0
 11
7.930864
 21
0.594138
 31
0.0
210
0.0
220
0.0
230
1.0
  0
LINE
  5
3F1
100
AcDbEntity
  8
0
370
     5
390
0
 62
     7
 48
0.000054
100
AcDbLine
 10
7.930864
 20
0.594138
 30
0.0
 11
7.932953
 21
0.594648
 31
0.0
210
0.0
220
0.0
230
1.0
  0
LINE
  5
3F2
100
AcDbEntity
  8
0
370
     5
390
0
 62
     7
 48
0.000057
100
AcDbLine
 10
7.932953
 20
0.594648
 30
0.0
 11
7.9352
 21
0.595046
 31
0.0
210
0.0
220
0.0
230
1.0
  0
LINE
  5
3F3
100
AcDbEntity
  8
0
370
     5
390
0
 62
     7
 48
0.00006
100
AcDbLine
 10
7.9352
 20
0.595046
 30
0.0
 11
7.9376
 21
0.595331
 31
0.0
210
0.0
220
0.0
230
1.0
  0
LINE
  5
3F4
100
AcDbEntity
  8
0
370
     5
390
0
 62
     7
 48
0.000064
100
AcDbLine
 10
7.9376
 20
0.595331
 30
0.0
 11
7.940158
 21
0.5955
 31
0.0
210
0.0
220
0.0
230
1.0
  0
LINE
  5
3F5
100
AcDbEntity
  8
0
370
     5
390
0
 62
     7
 48
0.000068
100
AcDbLine
 10
7.940158
 20
0.5955
 30
0.0
 11
7.94287
 21
0.595557
 31
0.0
210
0.0
220
0.0
230
1.0
  0
LINE
  5
3F6
100
AcDbEntity
  8
0
370
     5
390
0
 62
     7
 48
0.00005
100
AcDbLine
 10
7.94287
 20
0.595557
 30
0.0
 11
7.944881
 21
0.595532
 31
0.0
210
0.0
220
0.0
230
1.0
  0
LINE
  5
3F7
100
AcDbEntity
  8
0
370
     5
390
0
 62
     7
 48
0.000051
100
AcDbLine
 10
7.944881
 20
0.595532
 30
0.0
 11
7.946936
 21
0.595454
 31
0.0
210
0.0
220
0.0
230
1.0
  0
LINE
  5
3F8
100
AcDbEntity
  8
0
370
     5
390
0
 62
     7
 48
0.000053
100
AcDbLine
 10
7.946936
 20
0.595454
 30
0.0
 11
7.949034
 21
0.595323
 31
0.0
210
0.0
220
0.0
230
1.0
  0
LINE
  5
3F9
100
AcDbEntity
  8
0
370
     5
390
0
 62
     7
 48
0.000054
100
AcDbLine
 10
7.949034
 20
0.595323
 30
0.0
 11
7.951177
 21
0.595142
 31
0.0
210
0.0
220
0.0
230
1.0
  0
LINE
  5
3FA
100
AcDbEntity
  8
0
370
     5
390
0
 62
     7
 48
0.000055
100
AcDbLine
 10
7.951177
 20
0.595142
 30
0.0
 11
7.953361
 21
0.594908
 31
0.0
210
0.0
220
0.0
230
1.0
  0
LINE
  5
3FB
100
AcDbEntity
  8
0
370
     5
390
0
 62
     7
 48
0.000136
100
AcDbLine
 10
7.953361
 20
0.594908
 30
0.0
 11
7.952171
 21
0.589608
 31
0.0
210
0.0
220
0.0
230
1.0
  0
LINE
  5
3FC
100
AcDbEntity
  8
0
370
     5
390
0
 62
     7
 48
0.000162
100
AcDbLine
 10
7.952171
 20
0.589608
 30
0.0
 11
7.945682
 21
0.589716
 31
0.0
210
0.0
220
0.0
230
1.0
  0
LINE
  5
3FD
100
AcDbEntity
  8
0
370
     5
390
0
 62
     7
 48
0.00006
100
AcDbLine
 10
7.945682
 20
0.589716
 30
0.0
 11
7.943286
 21
0.589667
 31
0.0
210
0.0
220
0.0
230
1.0
  0
LINE
  5
3FE
100
AcDbEntity
  8
0
370
     5
390
0
 62
     7
 48
0.000057
100
AcDbLine
 10
7.943286
 20
0.589667
 30
0.0
 11
7.941029
 21
0.589518
 31
0.0
210
0.0
220
0.0
230
1.0
  0
LINE
  5
3FF
100
AcDbEntity
  8
0
370
     5
390
0
 62
     7
 48
0.000053
100
AcDbLine
 10
7.941029
 20
0.589518
 30
0.0
 11
7.938912
 21
0.589269
 31
0.0
210
0.0
220
0.0
230
1.0
  0
LINE
  5
400
100
AcDbEntity
  8
0
370
     5
390
0
 62
     7
 48
0.00005
100
AcDbLine
 10
7.938912
 20
0.589269
 30
0.0
 11
7.936934
 21
0.588921
 31
0.0
210
0.0
220
0.0
230
1.0
  0
LINE
  5
401
100
AcDbEntity
  8
0
370
     5
390
0
 62
     7
 48
0.000047
100
AcDbLine
 10
7.936934
 20
0.588921
 30
0.0
 11
7.935095
 21
0.588473
 31
0.0
210
0.0
220
0.0
230
1.0
  0
LINE
  5
402
100
AcDbEntity
  8
0
370
     5
390
0
 62
     7
 48
0.000045
100
AcDbLine
 10
7.935095
 20
0.588473
 30
0.0
 11
7.933397
 21
0.587925
 31
0.0
210
0.0
220
0.0
230
1.0
  0
LINE
  5
403
100
AcDbEntity
  8
0
370
     5
390
0
 62
     7
 48
0.000042
100
AcDbLine
 10
7.933397
 20
0.587925
 30
0.0
 11
7.931839
 21
0.587279
 31
0.0
210
0.0
220
0.0
230
1.0
  0
LINE
  5
404
100
AcDbEntity
  8
0
370
     5
390
0
 62
     7
 48
0.00004
100
AcDbLine
 10
7.931839
 20
0.587279
 30
0.0
 11
7.930418
 21
0.586532
 31
0.0
210
0.0
220
0.0
230
1.0
  0
LINE
  5
405
100
AcDbEntity
  8
0
370
     5
390
0
 62
     7
 48
0.000038
100
AcDbLine
 10
7.930418
 20
0.586532
 30
0.0
 11
7.929138
 21
0.585687
 31
0.0
210
0.0
220
0.0
230
1.0
  0
LINE
  5
406
100
AcDbEntity
  8
0
370
     5
390
0
 62
     7
 48
0.000074
100
AcDbLine
 10
7.929138
 20
0.585687
 30
0.0
 11
7.926968
 21
0.58367
 31
0.0
210
0.0
220
0.0
230
1.0
  0
LINE
  5
407
100
AcDbEntity
  8
0
370
     5
390
0
 62
     7
 48
0.000039
100
AcDbLine
 10
7.926968
 20
0.58367
 30
0.0
 11
7.926023
 21
0.582444
 31
0.0
210
0.0
220
0.0
230
1.0
  0
LINE
  5
408
100
AcDbEntity
  8
0
370
     5
390
0
 62
     7
 48
0.000041
100
AcDbLine
 10
7.926023
 20
0.582444
 30
0.0
 11
7.92516
 21
0.581064
 31
0.0
210
0.0
220
0.0
230
1.0
  0
LINE
  5
409
100
AcDbEntity
  8
0
370
     5
390
0
 62
     7
 48
0.000043
100
AcDbLine
 10
7.92516
 20
0.581064
 30
0.0
 11
7.924381
 21
0.579533
 31
0.0
210
0.0
220
0.0
230
1.0
  0
LINE
  5
40A
100
AcDbEntity
  8
0
370
     5
390
0
 62
     7
 48
0.000046
100
AcDbLine
 10
7.924381
 20
0.579533
 30
0.0
 11
7.923684
 21
0.577847
 31
0.0
210
0.0
220
0.0
230
1.0
  0
LINE
  5
40B
100
AcDbEntity
  8
0
370
     5
390
0
 62
     7
 48
0.000048
100
AcDbLine
 10
7.923684
 20
0.577847
 30
0.0
 11
7.923073
 21
0.576006
 31
0.0
210
0.0
220
0.0
230
1.0
  0
LINE
  5
40C
100
AcDbEntity
  8
0
370
     5
390
0
 62
     7
 48
0.000052
100
AcDbLine
 10
7.923073
 20
0.576006
 30
0.0
 11
7.922543
 21
0.574013
 31
0.0
210
0.0
220
0.0
230
1.0
  0
LINE
  5
40D
100
AcDbEntity
  8
0
370
     5
390
0
 62
     7
 48
0.000055
100
AcDbLine
 10
7.922543
 20
0.574013
 30
0.0
 11
7.922096
 21
0.571866
 31
0.0
210
0.0
220
0.0
230
1.0
  0
LINE
  5
40E
100
AcDbEntity
  8
0
370
     5
390
0
 62
     7
 48
0.000058
100
AcDbLine
 10
7.922096
 20
0.571866
 30
0.0
 11
7.921734
 21
0.569565
 31
0.0
210
0.0
220
0.0
230
1.0
  0
LINE
  5
40F
100
AcDbEntity
  8
0
370
     5
390
0
 62
     7
 48
0.000062
100
AcDbLine
 10
7.921734
 20
0.569565
 30
0.0
 11
7.921454
 21
0.567111
 31
0.0
210
0.0
220
0.0
230
1.0
  0
LINE
  5
410
100
AcDbEntity
  8
0
370
     5
390
0
 62
     7
 48
0.00007
100
AcDbLine
 10
7.921454
 20
0.567111
 30
0.0
 11
7.924266
 21
0.567111
 31
0.0
210
0.0
220
0.0
230
1.0
  0
LINE
  5
411
100
AcDbEntity
  8
0
370
     5
390
0
 62
     7
 48
0.000054
100
AcDbLine
 10
7.924266
 20
0.567111
 30
0.0
 11
7.924478
 21
0.569252
 31
0.0
210
0.0
220
0.0
230
1.0
  0
LINE
  5
412
100
AcDbEntity
  8
0
370
     5
390
0
 62
     7
 48
0.000051
100
AcDbLine
 10
7.924478
 20
0.569252
 30
0.0
 11
7.924766
 21
0.571259
 31
0.0
210
0.0
220
0.0
230
1.0
  0
LINE
  5
413
100
AcDbEntity
  8
0
370
     5
390
0
 62
     7
 48
0.000048
100
AcDbLine
 10
7.924766
 20
0.571259
 30
0.0
 11
7.92513
 21
0.573132
 31
0.0
210
0.0
220
0.0
230
1.0
  0
LINE
  5
414
100
AcDbEntity
  8
0
370
     5
390
0
 62
     7
 48
0.000045
100
AcDbLine
 10
7.92513
 20
0.573132
 30
0.0
 11
7.925573
 21
0.574872
 31
0.0
210
0.0
220
0.0
230
1.0
  0
LINE
  5
415
100
AcDbEntity
  8
0
370
     5
390
0
 62
     7
 48
0.000042
100
AcDbLine
 10
7.925573
 20
0.574872
 30
0.0
 11
7.926092
 21
0.57648
 31
0.0
210
0.0
220
0.0
230
1.0
  0
LINE
  5
416
100
AcDbEntity
  8
0
370
     5
390
0
 62
     7
 48
0.000077
100
AcDbLine
 10
7.926092
 20
0.57648
 30
0.0
 11
7.92736
 21
0.579297
 31
0.0
210
0.0
220
0.0
230
1.0
  0
LINE
  5
417
100
AcDbEntity
  8
0
370
     5
390
0
 62
     7
 48
0.000069
100
AcDbLine
 10
7.92736
 20
0.579297
 30
0.0
 11
7.928935
 21
0.581582
 31
0.0
210
0.0
220
0.0
230
1.0
  0
LINE
  5
418
100
AcDbEntity
  8
0
370
     5
390
0
 62
     7
 48
0.000065
100
AcDbLine
 10
7.928935
 20
0.581582
 30
0.0
 11
7.930843
 21
0.583356
 31
0.0
210
0.0
220
0.0
230
1.0
  0
LINE
  5
419
100
AcDbEntity
  8
0
370
     5
390
0
 62
     7
 48
0.000069
100
AcDbLine
 10
7.930843
 20
0.583356
 30
0.0
 11
7.93324
 21
0.584759
 31
0.0
210
0.0
220
0.0
230
1.0
  0
LINE
  5
41A
100
AcDbEntity
  8
0
370
     5
390
0
 62
     7
 48
0.000038
100
AcDbLine
 10
7.93324
 20
0.584759
 30
0.0
 11
7.93463
 21
0.585327
 31
0.0
210
0.0
220
0.0
230
1.0
  0
LINE
  5
41B
100
AcDbEntity
  8
0
370
     5
390
0
 62
     7
 48
0.00004
100
AcDbLine
 10
7.93463
 20
0.585327
 30
0.0
 11
7.936151
 21
0.585809
 31
0.0
210
0.0
220
0.0
230
1.0
  0
LINE
  5
41C
100
AcDbEntity
  8
0
370
     5
390
0
 62
     7
 48
0.000042
100
AcDbLine
 10
7.936151
 20
0.585809
 30
0.0
 11
7.937799
 21
0.586203
 31
0.0
210
0.0
220
0.0
230
1.0
  0
LINE
  5
41D
100
AcDbEntity
  8
0
370
     5
390
0
 62
     7
 48
0.000045
100
AcDbLine
 10
7.937799
 20
0.586203
 30
0.0
 11
7.939577
 21
0.586511
 31
0.0
210
0.0
220
0.0
230
1.0
  0
LINE
  5
41E
100
AcDbEntity
  8
0
370
     5
390
0
 62
     7
 48
0.000048
100
AcDbLine
 10
7.939577
 20
0.586511
 30
0.0
 11
7.941484
 21
0.58673
 31
0.0
210
0.0
220
0.0
230
1.0
  0
LINE
  5
41F
100
AcDbEntity
  8
0
370
     5
390
0
 62
     7
 48
0.000051
100
AcDbLine
 10
7.941484
 20
0.58673
 30
0.0
 11
7.943519
 21
0.58686
 31
0.0
210
0.0
220
0.0
230
1.0
  0
LINE
  5
420
100
AcDbEntity
  8
0
370
     5
390
0
 62
     7
 48
0.000054
100
AcDbLine
 10
7.943519
 20
0.58686
 30
0.0
 11
7.945682
 21
0.586905
 31
0.0
210
0.0
220
0.0
230
1.0
  0
LINE
  5
421
100
AcDbEntity
  8
0
370
     5
390
0
 62
     7
 48
0.000192
100
AcDbLine
 10
7.945682
 20
0.586905
 30
0.0
 11
7.953361
 21
0.586796
 31
0.0
210
0.0
220
0.0
230
1.0
  0
LINE
  5
422
100
AcDbEntity
  8
0
370
     5
390
0
 62
     7
 48
0.00269
100
AcDbLine
 10
7.953361
 20
0.586796
 30
0.0
 11
7.953361
 21
0.479178
 31
0.0
210
0.0
220
0.0
230
1.0
  0
LINE
  5
423
100
AcDbEntity
  8
0
370
     5
390
0
 62
     7
 48
0.000493
100
AcDbLine
 10
7.953361
 20
0.479178
 30
0.0
 11
7.93822
 21
0.466523
 31
0.0
210
0.0
220
0.0
230
1.0
  0
LINE
  5
424
100
AcDbEntity
  8
0
370
     5
390
0
 62
     7
 48
0.001236
100
AcDbLine
 10
7.93822
 20
0.466523
 30
0.0
 11
7.987647
 21
0.466523
 31
0.0
210
0.0
220
0.0
230
1.0
  0
LINE
  5
425
100
AcDbEntity
  8
0
370
     5
390
0
 62
     7
 48
0.000434
100
AcDbLine
 10
7.987647
 20
0.466523
 30
0.0
 11
7.974885
 21
0.478313
 31
0.0
210
0.0
220
0.0
230
1.0
  0
LINE
  5
426
100
AcDbEntity
  8
0
370
     5
390
0
 62
     7
 48
0.002931
100
AcDbLine
 10
7.974885
 20
0.478313
 30
0.0
 11
7.976183
 21
0.595557
 31
0.0
210
0.0
220
0.0
230
1.0
  0
LINE
  5
427
100
AcDbEntity
  8
0
370
     5
390
0
 62
     7
 48
0.000049
100
AcDbLine
 10
7.976183
 20
0.595557
 30
0.0
 11
7.97813
 21
0.595713
 31
0.0
210
0.0
220
0.0
230
1.0
  0
LINE
  5
428
100
AcDbEntity
  8
0
370
     5
390
0
 62
     7
 48
0.000049
100
AcDbLine
 10
7.97813
 20
0.595713
 30
0.0
 11
7.980077
 21
0.595835
 31
0.0
210
0.0
220
0.0
230
1.0
  0
LINE
  5
429
100
AcDbEntity
  8
0
370
     5
390
0
 62
     7
 48
0.000049
100
AcDbLine
 10
7.980077
 20
0.595835
 30
0.0
 11
7.982024
 21
0.59592
 31
0.0
210
0.0
220
0.0
230
1.0
  0
LINE
  5
42A
100
AcDbEntity
  8
0
370
     5
390
0
 62
     7
 48
0.000049
100
AcDbLine
 10
7.982024
 20
0.59592
 30
0.0
 11
7.983971
 21
0.595973
 31
0.0
210
0.0
220
0.0
230
1.0
  0
LINE
  5
42B
100
AcDbEntity
  8
0
370
     5
390
0
 62
     7
 48
0.000049
100
AcDbLine
 10
7.983971
 20
0.595973
 30
0.0
 11
7.985918
 21
0.595991
 31
0.0
210
0.0
220
0.0
230
1.0
  0
LINE
  5
42C
100
AcDbEntity
  8
0
370
     5
390
0
 62
     7
 48
0.000058
100
AcDbLine
 10
7.985918
 20
0.595991
 30
0.0
 11
7.988236
 21
0.595943
 31
0.0
210
0.0
220
0.0
230
1.0
  0
LINE
  5
42D
100
AcDbEntity
  8
0
370
     5
390
0
 62
     7
 48
0.000055
100
AcDbLine
 10
7.988236
 20
0.595943
 30
0.0
 11
7.990431
 21
0.595799
 31
0.0
210
0.0
220
0.0
230
1.0
  0
LINE
  5
42E
100
AcDbEntity
  8
0
370
     5
390
0
 62
     7
 48
0.000052
100
AcDbLine
 10
7.990431
 20
0.595799
 30
0.0
 11
7.992506
 21
0.595562
 31
0.0
210
0.0
220
0.0
230
1.0
  0
LINE
  5
42F
100
AcDbEntity
  8
0
370
     5
390
0
 62
     7
 48
0.000049
100
AcDbLine
 10
7.992506
 20
0.595562
 30
0.0
 11
7.994457
 21
0.595229
 31
0.0
210
0.0
220
0.0
230
1.0
  0
LINE
  5
430
100
AcDbEntity
  8
0
370
     5
390
0
 62
     7
 48
0.000047
100
AcDbLine
 10
7.994457
 20
0.595229
 30
0.0
 11
7.996287
 21
0.5948
 31
0.0
210
0.0
220
0.0
230
1.0
  0
LINE
  5
431
100
AcDbEntity
  8
0
370
     5
390
0
 62
     7
 48
0.000045
100
AcDbLine
 10
7.996287
 20
0.5948
 30
0.0
 11
7.997995
 21
0.594276
 31
0.0
210
0.0
220
0.0
230
1.0
  0
LINE
  5
432
100
AcDbEntity
  8
0
370
     5
390
0
 62
     7
 48
0.000043
100
AcDbLine
 10
7.997995
 20
0.594276
 30
0.0
 11
7.99958
 21
0.593658
 31
0.0
210
0.0
220
0.0
230
1.0
  0
LINE
  5
433
100
AcDbEntity
  8
0
370
     5
390
0
 62
     7
 48
0.000041
100
AcDbLine
 10
7.99958
 20
0.593658
 30
0.0
 11
8.001043
 21
0.592944
 31
0.0
210
0.0
220
0.0
230
1.0
  0
LINE
  5
434
100
AcDbEntity
  8
0
370
     5
390
0
 62
     7
 48
0.000039
100
AcDbLine
 10
8.001043
 20
0.592944
 30
0.0
 11
8.002384
 21
0.592136
 31
0.0
210
0.0
220
0.0
230
1.0
  0
LINE
  5
435
100
AcDbEntity
  8
0
370
     5
390
0
 62
     7
 48
0.000038
100
AcDbLine
 10
8.002384
 20
0.592136
 30
0.0
 11
8.003601
 21
0.591231
 31
0.0
210
0.0
220
0.0
230
1.0
  0
LINE
  5
436
100
AcDbEntity
  8
0
370
     5
390
0
 62
     7
 48
0.000038
100
AcDbLine
 10
8.003601
 20
0.591231
 30
0.0
 11
8.004733
 21
0.590204
 31
0.0
210
0.0
220
0.0
230
1.0
  0
LINE
  5
437
100
AcDbEntity
  8
0
370
     5
390
0
 62
     7
 48
0.00004
100
AcDbLine
 10
8.004733
 20
0.590204
 30
0.0
 11
8.00581
 21
0.589025
 31
0.0
210
0.0
220
0.0
230
1.0
  0
LINE
  5
438
100
AcDbEntity
  8
0
370
     5
390
0
 62
     7
 48
0.000042
100
AcDbLine
 10
8.00581
 20
0.589025
 30
0.0
 11
8.006836
 21
0.587694
 31
0.0
210
0.0
220
0.0
230
1.0
  0
LINE
  5
439
100
AcDbEntity
  8
0
370
     5
390
0
 62
     7
 48
0.000044
100
AcDbLine
 10
8.006836
 20
0.587694
 30
0.0
 11
8.007806
 21
0.586212
 31
0.0
210
0.0
220
0.0
230
1.0
  0
LINE
  5
43A
100
AcDbEntity
  8
0
370
     5
390
0
 62
     7
 48
0.000047
100
AcDbLine
 10
8.007806
 20
0.586212
 30
0.0
 11
8.008726
 21
0.584579
 31
0.0
210
0.0
220
0.0
230
1.0
  0
LINE
  5
43B
100
AcDbEntity
  8
0
370
     5
390
0
 62
     7
 48
0.00005
100
AcDbLine
 10
8.008726
 20
0.584579
 30
0.0
 11
8.009591
 21
0.582795
 31
0.0
210
0.0
220
0.0
230
1.0
  0
LINE
  5
43C
100
AcDbEntity
  8
0
370
     5
390
0
 62
     7
 48
0.000053
100
AcDbLine
 10
8.009591
 20
0.582795
 30
0.0
 11
8.010404
 21
0.580859
 31
0.0
210
0.0
220
0.0
230
1.0
  0
LINE
  5
43D
100
AcDbEntity
  8
0
370
     5
390
0
 62
     7
 48
0.000056
100
AcDbLine
 10
8.010404
 20
0.580859
 30
0.0
 11
8.011163
 21
0.578771
 31
0.0
210
0.0
220
0.0
230
1.0
  0
LINE
  5
43E
100
AcDbEntity
  8
0
370
     5
390
0
 62
     7
 48
0.000059
100
AcDbLine
 10
8.011163
 20
0.578771
 30
0.0
 11
8.011871
 21
0.576531
 31
0.0
210
0.0
220
0.0
230
1.0
  0
LINE
  5
43F
100
AcDbEntity
  8
0
370
     5
390
0
 62
     7
 48
0.000062
100
AcDbLine
 10
8.011871
 20
0.576531
 30
0.0
 11
8.012525
 21
0.574142
 31
0.0
210
0.0
220
0.0
230
1.0
  0
LINE
  5
440
100
AcDbEntity
  8
0
370
     5
390
0
 62
     7
 48
0.000057
100
AcDbLine
 10
8.012525
 20
0.574142
 30
0.0
 11
8.014147
 21
0.572519
 31
0.0
210
0.0
220
0.0
230
1.0
  0
LINE
  5
441
100
AcDbEntity
  8
0
370
     5
390
0
 62
     7
 48
0.000054
100
AcDbLine
 10
8.014147
 20
0.572519
 30
0.0
 11
8.014802
 21
0.574562
 31
0.0
210
0.0
220
0.0
230
1.0
  0
LINE
  5
442
100
AcDbEntity
  8
0
370
     5
390
0
 62
     7
 48
0.000052
100
AcDbLine
 10
8.014802
 20
0.574562
 30
0.0
 11
8.015467
 21
0.576534
 31
0.0
210
0.0
220
0.0
230
1.0
  0
LINE
  5
443
100
AcDbEntity
  8
0
370
     5
390
0
 62
     7
 48
0.000051
100
AcDbLine
 10
8.015467
 20
0.576534
 30
0.0
 11
8.016143
 21
0.578438
 31
0.0
210
0.0
220
0.0
230
1.0
  0
LINE
  5
444
100
AcDbEntity
  8
0
370
     5
390
0
 62
     7
 48
0.000049
100
AcDbLine
 10
8.016143
 20
0.578438
 30
0.0
 11
8.01683
 21
0.580272
 31
0.0
210
0.0
220
0.0
230
1.0
  0
LINE
  5
445
100
AcDbEntity
  8
0
370
     5
390
0
 62
     7
 48
0.000047
100
AcDbLine
 10
8.01683
 20
0.580272
 30
0.0
 11
8.017528
 21
0.582038
 31
0.0
210
0.0
220
0.0
230
1.0
  0
LINE
  5
446
100
AcDbEntity
  8
0
370
     5
390
0
 62
     7
 48
0.000046
100
AcDbLine
 10
8.017528
 20
0.582038
 30
0.0
 11
8.018235
 21
0.583734
 31
0.0
210
0.0
220
0.0
230
1.0
  0
LINE
  5
447
100
AcDbEntity
  8
0
370
     5
390
0
 62
     7
 48
0.000044
100
AcDbLine
 10
8.018235
 20
0.583734
 30
0.0
 11
8.018954
 21
0.58536
 31
0.0
210
0.0
220
0.0
230
1.0
  0
LINE
  5
448
100
AcDbEntity
  8
0
370
     5
390
0
 62
     7
 48
0.000043
100
AcDbLine
 10
8.018954
 20
0.58536
 30
0.0
 11
8.019684
 21
0.586917
 31
0.0
210
0.0
220
0.0
230
1.0
  0
LINE
  5
449
100
AcDbEntity
  8
0
370
     5
390
0
 62
     7
 48
0.000042
100
AcDbLine
 10
8.019684
 20
0.586917
 30
0.0
 11
8.020426
 21
0.588405
 31
0.0
210
0.0
220
0.0
230
1.0
  0
LINE
  5
44A
100
AcDbEntity
  8
0
370
     5
390
0
 62
     7
 48
0.00004
100
AcDbLine
 10
8.020426
 20
0.588405
 30
0.0
 11
8.021177
 21
0.589826
 31
0.0
210
0.0
220
0.0
230
1.0
  0
LINE
  5
44B
100
AcDbEntity
  8
0
370
     5
390
0
 62
     7
 48
0.0004
100
AcDbLine
 10
8.021177
 20
0.589826
 30
0.0
 11
8.029019
 21
0.60375
 31
0.0
210
0.0
220
0.0
230
1.0
  0
LINE
  5
44C
100
AcDbEntity
  8
0
370
     5
390
0
 62
     7
 48
0.000044
100
AcDbLine
 10
8.029019
 20
0.60375
 30
0.0
 11
8.029831
 21
0.605292
 31
0.0
210
0.0
220
0.0
230
1.0
  0
ENDBLK
  5
44D
100
AcDbEntity
  8
0
390
0
100
AcDbBlockEnd
  0
BLOCK
  5
44E
100
AcDbEntity
  8
0
370
     0
390
0
100
AcDbBlockBegin
  2
BLOCK5
 70
     0
 10
0.0
 20
0.0
 30
0.0
  3
BLOCK5
  1

  0
LINE
  5
44F
100
AcDbEntity
  8
0
370
     5
390
0
 62
     7
 48
0.000505
100
AcDbLine
 10
8.03978
 20
0.605292
 30
0.0
 11
8.054382
 21
0.591339
 31
0.0
210
0.0
220
0.0
230
1.0
  0
LINE
  5
450
100
AcDbEntity
  8
0
370
     5
390
0
 62
     7
 48
0.001141
100
AcDbLine
 10
8.054382
 20
0.591339
 30
0.0
 11
8.054382
 21
0.545696
 31
0.0
210
0.0
220
0.0
230
1.0
  0
LINE
  5
451
100
AcDbEntity
  8
0
370
     5
390
0
 62
     7
 48
0.00008
100
AcDbLine
 10
8.054382
 20
0.545696
 30
0.0
 11
8.051189
 21
0.545309
 31
0.0
210
0.0
220
0.0
230
1.0
  0
LINE
  5
452
100
AcDbEntity
  8
0
370
     5
390
0
 62
     7
 48
0.000076
100
AcDbLine
 10
8.051189
 20
0.545309
 30
0.0
 11
8.048231
 21
0.544665
 31
0.0
210
0.0
220
0.0
230
1.0
  0
LINE
  5
453
100
AcDbEntity
  8
0
370
     5
390
0
 62
     7
 48
0.000072
100
AcDbLine
 10
8.048231
 20
0.544665
 30
0.0
 11
8.045504
 21
0.543768
 31
0.0
210
0.0
220
0.0
230
1.0
  0
LINE
  5
454
100
AcDbEntity
  8
0
370
     5
390
0
 62
     7
 48
0.000069
100
AcDbLine
 10
8.045504
 20
0.543768
 30
0.0
 11
8.043013
 21
0.542615
 31
0.0
210
0.0
220
0.0
230
1.0
  0
LINE
  5
455
100
AcDbEntity
  8
0
370
     5
390
0
 62
     7
 48
0.000067
100
AcDbLine
 10
8.043013
 20
0.542615
 30
0.0
 11
8.040755
 21
0.541208
 31
0.0
210
0.0
220
0.0
230
1.0
  0
LINE
  5
456
100
AcDbEntity
  8
0
370
     5
390
0
 62
     7
 48
0.000066
100
AcDbLine
 10
8.040755
 20
0.541208
 30
0.0
 11
8.03873
 21
0.539544
 31
0.0
210
0.0
220
0.0
230
1.0
  0
LINE
  5
457
100
AcDbEntity
  8
0
370
     5
390
0
 62
     7
 48
0.000066
100
AcDbLine
 10
8.03873
 20
0.539544
 30
0.0
 11
8.036938
 21
0.537626
 31
0.0
210
0.0
220
0.0
230
1.0
  0
LINE
  5
458
100
AcDbEntity
  8
0
370
     5
390
0
 62
     7
 48
0.000067
100
AcDbLine
 10
8.036938
 20
0.537626
 30
0.0
 11
8.03538
 21
0.535451
 31
0.0
210
0.0
220
0.0
230
1.0
  0
LINE
  5
459
100
AcDbEntity
  8
0
370
     5
390
0
 62
     7
 48
0.000069
100
AcDbLine
 10
8.03538
 20
0.535451
 30
0.0
 11
8.034058
 21
0.533022
 31
0.0
210
0.0
220
0.0
230
1.0
  0
LINE
  5
45A
100
AcDbEntity
  8
0
370
     5
390
0
 62
     7
 48
0.000072
100
AcDbLine
 10
8.034058
 20
0.533022
 30
0.0
 11
8.032967
 21
0.530337
 31
0.0
210
0.0
220
0.0
230
1.0
  0
LINE
  5
45B
100
AcDbEntity
  8
0
370
     5
390
0
 62
     7
 48
0.000047
100
AcDbLine
 10
8.032967
 20
0.530337
 30
0.0
 11
8.033725
 21
0.528606
 31
0.0
210
0.0
220
0.0
230
1.0
  0
LINE
  5
45C
100
AcDbEntity
  8
0
370
     5
390
0
 62
     7
 48
0.000054
100
AcDbLine
 10
8.033725
 20
0.528606
 30
0.0
 11
8.035222
 21
0.530168
 31
0.0
210
0.0
220
0.0
230
1.0
  0
LINE
  5
45D
100
AcDbEntity
  8
0
370
     5
390
0
 62
     7
 48
0.000052
100
AcDbLine
 10
8.035222
 20
0.530168
 30
0.0
 11
8.036774
 21
0.531566
 31
0.0
210
0.0
220
0.0
230
1.0
  0
LINE
  5
45E
100
AcDbEntity
  8
0
370
     5
390
0
 62
     7
 48
0.000051
100
AcDbLine
 10
8.036774
 20
0.531566
 30
0.0
 11
8.038381
 21
0.532799
 31
0.0
210
0.0
220
0.0
230
1.0
  0
LINE
  5
45F
100
AcDbEntity
  8
0
370
     5
390
0
 62
     7
 48
0.000049
100
AcDbLine
 10
8.038381
 20
0.532799
 30
0.0
 11
8.04004
 21
0.533868
 31
0.0
210
0.0
220
0.0
230
1.0
  0
LINE
  5
460
100
AcDbEntity
  8
0
370
     5
390
0
 62
     7
 48
0.000048
100
AcDbLine
 10
8.04004
 20
0.533868
 30
0.0
 11
8.041754
 21
0.534771
 31
0.0
210
0.0
220
0.0
230
1.0
  0
LINE
  5
461
100
AcDbEntity
  8
0
370
     5
390
0
 62
     7
 48
0.000048
100
AcDbLine
 10
8.041754
 20
0.534771
 30
0.0
 11
8.043522
 21
0.535512
 31
0.0
210
0.0
220
0.0
230
1.0
  0
LINE
  5
462
100
AcDbEntity
  8
0
370
     5
390
0
 62
     7
 48
0.000048
100
AcDbLine
 10
8.043522
 20
0.535512
 30
0.0
 11
8.045345
 21
0.536087
 31
0.0
210
0.0
220
0.0
230
1.0
  0
LINE
  5
463
100
AcDbEntity
  8
0
370
     5
390
0
 62
     7
 48
0.000048
100
AcDbLine
 10
8.045345
 20
0.536087
 30
0.0
 11
8.047222
 21
0.536498
 31
0.0
210
0.0
220
0.0
230
1.0
  0
LINE
  5
464
100
AcDbEntity
  8
0
370
     5
390
0
 62
     7
 48
0.000049
100
AcDbLine
 10
8.047222
 20
0.536498
 30
0.0
 11
8.049152
 21
0.536744
 31
0.0
210
0.0
220
0.0
230
1.0
  0
LINE
  5
465
100
AcDbEntity
  8
0
370
     5
390
0
 62
     7
 48
0.00005
100
AcDbLine
 10
8.049152
 20
0.536744
 30
0.0
 11
8.051138
 21
0.536826
 31
0.0
210
0.0
220
0.0
230
1.0
  0
LINE
  5
466
100
AcDbEntity
  8
0
370
     5
390
0
 62
     7
 48
0.000041
100
AcDbLine
 10
8.051138
 20
0.536826
 30
0.0
 11
8.052773
 21
0.536748
 31
0.0
210
0.0
220
0.0
230
1.0
  0
LINE
  5
467
100
AcDbEntity
  8
0
370
     5
390
0
 62
     7
 48
0.00004
100
AcDbLine
 10
8.052773
 20
0.536748
 30
0.0
 11
8.054382
 21
0.53661
 31
0.0
210
0.0
220
0.0
230
1.0
  0
LINE
  5
468
100
AcDbEntity
  8
0
370
     5
390
0
 62
     7
 48
0.000127
100
AcDbLine
 10
8.054382
 20
0.53661
 30
0.0
 11
8.054382
 21
0.531527
 31
0.0
210
0.0
220
0.0
230
1.0
  0
LINE
  5
469
100
AcDbEntity
  8
0
370
     5
390
0
 62
     7
 48
0.000051
100
AcDbLine
 10
8.054382
 20
0.531527
 30
0.0
 11
8.052347
 21
0.531458
 31
0.0
210
0.0
220
0.0
230
1.0
  0
LINE
  5
46A
100
AcDbEntity
  8
0
370
     5
390
0
 62
     7
 48
0.000049
100
AcDbLine
 10
8.052347
 20
0.531458
 30
0.0
 11
8.050394
 21
0.531249
 31
0.0
210
0.0
220
0.0
230
1.0
  0
LINE
  5
46B
100
AcDbEntity
  8
0
370
     5
390
0
 62
     7
 48
0.000048
100
AcDbLine
 10
8.050394
 20
0.531249
 30
0.0
 11
8.048522
 21
0.530904
 31
0.0
210
0.0
220
0.0
230
1.0
  0
LINE
  5
46C
100
AcDbEntity
  8
0
370
     5
390
0
 62
     7
 48
0.000046
100
AcDbLine
 10
8.048522
 20
0.530904
 30
0.0
 11
8.046733
 21
0.53042
 31
0.0
210
0.0
220
0.0
230
1.0
  0
LINE
  5
46D
100
AcDbEntity
  8
0
370
     5
390
0
 62
     7
 48
0.000045
100
AcDbLine
 10
8.046733
 20
0.53042
 30
0.0
 11
8.045027
 21
0.529796
 31
0.0
210
0.0
220
0.0
230
1.0
  0
LINE
  5
46E
100
AcDbEntity
  8
0
370
     5
390
0
 62
     7
 48
0.000045
100
AcDbLine
 10
8.045027
 20
0.529796
 30
0.0
 11
8.043403
 21
0.529035
 31
0.0
210
0.0
220
0.0
230
1.0
  0
LINE
  5
46F
100
AcDbEntity
  8
0
370
     5
390
0
 62
     7
 48
0.000045
100
AcDbLine
 10
8.043403
 20
0.529035
 30
0.0
 11
8.041859
 21
0.528135
 31
0.0
210
0.0
220
0.0
230
1.0
  0
LINE
  5
470
100
AcDbEntity
  8
0
370
     5
390
0
 62
     7
 48
0.000045
100
AcDbLine
 10
8.041859
 20
0.528135
 30
0.0
 11
8.0404
 21
0.527097
 31
0.0
210
0.0
220
0.0
230
1.0
  0
LINE
  5
471
100
AcDbEntity
  8
0
370
     5
390
0
 62
     7
 48
0.000045
100
AcDbLine
 10
8.0404
 20
0.527097
 30
0.0
 11
8.039021
 21
0.52592
 31
0.0
210
0.0
220
0.0
230
1.0
  0
LINE
  5
472
100
AcDbEntity
  8
0
370
     5
390
0
 62
     7
 48
0.000046
100
AcDbLine
 10
8.039021
 20
0.52592
 30
0.0
 11
8.037725
 21
0.524604
 31
0.0
210
0.0
220
0.0
230
1.0
  0
LINE
  5
473
100
AcDbEntity
  8
0
370
     5
390
0
 62
     7
 48
0.000077
100
AcDbLine
 10
8.037725
 20
0.524604
 30
0.0
 11
8.03978
 21
0.522333
 31
0.0
210
0.0
220
0.0
230
1.0
  0
LINE
  5
474
100
AcDbEntity
  8
0
370
     5
390
0
 62
     7
 48
0.000044
100
AcDbLine
 10
8.03978
 20
0.522333
 30
0.0
 11
8.041057
 21
0.523526
 31
0.0
210
0.0
220
0.0
230
1.0
  0
LINE
  5
475
100
AcDbEntity
  8
0
370
     5
390
0
 62
     7
 48
0.000042
100
AcDbLine
 10
8.041057
 20
0.523526
 30
0.0
 11
8.042372
 21
0.524592
 31
0.0
210
0.0
220
0.0
230
1.0
  0
LINE
  5
476
100
AcDbEntity
  8
0
370
     5
390
0
 62
     7
 48
0.000041
100
AcDbLine
 10
8.042372
 20
0.524592
 30
0.0
 11
8.04373
 21
0.525533
 31
0.0
210
0.0
220
0.0
230
1.0
  0
LINE
  5
477
100
AcDbEntity
  8
0
370
     5
390
0
 62
     7
 48
0.000041
100
AcDbLine
 10
8.04373
 20
0.525533
 30
0.0
 11
8.045129
 21
0.526349
 31
0.0
210
0.0
220
0.0
230
1.0
  0
LINE
  5
478
100
AcDbEntity
  8
0
370
     5
390
0
 62
     7
 48
0.00004
100
AcDbLine
 10
8.045129
 20
0.526349
 30
0.0
 11
8.046567
 21
0.527039
 31
0.0
210
0.0
220
0.0
230
1.0
  0
LINE
  5
479
100
AcDbEntity
  8
0
370
     5
390
0
 62
     7
 48
0.00004
100
AcDbLine
 10
8.046567
 20
0.527039
 30
0.0
 11
8.048048
 21
0.527603
 31
0.0
210
0.0
220
0.0
230
1.0
  0
LINE
  5
47A
100
AcDbEntity
  8
0
370
     5
390
0
 62
     7
 48
0.00004
100
AcDbLine
 10
8.048048
 20
0.527603
 30
0.0
 11
8.049571
 21
0.528042
 31
0.0
210
0.0
220
0.0
230
1.0
  0
LINE
  5
47B
100
AcDbEntity
  8
0
370
     5
390
0
 62
     7
 48
0.00004
100
AcDbLine
 10
8.049571
 20
0.528042
 30
0.0
 11
8.051134
 21
0.528356
 31
0.0
210
0.0
220
0.0
230
1.0
  0
LINE
  5
47C
100
AcDbEntity
  8
0
370
     5
390
0
 62
     7
 48
0.00004
100
AcDbLine
 10
8.051134
 20
0.528356
 30
0.0
 11
8.052737
 21
0.528543
 31
0.0
210
0.0
220
0.0
230
1.0
  0
LINE
  5
47D
100
AcDbEntity
  8
0
370
     5
390
0
 62
     7
 48
0.000041
100
AcDbLine
 10
8.052737
 20
0.528543
 30
0.0
 11
8.054382
 21
0.528606
 31
0.0
210
0.0
220
0.0
230
1.0
  0
LINE
  5
47E
100
AcDbEntity
  8
0
370
     5
390
0
 62
     7
 48
0.001163
100
AcDbLine
 10
8.054382
 20
0.528606
 30
0.0
 11
8.054382
 21
0.482097
 31
0.0
210
0.0
220
0.0
230
1.0
  0
LINE
  5
47F
100
AcDbEntity
  8
0
370
     5
390
0
 62
     7
 48
0.000564
100
AcDbLine
 10
8.054382
 20
0.482097
 30
0.0
 11
8.036753
 21
0.468038
 31
0.0
210
0.0
220
0.0
230
1.0
  0
LINE
  5
480
100
AcDbEntity
  8
0
370
     5
390
0
 62
     7
 48
0.001328
100
AcDbLine
 10
8.036753
 20
0.468038
 30
0.0
 11
8.089859
 21
0.468038
 31
0.0
210
0.0
220
0.0
230
1.0
  0
LINE
  5
481
100
AcDbEntity
  8
0
370
     5
390
0
 62
     7
 48
0.000493
100
AcDbLine
 10
8.089859
 20
0.468038
 30
0.0
 11
8.076014
 21
0.482097
 31
0.0
210
0.0
220
0.0
230
1.0
  0
LINE
  5
482
100
AcDbEntity
  8
0
370
     5
390
0
 62
     7
 48
0.001363
100
AcDbLine
 10
8.076014
 20
0.482097
 30
0.0
 11
8.076014
 21
0.53661
 31
0.0
210
0.0
220
0.0
230
1.0
  0
LINE
  5
483
100
AcDbEntity
  8
0
370
     5
390
0
 62
     7
 48
0.000619
100
AcDbLine
 10
8.076014
 20
0.53661
 30
0.0
 11
8.100782
 21
0.53661
 31
0.0
210
0.0
220
0.0
230
1.0
  0
LINE
  5
484
100
AcDbEntity
  8
0
370
     5
390
0
 62
     7
 48
0.000639
100
AcDbLine
 10
8.100782
 20
0.53661
 30
0.0
 11
8.118953
 21
0.518655
 31
0.0
210
0.0
220
0.0
230
1.0
  0
LINE
  5
485
100
AcDbEntity
  8
0
370
     5
390
0
 62
     7
 48
0.001133
100
AcDbLine
 10
8.118953
 20
0.518655
 30
0.0
 11
8.118953
 21
0.563975
 31
0.0
210
0.0
220
0.0
230
1.0
  0
LINE
  5
486
100
AcDbEntity
  8
0
370
     5
390
0
 62
     7
 48
0.000629
100
AcDbLine
 10
8.118953
 20
0.563975
 30
0.0
 11
8.101647
 21
0.545696
 31
0.0
210
0.0
220
0.0
230
1.0
  0
LINE
  5
487
100
AcDbEntity
  8
0
370
     5
390
0
 62
     7
 48
0.000408
100
AcDbLine
 10
8.101647
 20
0.545696
 30
0.0
 11
8.085316
 21
0.545696
 31
0.0
210
0.0
220
0.0
230
1.0
  0
LINE
  5
488
100
AcDbEntity
  8
0
370
     5
390
0
 62
     7
 48
0.001044
100
AcDbLine
 10
8.085316
 20
0.545696
 30
0.0
 11
8.085316
 21
0.587445
 31
0.0
210
0.0
220
0.0
230
1.0
  0
LINE
  5
489
100
AcDbEntity
  8
0
370
     5
390
0
 62
     7
 48
0.000067
100
AcDbLine
 10
8.085316
 20
0.587445
 30
0.0
 11
8.087994
 21
0.58764
 31
0.0
210
0.0
220
0.0
230
1.0
  0
LINE
  5
48A
100
AcDbEntity
  8
0
370
     5
390
0
 62
     7
 48
0.000063
100
AcDbLine
 10
8.087994
 20
0.58764
 30
0.0
 11
8.090491
 21
0.587792
 31
0.0
210
0.0
220
0.0
230
1.0
  0
LINE
  5
48B
100
AcDbEntity
  8
0
370
     5
390
0
 62
     7
 48
0.000058
100
AcDbLine
 10
8.090491
 20
0.587792
 30
0.0
 11
8.092805
 21
0.5879
 31
0.0
210
0.0
220
0.0
230
1.0
  0
LINE
  5
48C
100
AcDbEntity
  8
0
370
     5
390
0
 62
     7
 48
0.000053
100
AcDbLine
 10
8.092805
 20
0.5879
 30
0.0
 11
8.094938
 21
0.587964
 31
0.0
210
0.0
220
0.0
230
1.0
  0
LINE
  5
48D
100
AcDbEntity
  8
0
370
     5
390
0
 62
     7
 48
0.000049
100
AcDbLine
 10
8.094938
 20
0.587964
 30
0.0
 11
8.09689
 21
0.587987
 31
0.0
210
0.0
220
0.0
230
1.0
  0
LINE
  5
48E
100
AcDbEntity
  8
0
370
     5
390
0
 62
     7
 48
0.000063
100
AcDbLine
 10
8.09689
 20
0.587987
 30
0.0
 11
8.099417
 21
0.587969
 31
0.0
210
0.0
220
0.0
230
1.0
  0
LINE
  5
48F
100
AcDbEntity
  8
0
370
     5
390
0
 62
     7
 48
0.00006
100
AcDbLine
 10
8.099417
 20
0.587969
 30
0.0
 11
8.101811
 21
0.587915
 31
0.0
210
0.0
220
0.0
230
1.0
  0
LINE
  5
490
100
AcDbEntity
  8
0
370
     5
390
0
 62
     7
 48
0.000056
100
AcDbLine
 10
8.101811
 20
0.587915
 30
0.0
 11
8.104068
 21
0.587826
 31
0.0
210
0.0
220
0.0
230
1.0
  0
LINE
  5
491
100
AcDbEntity
  8
0
370
     5
390
0
 62
     7
 48
0.000053
100
AcDbLine
 10
8.104068
 20
0.587826
 30
0.0
 11
8.106191
 21
0.5877
 31
0.0
210
0.0
220
0.0
230
1.0
  0
LINE
  5
492
100
AcDbEntity
  8
0
370
     5
390
0
 62
     7
 48
0.00005
100
AcDbLine
 10
8.106191
 20
0.5877
 30
0.0
 11
8.108179
 21
0.58754
 31
0.0
210
0.0
220
0.0
230
1.0
  0
LINE
  5
493
100
AcDbEntity
  8
0
370
     5
390
0
 62
     7
 48
0.000047
100
AcDbLine
 10
8.108179
 20
0.58754
 30
0.0
 11
8.110031
 21
0.587343
 31
0.0
210
0.0
220
0.0
230
1.0
  0
LINE
  5
494
100
AcDbEntity
  8
0
370
     5
390
0
 62
     7
 48
0.000043
100
AcDbLine
 10
8.110031
 20
0.587343
 30
0.0
 11
8.111747
 21
0.587112
 31
0.0
210
0.0
220
0.0
230
1.0
  0
LINE
  5
495
100
AcDbEntity
  8
0
370
     5
390
0
 62
     7
 48
0.00004
100
AcDbLine
 10
8.111747
 20
0.587112
 30
0.0
 11
8.113329
 21
0.586844
 31
0.0
210
0.0
220
0.0
230
1.0
  0
LINE
  5
496
100
AcDbEntity
  8
0
370
     5
390
0
 62
     7
 48
0.000071
100
AcDbLine
 10
8.113329
 20
0.586844
 30
0.0
 11
8.116087
 21
0.586202
 31
0.0
210
0.0
220
0.0
230
1.0
  0
LINE
  5
497
100
AcDbEntity
  8
0
370
     5
390
0
 62
     7
 48
0.000065
100
AcDbLine
 10
8.116087
 20
0.586202
 30
0.0
 11
8.118538
 21
0.585356
 31
0.0
210
0.0
220
0.0
230
1.0
  0
LINE
  5
498
100
AcDbEntity
  8
0
370
     5
390
0
 62
     7
 48
0.000066
100
AcDbLine
 10
8.118538
 20
0.585356
 30
0.0
 11
8.120915
 21
0.584246
 31
0.0
210
0.0
220
0.0
230
1.0
  0
LINE
  5
499
100
AcDbEntity
  8
0
370
     5
390
0
 62
     7
 48
0.000067
100
AcDbLine
 10
8.120915
 20
0.584246
 30
0.0
 11
8.123219
 21
0.582873
 31
0.0
210
0.0
220
0.0
230
1.0
  0
LINE
  5
49A
100
AcDbEntity
  8
0
370
     5
390
0
 62
     7
 48
0.000069
100
AcDbLine
 10
8.123219
 20
0.582873
 30
0.0
 11
8.125449
 21
0.581235
 31
0.0
210
0.0
220
0.0
230
1.0
  0
LINE
  5
49B
100
AcDbEntity
  8
0
370
     5
390
0
 62
     7
 48
0.000072
100
AcDbLine
 10
8.125449
 20
0.581235
 30
0.0
 11
8.127607
 21
0.579333
 31
0.0
210
0.0
220
0.0
230
1.0
  0
LINE
  5
49C
100
AcDbEntity
  8
0
370
     5
390
0
 62
     7
 48
0.000063
100
AcDbLine
 10
8.127607
 20
0.579333
 30
0.0
 11
8.126338
 21
0.581511
 31
0.0
210
0.0
220
0.0
230
1.0
  0
LINE
  5
49D
100
AcDbEntity
  8
0
370
     5
390
0
 62
     7
 48
0.000063
100
AcDbLine
 10
8.126338
 20
0.581511
 30
0.0
 11
8.124737
 21
0.583461
 31
0.0
210
0.0
220
0.0
230
1.0
  0
LINE
  5
49E
100
AcDbEntity
  8
0
370
     5
390
0
 62
     7
 48
0.000065
100
AcDbLine
 10
8.124737
 20
0.583461
 30
0.0
 11
8.122807
 21
0.58518
 31
0.0
210
0.0
220
0.0
230
1.0
  0
LINE
  5
49F
100
AcDbEntity
  8
0
370
     5
390
0
 62
     7
 48
0.000068
100
AcDbLine
 10
8.122807
 20
0.58518
 30
0.0
 11
8.120546
 21
0.586671
 31
0.0
210
0.0
220
0.0
230
1.0
  0
LINE
  5
4A0
100
AcDbEntity
  8
0
370
     5
390
0
 62
     7
 48
0.000072
100
AcDbLine
 10
8.120546
 20
0.586671
 30
0.0
 11
8.117954
 21
0.587933
 31
0.0
210
0.0
220
0.0
230
1.0
  0
LINE
  5
4A1
100
AcDbEntity
  8
0
370
     5
390
0
 62
     7
 48
0.000078
100
AcDbLine
 10
8.117954
 20
0.587933
 30
0.0
 11
8.115029
 21
0.588965
 31
0.0
210
0.0
220
0.0
230
1.0
  0
LINE
  5
4A2
100
AcDbEntity
  8
0
370
     5
390
0
 62
     7
 48
0.000084
100
AcDbLine
 10
8.115029
 20
0.588965
 30
0.0
 11
8.111775
 21
0.589767
 31
0.0
210
0.0
220
0.0
230
1.0
  0
LINE
  5
4A3
100
AcDbEntity
  8
0
370
     5
390
0
 62
     7
 48
0.000091
100
AcDbLine
 10
8.111775
 20
0.589767
 30
0.0
 11
8.108189
 21
0.59034
 31
0.0
210
0.0
220
0.0
230
1.0
  0
LINE
  5
4A4
100
AcDbEntity
  8
0
370
     5
390
0
 62
     7
 48
0.000098
100
AcDbLine
 10
8.108189
 20
0.59034
 30
0.0
 11
8.104273
 21
0.590684
 31
0.0
210
0.0
220
0.0
230
1.0
  0
LINE
  5
4A5
100
AcDbEntity
  8
0
370
     5
390
0
 62
     7
 48
0.000106
100
AcDbLine
 10
8.104273
 20
0.590684
 30
0.0
 11
8.100026
 21
0.590798
 31
0.0
210
0.0
220
0.0
230
1.0
  0
LINE
  5
4A6
100
AcDbEntity
  8
0
370
     5
390
0
 62
     7
 48
0.000075
100
AcDbLine
 10
8.100026
 20
0.590798
 30
0.0
 11
8.097032
 21
0.590786
 31
0.0
210
0.0
220
0.0
230
1.0
  0
LINE
  5
4A7
100
AcDbEntity
  8
0
370
     5
390
0
 62
     7
 48
0.000073
100
AcDbLine
 10
8.097032
 20
0.590786
 30
0.0
 11
8.094107
 21
0.590747
 31
0.0
210
0.0
220
0.0
230
1.0
  0
LINE
  5
4A8
100
AcDbEntity
  8
0
370
     5
390
0
 62
     7
 48
0.000071
100
AcDbLine
 10
8.094107
 20
0.590747
 30
0.0
 11
8.091251
 21
0.590682
 31
0.0
210
0.0
220
0.0
230
1.0
  0
LINE
  5
4A9
100
AcDbEntity
  8
0
370
     5
390
0
 62
     7
 48
0.00007
100
AcDbLine
 10
8.091251
 20
0.590682
 30
0.0
 11
8.088465
 21
0.590591
 31
0.0
210
0.0
220
0.0
230
1.0
  0
LINE
  5
4AA
100
AcDbEntity
  8
0
370
     5
390
0
 62
     7
 48
0.000068
100
AcDbLine
 10
8.088465
 20
0.590591
 30
0.0
 11
8.085749
 21
0.590474
 31
0.0
210
0.0
220
0.0
230
1.0
  0
LINE
  5
4AB
100
AcDbEntity
  8
0
370
     5
390
0
 62
     7
 48
0.000078
100
AcDbLine
 10
8.085749
 20
0.590474
 30
0.0
 11
8.082612
 21
0.590366
 31
0.0
210
0.0
220
0.0
230
1.0
  0
LINE
  5
4AC
100
AcDbEntity
  8
0
370
     5
390
0
 62
     7
 48
0.001117
100
AcDbLine
 10
8.082612
 20
0.590366
 30
0.0
 11
8.082612
 21
0.545696
 31
0.0
210
0.0
220
0.0
230
1.0
  0
LINE
  5
4AD
100
AcDbEntity
  8
0
370
     5
390
0
 62
     7
 48
0.000165
100
AcDbLine
 10
8.082612
 20
0.545696
 30
0.0
 11
8.076014
 21
0.545696
 31
0.0
210
0.0
220
0.0
230
1.0
  0
LINE
  5
4AE
100
AcDbEntity
  8
0
370
     5
390
0
 62
     7
 48
0.001265
100
AcDbLine
 10
8.076014
 20
0.545696
 30
0.0
 11
8.076014
 21
0.596315
 31
0.0
210
0.0
220
0.0
230
1.0
  0
LINE
  5
4AF
100
AcDbEntity
  8
0
370
     5
390
0
 62
     7
 48
0.0001
100
AcDbLine
 10
8.076014
 20
0.596315
 30
0.0
 11
8.080016
 21
0.596207
 31
0.0
210
0.0
220
0.0
230
1.0
  0
LINE
  5
4B0
100
AcDbEntity
  8
0
370
     5
390
0
 62
     7
 48
0.000262
100
AcDbLine
 10
8.080016
 20
0.596207
 30
0.0
 11
8.090507
 21
0.596099
 31
0.0
210
0.0
220
0.0
230
1.0
  0
LINE
  5
4B1
100
AcDbEntity
  8
0
370
     5
390
0
 62
     7
 48
0.000154
100
AcDbLine
 10
8.090507
 20
0.596099
 30
0.0
 11
8.096672
 21
0.596207
 31
0.0
210
0.0
220
0.0
230
1.0
  0
LINE
  5
4B2
100
AcDbEntity
  8
0
370
     5
390
0
 62
     7
 48
0.00008
100
AcDbLine
 10
8.096672
 20
0.596207
 30
0.0
 11
8.099887
 21
0.596163
 31
0.0
210
0.0
220
0.0
230
1.0
  0
LINE
  5
4B3
100
AcDbEntity
  8
0
370
     5
390
0
 62
     7
 48
0.000076
100
AcDbLine
 10
8.099887
 20
0.596163
 30
0.0
 11
8.102909
 21
0.596033
 31
0.0
210
0.0
220
0.0
230
1.0
  0
LINE
  5
4B4
100
AcDbEntity
  8
0
370
     5
390
0
 62
     7
 48
0.000071
100
AcDbLine
 10
8.102909
 20
0.596033
 30
0.0
 11
8.10574
 21
0.595817
 31
0.0
210
0.0
220
0.0
230
1.0
  0
LINE
  5
4B5
100
AcDbEntity
  8
0
370
     5
390
0
 62
     7
 48
0.000066
100
AcDbLine
 10
8.10574
 20
0.595817
 30
0.0
 11
8.108379
 21
0.595514
 31
0.0
210
0.0
220
0.0
230
1.0
  0
LINE
  5
4B6
100
AcDbEntity
  8
0
370
     5
390
0
 62
     7
 48
0.000062
100
AcDbLine
 10
8.108379
 20
0.595514
 30
0.0
 11
8.110827
 21
0.595125
 31
0.0
210
0.0
220
0.0
230
1.0
  0
LINE
  5
4B7
100
AcDbEntity
  8
0
370
     5
390
0
 62
     7
 48
0.000058
100
AcDbLine
 10
8.110827
 20
0.595125
 30
0.0
 11
8.113085
 21
0.594648
 31
0.0
210
0.0
220
0.0
230
1.0
  0
LINE
  5
4B8
100
AcDbEntity
  8
0
370
     5
390
0
 62
     7
 48
0.000054
100
AcDbLine
 10
8.113085
 20
0.594648
 30
0.0
 11
8.11515
 21
0.594086
 31
0.0
210
0.0
220
0.0
230
1.0
  0
LINE
  5
4B9
100
AcDbEntity
  8
0
370
     5
390
0
 62
     7
 48
0.00005
100
AcDbLine
 10
8.11515
 20
0.594086
 30
0.0
 11
8.117024
 21
0.593438
 31
0.0
210
0.0
220
0.0
230
1.0
  0
LINE
  5
4BA
100
AcDbEntity
  8
0
370
     5
390
0
 62
     7
 48
0.000046
100
AcDbLine
 10
8.117024
 20
0.593438
 30
0.0
 11
8.118707
 21
0.592701
 31
0.0
210
0.0
220
0.0
230
1.0
  0
LINE
  5
4BB
100
AcDbEntity
  8
0
370
     5
390
0
 62
     7
 48
0.000043
100
AcDbLine
 10
8.118707
 20
0.592701
 30
0.0
 11
8.120198
 21
0.591881
 31
0.0
210
0.0
220
0.0
230
1.0
  0
LINE
  5
4BC
100
AcDbEntity
  8
0
370
     5
390
0
 62
     7
 48
0.000043
100
AcDbLine
 10
8.120198
 20
0.591881
 30
0.0
 11
8.121594
 21
0.59091
 31
0.0
210
0.0
220
0.0
230
1.0
  0
LINE
  5
4BD
100
AcDbEntity
  8
0
370
     5
390
0
 62
     7
 48
0.000046
100
AcDbLine
 10
8.121594
 20
0.59091
 30
0.0
 11
8.122994
 21
0.589734
 31
0.0
210
0.0
220
0.0
230
1.0
  0
LINE
  5
4BE
100
AcDbEntity
  8
0
370
     5
390
0
 62
     7
 48
0.000049
100
AcDbLine
 10
8.122994
 20
0.589734
 30
0.0
 11
8.124398
 21
0.58835
 31
0.0
210
0.0
220
0.0
230
1.0
  0
LINE
  5
4BF
100
AcDbEntity
  8
0
370
     5
390
0
 62
     7
 48
0.000053
100
AcDbLine
 10
8.124398
 20
0.58835
 30
0.0
 11
8.125804
 21
0.586758
 31
0.0
210
0.0
220
0.0
230
1.0
  0
LINE
  5
4C0
100
AcDbEntity
  8
0
370
     5
390
0
 62
     7
 48
0.000057
100
AcDbLine
 10
8.125804
 20
0.586758
 30
0.0
 11
8.127215
 21
0.584958
 31
0.0
210
0.0
220
0.0
230
1.0
  0
LINE
  5
4C1
100
AcDbEntity
  8
0
370
     5
390
0
 62
     7
 48
0.000061
100
AcDbLine
 10
8.127215
 20
0.584958
 30
0.0
 11
8.128628
 21
0.582951
 31
0.0
210
0.0
220
0.0
230
1.0
  0
LINE
  5
4C2
100
AcDbEntity
  8
0
370
     5
390
0
 62
     7
 48
0.000066
100
AcDbLine
 10
8.128628
 20
0.582951
 30
0.0
 11
8.130044
 21
0.580736
 31
0.0
210
0.0
220
0.0
230
1.0
  0
LINE
  5
4C3
100
AcDbEntity
  8
0
370
     5
390
0
 62
     7
 48
0.00007
100
AcDbLine
 10
8.130044
 20
0.580736
 30
0.0
 11
8.131463
 21
0.578313
 31
0.0
210
0.0
220
0.0
230
1.0
  0
LINE
  5
4C4
100
AcDbEntity
  8
0
370
     5
390
0
 62
     7
 48
0.000075
100
AcDbLine
 10
8.131463
 20
0.578313
 30
0.0
 11
8.132887
 21
0.575682
 31
0.0
210
0.0
220
0.0
230
1.0
  0
LINE
  5
4C5
100
AcDbEntity
  8
0
370
     5
390
0
 62
     7
 48
0.000079
100
AcDbLine
 10
8.132887
 20
0.575682
 30
0.0
 11
8.134311
 21
0.572844
 31
0.0
210
0.0
220
0.0
230
1.0
  0
LINE
  5
4C6
100
AcDbEntity
  8
0
370
     5
390
0
 62
     7
 48
0.000058
100
AcDbLine
 10
8.134311
 20
0.572844
 30
0.0
 11
8.135177
 21
0.575007
 31
0.0
210
0.0
220
0.0
230
1.0
  0
LINE
  5
4C7
100
AcDbEntity
  8
0
370
     5
390
0
 62
     7
 48
0.000059
100
AcDbLine
 10
8.135177
 20
0.575007
 30
0.0
 11
8.136049
 21
0.577196
 31
0.0
210
0.0
220
0.0
230
1.0
  0
LINE
  5
4C8
100
AcDbEntity
  8
0
370
     5
390
0
 62
     7
 48
0.000056
100
AcDbLine
 10
8.136049
 20
0.577196
 30
0.0
 11
8.136889
 21
0.57926
 31
0.0
210
0.0
220
0.0
230
1.0
  0
LINE
  5
4C9
100
AcDbEntity
  8
0
370
     5
390
0
 62
     7
 48
0.000053
100
AcDbLine
 10
8.136889
 20
0.57926
 30
0.0
 11
8.137697
 21
0.581201
 31
0.0
210
0.0
220
0.0
230
1.0
  0
LINE
  5
4CA
100
AcDbEntity
  8
0
370
     5
390
0
 62
     7
 48
0.000049
100
AcDbLine
 10
8.137697
 20
0.581201
 30
0.0
 11
8.138474
 21
0.583019
 31
0.0
210
0.0
220
0.0
230
1.0
  0
LINE
  5
4CB
100
AcDbEntity
  8
0
370
     5
390
0
 62
     7
 48
0.000046
100
AcDbLine
 10
8.138474
 20
0.583019
 30
0.0
 11
8.13922
 21
0.584714
 31
0.0
210
0.0
220
0.0
230
1.0
  0
LINE
  5
4CC
100
AcDbEntity
  8
0
370
     5
390
0
 62
     7
 48
0.000043
100
AcDbLine
 10
8.13922
 20
0.584714
 30
0.0
 11
8.139935
 21
0.586286
 31
0.0
210
0.0
220
0.0
230
1.0
  0
LINE
  5
4CD
100
AcDbEntity
  8
0
370
     5
390
0
 62
     7
 48
0.00004
100
AcDbLine
 10
8.139935
 20
0.586286
 30
0.0
 11
8.140617
 21
0.587735
 31
0.0
210
0.0
220
0.0
230
1.0
  0
LINE
  5
4CE
100
AcDbEntity
  8
0
370
     5
390
0
 62
     7
 48
0.000071
100
AcDbLine
 10
8.140617
 20
0.587735
 30
0.0
 11
8.14189
 21
0.590261
 31
0.0
210
0.0
220
0.0
230
1.0
  0
LINE
  5
4CF
100
AcDbEntity
  8
0
370
     5
390
0
 62
     7
 48
0.000061
100
AcDbLine
 10
8.14189
 20
0.590261
 30
0.0
 11
8.143089
 21
0.592394
 31
0.0
210
0.0
220
0.0
230
1.0
  0
LINE
  5
4D0
100
AcDbEntity
  8
0
370
     5
390
0
 62
     7
 48
0.000069
100
AcDbLine
 10
8.143089
 20
0.592394
 30
0.0
 11
8.144543
 21
0.594729
 31
0.0
210
0.0
220
0.0
230
1.0
  0
LINE
  5
4D1
100
AcDbEntity
  8
0
370
     5
390
0
 62
     7
 48
0.000038
100
AcDbLine
 10
8.144543
 20
0.594729
 30
0.0
 11
8.145386
 21
0.596012
 31
0.0
210
0.0
220
0.0
230
1.0
  0
LINE
  5
4D2
100
AcDbEntity
  8
0
370
     5
390
0
 62
     7
 48
0.000041
100
AcDbLine
 10
8.145386
 20
0.596012
 30
0.0
 11
8.146304
 21
0.597369
 31
0.0
210
0.0
220
0.0
230
1.0
  0
LINE
  5
4D3
100
AcDbEntity
  8
0
370
     5
390
0
 62
     7
 48
0.000044
100
AcDbLine
 10
8.146304
 20
0.597369
 30
0.0
 11
8.1473
 21
0.598802
 31
0.0
210
0.0
220
0.0
230
1.0
  0
LINE
  5
4D4
100
AcDbEntity
  8
0
370
     5
390
0
 62
     7
 48
0.000046
100
AcDbLine
 10
8.1473
 20
0.598802
 30
0.0
 11
8.148372
 21
0.600311
 31
0.0
210
0.0
220
0.0
230
1.0
  0
LINE
  5
4D5
100
AcDbEntity
  8
0
370
     5
390
0
 62
     7
 48
0.000049
100
AcDbLine
 10
8.148372
 20
0.600311
 30
0.0
 11
8.149522
 21
0.601895
 31
0.0
210
0.0
220
0.0
230
1.0
  0
LINE
  5
4D6
100
AcDbEntity
  8
0
370
     5
390
0
 62
     7
 48
0.000052
100
AcDbLine
 10
8.149522
 20
0.601895
 30
0.0
 11
8.150747
 21
0.603555
 31
0.0
210
0.0
220
0.0
230
1.0
  0
LINE
  5
4D7
100
AcDbEntity
  8
0
370
     5
390
0
 62
     7
 48
0.000054
100
AcDbLine
 10
8.150747
 20
0.603555
 30
0.0
 11
8.152051
 21
0.605292
 31
0.0
210
0.0
220
0.0
230
1.0
  0
LINE
  5
4D8
100
AcDbEntity
  8
0
370
     5
390
0
 62
     7
 48
0.002807
100
AcDbLine
 10
8.152051
 20
0.605292
 30
0.0
 11
8.03978
 21
0.605292
 31
0.0
210
0.0
220
0.0
230
1.0
  0
ENDBLK
  5
4D9
100
AcDbEntity
  8
0
390
0
100
AcDbBlockEnd
  0
BLOCK
  5
4DA
100
AcDbEntity
  8
0
370
     0
390
0
100
AcDbBlockBegin
  2
BLOCK6
 70
     0
 10
0.0
 20
0.0
 30
0.0
  3
BLOCK6
  1

  0
TEXT
  5
4DB
100
AcDbEntity
  8
0
370
    13
390
0
 62
     7
 48
0.03937
100
AcDbText
 10
-2.839458
 20
-1.949206
 30
0.0
 40
0.101451
  1
0.5-13
 72
     5
 11
-2.461217
 21
-1.949206
 31
0.0
100
AcDbText
  0
TEXT
  5
4DC
100
AcDbEntity
  8
0
370
    13
390
0
 62
     7
 48
0.03937
100
AcDbText
 10
-2.461217
 20
-1.949206
 30
0.0
 40
0.101451
  1
 X 
 72
     5
 11
-2.275176
 21
-1.949206
 31
0.0
100
AcDbText
  0
TEXT
  5
4DD
100
AcDbEntity
  8
0
370
    13
390
0
 62
     7
 48
0.03937
100
AcDbText
 10
-2.275176
 20
-1.949206
 30
0.0
 40
0.101451
  1
0.88in
 72
     5
 11
-1.898108
 21
-1.949206
 31
0.0
100
AcDbText
  0
POLYLINE
  5
4DE
100
AcDbEntity
  8
0
370
    13
390
0
 62
     7
 48
0.03937
100
AcDb2dPolyline
 66
     1
 10
0.0
 20
0.0
 30
0.0
 71
     3
  0
VERTEX
  5
4DF
100
AcDbEntity
  8
0
370
     0
390
0
100
AcDbVertex
100
AcDb2dVertex
 10
-0.960519
 20
-1.015656
 30
0.0
  0
VERTEX
  5
4E0
100
AcDbEntity
  8
0
370
     0
390
0
100
AcDbVertex
100
AcDb2dVertex
 10
-1.620097
 20
-1.897381
 30
0.0
  0
VERTEX
  5
4E1
100
AcDbEntity
  8
0
370
     0
390
0
100
AcDbVertex
100
AcDb2dVertex
 10
-1.816948
 20
-1.897381
 30
0.0
  0
SEQEND
  5
4E2
100
AcDbEntity
  8
0
370
     0
390
0
  0
SOLID
  5
4E3
100
AcDbEntity
  8
0
370
    13
390
0
 62
     7
 48
0.03937
100
AcDbTrace
 10
-1.056489
 20
-1.201306
 30
0.0
 11
-0.960519
 21
-1.015656
 31
0.0
 12
-1.111512
 22
-1.160145
 32
0.0
 13
-1.111512
 23
-1.160145
 33
0.0
  0
ENDBLK
  5
4E4
100
AcDbEntity
  8
0
390
0
100
AcDbBlockEnd
  0
BLOCK
  5
4E5
100
AcDbEntity
  8
0
370
     0
390
0
100
AcDbBlockBegin
  2
BLOCK7
 70
     0
 10
0.0
 20
0.0
 30
0.0
  3
BLOCK7
  1

  0
TEXT
  5
4E6
100
AcDbEntity
  8
0
370
    13
390
0
 62
     7
 48
0.03937
100
AcDbText
 10
-2.840576
 20
-1.773205
 30
0.0
 40
0.101451
  1
4
 72
     5
 11
-2.767274
 21
-1.773205
 31
0.0
100
AcDbText
  0
TEXT
  5
4E7
100
AcDbEntity
  8
0
370
    13
390
0
 62
     7
 48
0.03937
100
AcDbText
 10
-2.767274
 20
-1.773205
 30
0.0
 40
0.101451
  1
X
 72
     5
 11
-2.654535
 21
-1.773205
 31
0.0
100
AcDbText
  0
ENDBLK
  5
4E8
100
AcDbEntity
  8
0
390
0
100
AcDbBlockEnd
  0
BLOCK
  5
4E9
100
AcDbEntity
  8
0
370
     0
390
0
100
AcDbBlockBegin
  2
BLOCK8
 70
     0
 10
0.0
 20
0.0
 30
0.0
  3
BLOCK8
  1

  0
SOLID
  5
4EA
100
AcDbEntity
  8
0
370
    13
390
0
 62
     7
 48
0.03937
100
AcDbTrace
 10
1.538316
 20
1.208828
 30
0.0
 11
1.394768
 21
1.05694
 31
0.0
 12
1.538316
 22
1.208828
 32
0.0
 13
1.579818
 23
1.154062
 33
0.0
  0
TEXT
  5
4EB
100
AcDbEntity
  8
0
370
    13
390
0
 62
     7
 48
0.03937
100
AcDbText
 10
2.254259
 20
1.307272
 30
0.0
 40
0.101451
  1
3.5
 72
     5
 11
2.437515
 21
1.307272
 31
0.0
100
AcDbText
  0
TEXT
  5
4EC
100
AcDbEntity
  8
0
370
    13
390
0
 62
     7
 48
0.03937
100
AcDbText
 10
2.437515
 20
1.307272
 30
0.0
 40
0.101451
  1
"
 72
     5
 11
2.511912
 21
1.307272
 31
0.0
100
AcDbText
  0
TEXT
  5
4ED
100
AcDbEntity
  8
0
370
    13
390
0
 62
     7
 48
0.03937
100
AcDbText
 10
2.049734
 20
1.307272
 30
0.0
 40
0.101451
  1
%%c
 72
     5
 11
2.151185
 21
1.307272
 31
0.0
100
AcDbText
  0
LINE
  5
4EE
100
AcDbEntity
  8
0
370
    13
390
0
 62
     7
 48
0.004381
100
AcDbLine
 10
1.79205
 20
1.357997
 30
0.0
 11
1.967275
 21
1.357997
 31
0.0
210
0.0
220
0.0
230
1.0
  0
LINE
  5
4EF
100
AcDbEntity
  8
0
370
    13
390
0
 62
     7
 48
0.007308
100
AcDbLine
 10
1.559067
 20
1.181445
 30
0.0
 11
1.79205
 21
1.357997
 31
0.0
210
0.0
220
0.0
230
1.0
  0
POLYLINE
  5
4F0
100
AcDbEntity
  8
0
370
    13
390
0
 62
     7
 48
0.03937
100
AcDb2dPolyline
 66
     1
 10
0.0
 20
0.0
 30
0.0
 70
     1
 71
     3
  0
VERTEX
  5
4F1
100
AcDbEntity
  8
0
370
     0
390
0
100
AcDbVertex
100
AcDb2dVertex
 10
1.538316
 20
1.208828
 30
0.0
  0
VERTEX
  5
4F2
100
AcDbEntity
  8
0
370
     0
390
0
100
AcDbVertex
100
AcDb2dVertex
 10
1.394768
 20
1.05694
 30
0.0
  0
VERTEX
  5
4F3
100
AcDbEntity
  8
0
370
     0
390
0
100
AcDbVertex
100
AcDb2dVertex
 10
1.579818
 20
1.154062
 30
0.0
  0
SEQEND
  5
4F4
100
AcDbEntity
  8
0
370
     0
390
0
  0
ENDBLK
  5
4F5
100
AcDbEntity
  8
0
390
0
100
AcDbBlockEnd
  0
BLOCK
  5
4F6
100
AcDbEntity
  8
0
370
     0
390
0
100
AcDbBlockBegin
  2
BLOCK9
 70
     0
 10
0.0
 20
0.0
 30
0.0
  3
BLOCK9
  1

  0
SOLID
  5
4F7
100
AcDbEntity
  8
0
370
    13
390
0
 62
     7
 48
0.03937
100
AcDbTrace
 10
0.677695
 20
-1.221118
 30
0.0
 11
0.551685
 21
-1.054393
 31
0.0
 12
0.677695
 22
-1.221118
 32
0.0
 13
0.616811
 23
-1.252974
 33
0.0
  0
TEXT
  5
4F8
100
AcDbEntity
  8
0
370
    13
390
0
 62
     7
 48
0.03937
100
AcDbText
 10
1.4159
 20
-1.873444
 30
0.0
 40
0.101451
  1
2.38
 72
     5
 11
1.672459
 21
-1.873444
 31
0.0
100
AcDbText
  0
TEXT
  5
4F9
100
AcDbEntity
  8
0
370
    13
390
0
 62
     7
 48
0.03937
100
AcDbText
 10
1.672459
 20
-1.873444
 30
0.0
 40
0.101451
  1
"
 72
     5
 11
1.746856
 21
-1.873444
 31
0.0
100
AcDbText
  0
TEXT
  5
4FA
100
AcDbEntity
  8
0
370
    13
390
0
 62
     7
 48
0.03937
100
AcDbText
 10
1.211376
 20
-1.873444
 30
0.0
 40
0.101451
  1
%%c
 72
     5
 11
1.312827
 21
-1.873444
 31
0.0
100
AcDbText
  0
LINE
  5
4FB
100
AcDbEntity
  8
0
370
    13
390
0
 62
     7
 48
0.004381
100
AcDbLine
 10
0.953692
 20
-1.822719
 30
0.0
 11
1.128917
 21
-1.822719
 31
0.0
210
0.0
220
0.0
230
1.0
  0
LINE
  5
4FC
100
AcDbEntity
  8
0
370
    13
390
0
 62
     7
 48
0.016525
100
AcDbLine
 10
0.647253
 20
-1.237046
 30
0.0
 11
0.953692
 21
-1.822719
 31
0.0
210
0.0
220
0.0
230
1.0
  0
POLYLINE
  5
4FD
100
AcDbEntity
  8
0
370
    13
390
0
 62
     7
 48
0.03937
100
AcDb2dPolyline
 66
     1
 10
0.0
 20
0.0
 30
0.0
 70
     1
 71
     3
  0
VERTEX
  5
4FE
100
AcDbEntity
  8
0
370
     0
390
0
100
AcDbVertex
100
AcDb2dVertex
 10
0.677695
 20
-1.221118
 30
0.0
  0
VERTEX
  5
4FF
100
AcDbEntity
  8
0
370
     0
390
0
100
AcDbVertex
100
AcDb2dVertex
 10
0.551685
 20
-1.054393
 30
0.0
  0
VERTEX
  5
500
100
AcDbEntity
  8
0
370
     0
390
0
100
AcDbVertex
100
AcDb2dVertex
 10
0.616811
 20
-1.252974
 30
0.0
  0
SEQEND
  5
501
100
AcDbEntity
  8
0
370
     0
390
0
  0
ENDBLK
  5
502
100
AcDbEntity
  8
0
390
0
100
AcDbBlockEnd
  0
BLOCK
  5
503
100
AcDbEntity
  8
0
370
     0
390
0
100
AcDbBlockBegin
  2
BLOCK10
 70
     0
 10
0.0
 20
0.0
 30
0.0
  3
BLOCK10
  1

  0
LINE
  5
504
100
AcDbEntity
  8
0
370
    13
390
0
  6
DASHDOT
 62
     7
 48
0.03937
100
AcDbLine
 10
1.450649
 20
1.450649
 30
0.0
 11
0.232265
 21
0.232265
 31
0.0
210
0.0
220
0.0
230
1.0
  0
ARC
  5
505
100
AcDbEntity
  8
0
370
    13
390
0
  6
DASHDOT
 62
     7
 48
0.03937
100
AcDbCircle
 10
0.0
 20
0.0
 30
0.0
 40
1.19
210
0.0
220
0.0
230
1.0
100
AcDbArc
 50
3.519439
 51
86.480563
  0
ENDBLK
  5
506
100
AcDbEntity
  8
0
390
0
100
AcDbBlockEnd
  0
BLOCK
  5
507
100
AcDbEntity
  8
0
370
     0
390
0
100
AcDbBlockBegin
  2
BLOCK11
 70
     0
 10
0.0
 20
0.0
 30
0.0
  3
BLOCK11
  1

  0
LINE
  5
508
100
AcDbEntity
  8
0
370
    13
390
0
  6
DASHDOT
 62
     7
 48
0.03937
100
AcDbLine
 10
-1.519593
 20
1.519593
 30
0.0
 11
-0.163322
 21
0.163322
 31
0.0
210
0.0
220
0.0
230
1.0
  0
ARC
  5
509
100
AcDbEntity
  8
0
370
    13
390
0
  6
DASHDOT
 62
     7
 48
0.03937
100
AcDbCircle
 10
0.0
 20
0.0
 30
0.0
 40
1.19
210
0.0
220
0.0
230
1.0
100
AcDbArc
 50
88.824971
 51
181.175033
  0
ENDBLK
  5
50A
100
AcDbEntity
  8
0
390
0
100
AcDbBlockEnd
  0
BLOCK
  5
50B
100
AcDbEntity
  8
0
370
     0
390
0
100
AcDbBlockBegin
  2
BLOCK12
 70
     0
 10
0.0
 20
0.0
 30
0.0
  3
BLOCK12
  1

  0
LINE
  5
50C
100
AcDbEntity
  8
0
370
    13
390
0
  6
DASHDOT
 62
     7
 48
0.03937
100
AcDbLine
 10
-1.46979
 20
-1.46979
 30
0.0
 11
-0.213124
 21
-0.213124
 31
0.0
210
0.0
220
0.0
230
1.0
  0
ARC
  5
50D
100
AcDbEntity
  8
0
370
    13
390
0
  6
DASHDOT
 62
     7
 48
0.03937
100
AcDbCircle
 10
0.0
 20
0.0
 30
0.0
 40
1.19
210
0.0
220
0.0
230
1.0
100
AcDbArc
 50
182.216077
 51
267.783929
  0
ENDBLK
  5
50E
100
AcDbEntity
  8
0
390
0
100
AcDbBlockEnd
  0
BLOCK
  5
50F
100
AcDbEntity
  8
0
370
     0
390
0
100
AcDbBlockBegin
  2
BLOCK13
 70
     0
 10
0.0
 20
0.0
 30
0.0
  3
BLOCK13
  1

  0
LINE
  5
510
100
AcDbEntity
  8
0
370
    13
390
0
  6
DASHDOT
 62
     7
 48
0.03937
100
AcDbLine
 10
1.4315
 20
-1.4315
 30
0.0
 11
0.251415
 21
-0.251415
 31
0.0
210
0.0
220
0.0
230
1.0
  0
ARC
  5
511
100
AcDbEntity
  8
0
370
    13
390
0
  6
DASHDOT
 62
     7
 48
0.03937
100
AcDbCircle
 10
0.0
 20
0.0
 30
0.0
 40
1.19
210
0.0
220
0.0
230
1.0
100
AcDbArc
 50
274.823313
 51
355.176667
  0
ENDBLK
  5
512
100
AcDbEntity
  8
0
390
0
100
AcDbBlockEnd
  0
BLOCK
  5
513
100
AcDbEntity
  8
0
370
     0
390
0
100
AcDbBlockBegin
  2
BLOCK14
 70
     0
 10
0.0
 20
0.0
 30
0.0
  3
BLOCK14
  1

  0
SOLID
  5
514
100
AcDbEntity
  8
0
370
    13
390
0
 62
     7
 48
0.03937
100
AcDbTrace
 10
2.975708
 20
-0.143645
 30
0.0
 11
2.941351
 21
0.0625
 31
0.0
 12
2.975708
 22
-0.143645
 32
0.0
 13
2.906993
 23
-0.143645
 33
0.0
  0
SOLID
  5
515
100
AcDbEntity
  8
0
370
    13
390
0
 62
     7
 48
0.03937
100
AcDbTrace
 10
2.906993
 20
-1.043855
 30
0.0
 11
2.941351
 21
-1.25
 31
0.0
 12
2.906993
 22
-1.043855
 32
0.0
 13
2.975708
 23
-1.043855
 33
0.0
  0
TEXT
  5
516
100
AcDbEntity
  8
0
370
    13
390
0
 62
     7
 48
0.03937
100
AcDbText
 10
2.775873
 20
-0.644475
 30
0.0
 40
0.101451
  1
1.31
 72
     5
 11
3.032432
 21
-0.644475
 31
0.0
100
AcDbText
  0
TEXT
  5
517
100
AcDbEntity
  8
0
370
    13
390
0
 62
     7
 48
0.03937
100
AcDbText
 10
3.032432
 20
-0.644475
 30
0.0
 40
0.101451
  1
"
 72
     5
 11
3.106829
 21
-0.644475
 31
0.0
100
AcDbText
  0
LINE
  5
518
100
AcDbEntity
  8
0
370
    13
390
0
 62
     7
 48
0.03937
100
AcDbLine
 10
1.83116
 20
-1.25
 30
0.0
 11
3.022511
 21
-1.25
 31
0.0
210
0.0
220
0.0
230
1.0
  0
LINE
  5
519
100
AcDbEntity
  8
0
370
    13
390
0
 62
     7
 48
0.03937
100
AcDbLine
 10
0.77116
 20
0.0625
 30
0.0
 11
3.022511
 21
0.0625
 31
0.0
210
0.0
220
0.0
230
1.0
  0
LINE
  5
51A
100
AcDbEntity
  8
0
370
    13
390
0
 62
     7
 48
0.007923
100
AcDbLine
 10
2.941351
 20
-1.043855
 30
0.0
 11
2.941351
 21
-0.726934
 31
0.0
210
0.0
220
0.0
230
1.0
  0
LINE
  5
51B
100
AcDbEntity
  8
0
370
    13
390
0
 62
     7
 48
0.007923
100
AcDbLine
 10
2.941351
 20
-0.460566
 30
0.0
 11
2.941351
 21
-0.143645
 31
0.0
210
0.0
220
0.0
230
1.0
  0
POLYLINE
  5
51C
100
AcDbEntity
  8
0
370
    13
390
0
 62
     7
 48
0.03937
100
AcDb2dPolyline
 66
     1
 10
0.0
 20
0.0
 30
0.0
 70
     1
 71
     3
  0
VERTEX
  5
51D
100
AcDbEntity
  8
0
370
     0
390
0
100
AcDbVertex
100
AcDb2dVertex
 10
2.975708
 20
-0.143645
 30
0.0
  0
VERTEX
  5
51E
100
AcDbEntity
  8
0
370
     0
390
0
100
AcDbVertex
100
AcDb2dVertex
 10
2.941351
 20
0.0625
 30
0.0
  0
VERTEX
  5
51F
100
AcDbEntity
  8
0
370
     0
390
0
100
AcDbVertex
100
AcDb2dVertex
 10
2.906993
 20
-0.143645
 30
0.0
  0
SEQEND
  5
520
100
AcDbEntity
  8
0
370
     0
390
0
  0
POLYLINE
  5
521
100
AcDbEntity
  8
0
370
    13
390
0
 62
     7
 48
0.03937
100
AcDb2dPolyline
 66
     1
 10
0.0
 20
0.0
 30
0.0
 70
     1
 71
     3
  0
VERTEX
  5
522
100
AcDbEntity
  8
0
370
     0
390
0
100
AcDbVertex
100
AcDb2dVertex
 10
2.906993
 20
-1.043855
 30
0.0
  0
VERTEX
  5
523
100
AcDbEntity
  8
0
370
     0
390
0
100
AcDbVertex
100
AcDb2dVertex
 10
2.941351
 20
-1.25
 30
0.0
  0
VERTEX
  5
524
100
AcDbEntity
  8
0
370
     0
390
0
100
AcDbVertex
100
AcDb2dVertex
 10
2.975708
 20
-1.043855
 30
0.0
  0
SEQEND
  5
525
100
AcDbEntity
  8
0
370
     0
390
0
  0
ENDBLK
  5
526
100
AcDbEntity
  8
0
390
0
100
AcDbBlockEnd
  0
BLOCK
  5
527
100
AcDbEntity
  8
0
370
     0
390
0
100
AcDbBlockBegin
  2
BLOCK15
 70
     0
 10
0.0
 20
0.0
 30
0.0
  3
BLOCK15
  1

  0
SOLID
  5
528
100
AcDbEntity
  8
0
370
    13
390
0
 62
     7
 48
0.03937
100
AcDbTrace
 10
2.481534
 20
0.268645
 30
0.0
 11
2.515891
 21
0.0625
 31
0.0
 12
2.481534
 22
0.268645
 32
0.0
 13
2.550249
 23
0.268645
 33
0.0
  0
SOLID
  5
529
100
AcDbEntity
  8
0
370
    13
390
0
 62
     7
 48
0.03937
100
AcDbTrace
 10
2.550249
 20
-0.206145
 30
0.0
 11
2.515891
 21
0.0
 31
0.0
 12
2.550249
 22
-0.206145
 32
0.0
 13
2.481534
 23
-0.206145
 33
0.0
  0
TEXT
  5
52A
100
AcDbEntity
  8
0
370
    13
390
0
 62
     7
 48
0.03937
100
AcDbText
 10
2.773576
 20
0.381167
 30
0.0
 40
0.101451
  1
0.06
 72
     5
 11
3.030134
 21
0.381167
 31
0.0
100
AcDbText
  0
TEXT
  5
52B
100
AcDbEntity
  8
0
370
    13
390
0
 62
     7
 48
0.03937
100
AcDbText
 10
3.030134
 20
0.381167
 30
0.0
 40
0.101451
  1
"
 72
     5
 11
3.104531
 21
0.381167
 31
0.0
100
AcDbText
  0
LINE
  5
52C
100
AcDbEntity
  8
0
370
    13
390
0
 62
     7
 48
0.004381
100
AcDbLine
 10
2.515891
 20
0.431892
 30
0.0
 11
2.691117
 21
0.431892
 31
0.0
210
0.0
220
0.0
230
1.0
  0
LINE
  5
52D
100
AcDbEntity
  8
0
370
    13
390
0
 62
     7
 48
0.019147
100
AcDbLine
 10
1.83116
 20
0.0
 30
0.0
 11
2.597052
 21
0.0
 31
0.0
210
0.0
220
0.0
230
1.0
  0
LINE
  5
52E
100
AcDbEntity
  8
0
370
    13
390
0
 62
     7
 48
0.03937
100
AcDbLine
 10
0.77116
 20
0.0625
 30
0.0
 11
2.597052
 21
0.0625
 31
0.0
210
0.0
220
0.0
230
1.0
  0
LINE
  5
52F
100
AcDbEntity
  8
0
370
    13
390
0
 62
     7
 48
0.002962
100
AcDbLine
 10
2.515891
 20
-0.324642
 30
0.0
 11
2.515891
 21
-0.206145
 31
0.0
210
0.0
220
0.0
230
1.0
  0
LINE
  5
530
100
AcDbEntity
  8
0
370
    13
390
0
 62
     7
 48
0.004081
100
AcDbLine
 10
2.515891
 20
0.268645
 30
0.0
 11
2.515891
 21
0.431892
 31
0.0
210
0.0
220
0.0
230
1.0
  0
POLYLINE
  5
531
100
AcDbEntity
  8
0
370
    13
390
0
 62
     7
 48
0.03937
100
AcDb2dPolyline
 66
     1
 10
0.0
 20
0.0
 30
0.0
 70
     1
 71
     3
  0
VERTEX
  5
532
100
AcDbEntity
  8
0
370
     0
390
0
100
AcDbVertex
100
AcDb2dVertex
 10
2.481534
 20
0.268645
 30
0.0
  0
VERTEX
  5
533
100
AcDbEntity
  8
0
370
     0
390
0
100
AcDbVertex
100
AcDb2dVertex
 10
2.515891
 20
0.0625
 30
0.0
  0
VERTEX
  5
534
100
AcDbEntity
  8
0
370
     0
390
0
100
AcDbVertex
100
AcDb2dVertex
 10
2.550249
 20
0.268645
 30
0.0
  0
SEQEND
  5
535
100
AcDbEntity
  8
0
370
     0
390
0
  0
POLYLINE
  5
536
100
AcDbEntity
  8
0
370
    13
390
0
 62
     7
 48
0.03937
100
AcDb2dPolyline
 66
     1
 10
0.0
 20
0.0
 30
0.0
 70
     1
 71
     3
  0
VERTEX
  5
537
100
AcDbEntity
  8
0
370
     0
390
0
100
AcDbVertex
100
AcDb2dVertex
 10
2.550249
 20
-0.206145
 30
0.0
  0
VERTEX
  5
538
100
AcDbEntity
  8
0
370
     0
390
0
100
AcDbVertex
100
AcDb2dVertex
 10
2.515891
 20
0.0
 30
0.0
  0
VERTEX
  5
539
100
AcDbEntity
  8
0
370
     0
390
0
100
AcDbVertex
100
AcDb2dVertex
 10
2.481534
 20
-0.206145
 30
0.0
  0
SEQEND
  5
53A
100
AcDbEntity
  8
0
370
     0
390
0
  0
ENDBLK
  5
53B
100
AcDbEntity
  8
0
390
0
100
AcDbBlockEnd
  0
BLOCK
  5
53C
100
AcDbEntity
  8
0
370
     0
390
0
100
AcDbBlockBegin
  2
BLOCK16
 70
     0
 10
0.0
 20
0.0
 30
0.0
  3
BLOCK16
  1

  0
SOLID
  5
53D
100
AcDbEntity
  8
0
370
    13
390
0
 62
     7
 48
0.03937
100
AcDbTrace
 10
0.483855
 20
0.458342
 30
0.0
 11
0.69
 21
0.492699
 31
0.0
 12
0.483855
 22
0.458342
 32
0.0
 13
0.483855
 23
0.527056
 33
0.0
  0
SOLID
  5
53E
100
AcDbEntity
  8
0
370
    13
390
0
 62
     7
 48
0.03937
100
AcDbTrace
 10
-0.483855
 20
0.527056
 30
0.0
 11
-0.69
 21
0.492699
 31
0.0
 12
-0.483855
 22
0.527056
 32
0.0
 13
-0.483855
 23
0.458342
 33
0.0
  0
TEXT
  5
53F
100
AcDbEntity
  8
0
370
    13
390
0
 62
     7
 48
0.03937
100
AcDbText
 10
-0.063216
 20
0.441974
 30
0.0
 40
0.101451
  1
1.38
 72
     5
 11
0.193343
 21
0.441974
 31
0.0
100
AcDbText
  0
TEXT
  5
540
100
AcDbEntity
  8
0
370
    13
390
0
 62
     7
 48
0.03937
100
AcDbText
 10
0.193343
 20
0.441974
 30
0.0
 40
0.101451
  1
"
 72
     5
 11
0.26774
 21
0.441974
 31
0.0
100
AcDbText
  0
TEXT
  5
541
100
AcDbEntity
  8
0
370
    13
390
0
 62
     7
 48
0.03937
100
AcDbText
 10
-0.26774
 20
0.441974
 30
0.0
 40
0.101451
  1
%%c
 72
     5
 11
-0.166289
 21
0.441974
 31
0.0
100
AcDbText
  0
LINE
  5
542
100
AcDbEntity
  8
0
370
    13
390
0
 62
     7
 48
0.010755
100
AcDbLine
 10
-0.69
 20
0.14366
 30
0.0
 11
-0.69
 21
0.573859
 31
0.0
210
0.0
220
0.0
230
1.0
  0
LINE
  5
543
100
AcDbEntity
  8
0
370
    13
390
0
 62
     7
 48
0.010755
100
AcDbLine
 10
0.69
 20
0.14366
 30
0.0
 11
0.69
 21
0.573859
 31
0.0
210
0.0
220
0.0
230
1.0
  0
LINE
  5
544
100
AcDbEntity
  8
0
370
    13
390
0
 62
     7
 48
0.003341
100
AcDbLine
 10
-0.483855
 20
0.492699
 30
0.0
 11
-0.350199
 21
0.492699
 31
0.0
210
0.0
220
0.0
230
1.0
  0
LINE
  5
545
100
AcDbEntity
  8
0
370
    13
390
0
 62
     7
 48
0.003341
100
AcDbLine
 10
0.350199
 20
0.492699
 30
0.0
 11
0.483855
 21
0.492699
 31
0.0
210
0.0
220
0.0
230
1.0
  0
POLYLINE
  5
546
100
AcDbEntity
  8
0
370
    13
390
0
 62
     7
 48
0.03937
100
AcDb2dPolyline
 66
     1
 10
0.0
 20
0.0
 30
0.0
 70
     1
 71
     3
  0
VERTEX
  5
547
100
AcDbEntity
  8
0
370
     0
390
0
100
AcDbVertex
100
AcDb2dVertex
 10
0.483855
 20
0.458342
 30
0.0
  0
VERTEX
  5
548
100
AcDbEntity
  8
0
370
     0
390
0
100
AcDbVertex
100
AcDb2dVertex
 10
0.69
 20
0.492699
 30
0.0
  0
VERTEX
  5
549
100
AcDbEntity
  8
0
370
     0
390
0
100
AcDbVertex
100
AcDb2dVertex
 10
0.483855
 20
0.527056
 30
0.0
  0
SEQEND
  5
54A
100
AcDbEntity
  8
0
370
     0
390
0
  0
POLYLINE
  5
54B
100
AcDbEntity
  8
0
370
    13
390
0
 62
     7
 48
0.03937
100
AcDb2dPolyline
 66
     1
 10
0.0
 20
0.0
 30
0.0
 70
     1
 71
     3
  0
VERTEX
  5
54C
100
AcDbEntity
  8
0
370
     0
390
0
100
AcDbVertex
100
AcDb2dVertex
 10
-0.483855
 20
0.527056
 30
0.0
  0
VERTEX
  5
54D
100
AcDbEntity
  8
0
370
     0
390
0
100
AcDbVertex
100
AcDb2dVertex
 10
-0.69
 20
0.492699
 30
0.0
  0
VERTEX
  5
54E
100
AcDbEntity
  8
0
370
     0
390
0
100
AcDbVertex
100
AcDb2dVertex
 10
-0.483855
 20
0.458342
 30
0.0
  0
SEQEND
  5
54F
100
AcDbEntity
  8
0
370
     0
390
0
  0
ENDBLK
  5
550
100
AcDbEntity
  8
0
390
0
100
AcDbBlockEnd
  0
BLOCK
  5
551
100
AcDbEntity
  8
0
370
     0
390
0
100
AcDbBlockBegin
  2
BLOCK17
 70
     0
 10
0.0
 20
0.0
 30
0.0
  3
BLOCK17
  1

  0
SOLID
  5
552
100
AcDbEntity
  8
0
370
    13
390
0
 62
     7
 48
0.03937
100
AcDbTrace
 10
-0.456145
 20
-1.675727
 30
0.0
 11
-0.25
 21
-1.64137
 31
0.0
 12
-0.456145
 22
-1.675727
 32
0.0
 13
-0.456145
 23
-1.607013
 33
0.0
  0
SOLID
  5
553
100
AcDbEntity
  8
0
370
    13
390
0
 62
     7
 48
0.03937
100
AcDbTrace
 10
0.456145
 20
-1.607013
 30
0.0
 11
0.25
 21
-1.64137
 31
0.0
 12
0.456145
 22
-1.607013
 32
0.0
 13
0.456145
 23
-1.675727
 33
0.0
  0
TEXT
  5
554
100
AcDbEntity
  8
0
370
    13
390
0
 62
     7
 48
0.03937
100
AcDbText
 10
-0.026564
 20
-1.692095
 30
0.0
 40
0.101451
  1
0.5
 72
     5
 11
0.156692
 21
-1.692095
 31
0.0
100
AcDbText
  0
TEXT
  5
555
100
AcDbEntity
  8
0
370
    13
390
0
 62
     7
 48
0.03937
100
AcDbText
 10
0.156692
 20
-1.692095
 30
0.0
 40
0.101451
  1
"
 72
     5
 11
0.231089
 21
-1.692095
 31
0.0
100
AcDbText
  0
TEXT
  5
556
100
AcDbEntity
  8
0
370
    13
390
0
 62
     7
 48
0.03937
100
AcDbText
 10
-0.231089
 20
-1.692095
 30
0.0
 40
0.101451
  1
%%c
 72
     5
 11
-0.129638
 21
-1.692095
 31
0.0
100
AcDbText
  0
LINE
  5
557
100
AcDbEntity
  8
0
370
    13
390
0
 62
     7
 48
0.009784
100
AcDbLine
 10
-0.25
 20
-1.33116
 30
0.0
 11
-0.25
 21
-1.722531
 31
0.0
210
0.0
220
0.0
230
1.0
  0
LINE
  5
558
100
AcDbEntity
  8
0
370
    13
390
0
 62
     7
 48
0.009784
100
AcDbLine
 10
0.25
 20
-1.33116
 30
0.0
 11
0.25
 21
-1.722531
 31
0.0
210
0.0
220
0.0
230
1.0
  0
LINE
  5
559
100
AcDbEntity
  8
0
370
    13
390
0
 62
     7
 48
0.002962
100
AcDbLine
 10
-0.574642
 20
-1.64137
 30
0.0
 11
-0.456145
 21
-1.64137
 31
0.0
210
0.0
220
0.0
230
1.0
  0
LINE
  5
55A
100
AcDbEntity
  8
0
370
    13
390
0
 62
     7
 48
0.002962
100
AcDbLine
 10
0.456145
 20
-1.64137
 30
0.0
 11
0.574642
 21
-1.64137
 31
0.0
210
0.0
220
0.0
230
1.0
  0
POLYLINE
  5
55B
100
AcDbEntity
  8
0
370
    13
390
0
 62
     7
 48
0.03937
100
AcDb2dPolyline
 66
     1
 10
0.0
 20
0.0
 30
0.0
 70
     1
 71
     3
  0
VERTEX
  5
55C
100
AcDbEntity
  8
0
370
     0
390
0
100
AcDbVertex
100
AcDb2dVertex
 10
-0.456145
 20
-1.675727
 30
0.0
  0
VERTEX
  5
55D
100
AcDbEntity
  8
0
370
     0
390
0
100
AcDbVertex
100
AcDb2dVertex
 10
-0.25
 20
-1.64137
 30
0.0
  0
VERTEX
  5
55E
100
AcDbEntity
  8
0
370
     0
390
0
100
AcDbVertex
100
AcDb2dVertex
 10
-0.456145
 20
-1.607013
 30
0.0
  0
SEQEND
  5
55F
100
AcDbEntity
  8
0
370
     0
390
0
  0
POLYLINE
  5
560
100
AcDbEntity
  8
0
370
    13
390
0
 62
     7
 48
0.03937
100
AcDb2dPolyline
 66
     1
 10
0.0
 20
0.0
 30
0.0
 70
     1
 71
     3
  0
VERTEX
  5
561
100
AcDbEntity
  8
0
370
     0
390
0
100
AcDbVertex
100
AcDb2dVertex
 10
0.456145
 20
-1.607013
 30
0.0
  0
VERTEX
  5
562
100
AcDbEntity
  8
0
370
     0
390
0
100
AcDbVertex
100
AcDb2dVertex
 10
0.25
 20
-1.64137
 30
0.0
  0
VERTEX
  5
563
100
AcDbEntity
  8
0
370
     0
390
0
100
AcDbVertex
100
AcDb2dVertex
 10
0.456145
 20
-1.675727
 30
0.0
  0
SEQEND
  5
564
100
AcDbEntity
  8
0
370
     0
390
0
  0
ENDBLK
  5
565
100
AcDbEntity
  8
0
390
0
100
AcDbBlockEnd
  0
BLOCK
  5
566
100
AcDbEntity
  8
0
370
     0
390
0
100
AcDbBlockBegin
  2
BLOCK18
 70
     0
 10
0.0
 20
0.0
 30
0.0
  3
BLOCK18
  1

  0
LINE
  5
567
100
AcDbEntity
  8
0
370
     5
390
0
 62
     7
 48
0.03937
100
AcDbLine
 10
-0.25
 20
-1.25
 30
0.0
 11
-0.25
 21
0.0625
 31
0.0
210
0.0
220
0.0
230
1.0
  0
LINE
  5
568
100
AcDbEntity
  8
0
370
     5
390
0
 62
     7
 48
0.011
100
AcDbLine
 10
-0.25
 20
0.0625
 30
0.0
 11
-0.69
 21
0.0625
 31
0.0
210
0.0
220
0.0
230
1.0
  0
LINE
  5
569
100
AcDbEntity
  8
0
370
     5
390
0
 62
     7
 48
0.001562
100
AcDbLine
 10
-0.69
 20
0.0625
 30
0.0
 11
-0.69
 21
0.0
 31
0.0
210
0.0
220
0.0
230
1.0
  0
LINE
  5
56A
100
AcDbEntity
  8
0
370
     5
390
0
 62
     7
 48
0.03937
100
AcDbLine
 10
-0.69
 20
0.0
 30
0.0
 11
-1.75
 21
0.0
 31
0.0
210
0.0
220
0.0
230
1.0
  0
LINE
  5
56B
100
AcDbEntity
  8
0
370
     5
390
0
 62
     7
 48
0.03937
100
AcDbLine
 10
-1.75
 20
0.0
 30
0.0
 11
-1.75
 21
-1.25
 31
0.0
210
0.0
220
0.0
230
1.0
  0
LINE
  5
56C
100
AcDbEntity
  8
0
370
     5
390
0
 62
     7
 48
0.03937
100
AcDbLine
 10
-1.75
 20
-1.25
 30
0.0
 11
-0.25
 21
-1.25
 31
0.0
210
0.0
220
0.0
230
1.0
  0
ENDBLK
  5
56D
100
AcDbEntity
  8
0
390
0
100
AcDbBlockEnd
  0
BLOCK
  5
56E
100
AcDbEntity
  8
0
370
     0
390
0
100
AcDbBlockBegin
  2
BLOCK19
 70
     0
 10
0.0
 20
0.0
 30
0.0
  3
BLOCK19
  1

  0
LINE
  5
56F
100
AcDbEntity
  8
0
370
     5
390
0
 62
     7
 48
0.03937
100
AcDbLine
 10
0.25
 20
-1.25
 30
0.0
 11
1.75
 21
-1.25
 31
0.0
210
0.0
220
0.0
230
1.0
  0
LINE
  5
570
100
AcDbEntity
  8
0
370
     5
390
0
 62
     7
 48
0.03937
100
AcDbLine
 10
1.75
 20
-1.25
 30
0.0
 11
1.75
 21
0.0
 31
0.0
210
0.0
220
0.0
230
1.0
  0
LINE
  5
571
100
AcDbEntity
  8
0
370
     5
390
0
 62
     7
 48
0.03937
100
AcDbLine
 10
1.75
 20
0.0
 30
0.0
 11
0.69
 21
0.0
 31
0.0
210
0.0
220
0.0
230
1.0
  0
LINE
  5
572
100
AcDbEntity
  8
0
370
     5
390
0
 62
     7
 48
0.001562
100
AcDbLine
 10
0.69
 20
0.0
 30
0.0
 11
0.69
 21
0.0625
 31
0.0
210
0.0
220
0.0
230
1.0
  0
LINE
  5
573
100
AcDbEntity
  8
0
370
     5
390
0
 62
     7
 48
0.011
100
AcDbLine
 10
0.69
 20
0.0625
 30
0.0
 11
0.25
 21
0.0625
 31
0.0
210
0.0
220
0.0
230
1.0
  0
LINE
  5
574
100
AcDbEntity
  8
0
370
     5
390
0
 62
     7
 48
0.03937
100
AcDbLine
 10
0.25
 20
0.0625
 30
0.0
 11
0.25
 21
-1.25
 31
0.0
210
0.0
220
0.0
230
1.0
  0
ENDBLK
  5
575
100
AcDbEntity
  8
0
390
0
100
AcDbBlockEnd
  0
ENDSEC
  0
SECTION
  2
ENTITIES
  0
VIEWPORT
  5
3B2
100
AcDbEntity
 67
     1
  8
0
370
     0
390
0
 62
     0
 48
0.0
100
AcDbViewport
 10
0.0
 20
0.0
 30
0.0
 40
1000.0
 41
1000.0
 68
     1
 69
     1
 12
0.0
 22
0.0
 13
0.0
 23
0.0
 14
1.0
 24
1.0
 15
1.0
 25
1.0
 16
0.0
 26
0.0
 36
1.0
 17
0.0
 27
0.0
 37
0.0
 42
50.0
 43
0.0
 44
0.0
 45
1000.0
 50
0.0
 51
0.0
 72
   100
 90
        0
340
0
  1

281
     0
 71
     0
 74
     1
110
0.0
120
0.0
130
0.0
111
1.0
121
0.0
131
0.0
112
0.0
122
1.0
132
0.0
345
0
346
0
 79
     0
146
0.0
  0
TEXT
  5
27
100
AcDbEntity
  8
0
370
    13
390
0
 62
     7
 48
0.03937
100
AcDbText
 10
8.263597
 20
0.855562
 30
0.0
 40
0.098425
  1
150-FB-RF-STUDOUT-FLANGE
 72
     5
 11
10.422916
 21
0.855562
 31
0.0
100
AcDbText
  0
TEXT
  5
28
100
AcDbEntity
  8
0
370
    13
390
0
 62
     7
 48
0.03937
100
AcDbText
 10
7.774762
 20
1.08216
 30
0.0
 40
0.06
  1
SIZE:
 72
     5
 11
8.064134
 21
1.08216
 31
0.0
100
AcDbText
  0
TEXT
  5
29
100
AcDbEntity
  8
0
370
    13
390
0
 62
     7
 48
0.03937
100
AcDbText
 10
7.774762
 20
0.894218
 30
0.0
 40
0.06
  1
TYPE:
 72
     5
 11
8.064134
 21
0.894218
 31
0.0
100
AcDbText
  0
POINT
  5
2A
100
AcDbEntity
  8
0
370
     5
390
0
 62
     7
 48
0.03937
100
AcDbPoint
 10
0.0
 20
0.0
 30
0.0
210
0.0
220
0.0
230
1.0
  0
POINT
  5
2B
100
AcDbEntity
  8
0
370
     5
390
0
 62
     7
 48
0.03937
100
AcDbPoint
 10
8.029755
 20
0.53125
 30
0.0
210
0.0
220
0.0
230
1.0
  0
LINE
  5
2C
100
AcDbEntity
  8
1
370
    35
390
0
 62
     7
 48
0.000032
100
AcDbLine
 10
9.035676
 20
0.778761
 30
0.0
 11
9.036922
 21
0.778449
 31
0.0
210
0.0
220
0.0
230
1.0
  0
LINE
  5
2D
100
AcDbEntity
  8
1
370
    35
390
0
 62
     7
 48
0.03937
100
AcDbLine
 10
0.25
 20
0.25
 30
0.0
 11
0.25
 21
8.25
 31
0.0
210
0.0
220
0.0
230
1.0
  0
LINE
  5
2E
100
AcDbEntity
  8
1
370
    35
390
0
 62
     7
 48
0.03937
100
AcDbLine
 10
7.75
 20
1.1875
 30
0.0
 11
10.75
 21
1.1875
 31
0.0
210
0.0
220
0.0
230
1.0
  0
LINE
  5
2F
100
AcDbEntity
  8
1
370
    35
390
0
 62
     7
 48
0.03937
100
AcDbLine
 10
7.75
 20
1.0
 30
0.0
 11
10.75
 21
1.0
 31
0.0
210
0.0
220
0.0
230
1.0
  0
LINE
  5
30
100
AcDbEntity
  8
1
370
    35
390
0
 62
     7
 48
0.03937
100
AcDbLine
 10
0.25
 20
8.25
 30
0.0
 11
10.75
 21
8.25
 31
0.0
210
0.0
220
0.0
230
1.0
  0
LINE
  5
31
100
AcDbEntity
  8
1
370
    35
390
0
 62
     7
 48
0.03937
100
AcDbLine
 10
7.75
 20
0.8125
 30
0.0
 11
10.75
 21
0.8125
 31
0.0
210
0.0
220
0.0
230
1.0
  0
LINE
  5
32
100
AcDbEntity
  8
1
370
    35
390
0
 62
     7
 48
0.03937
100
AcDbLine
 10
0.25
 20
0.25
 30
0.0
 11
10.75
 21
0.25
 31
0.0
210
0.0
220
0.0
230
1.0
  0
LINE
  5
33
100
AcDbEntity
  8
1
370
    35
390
0
 62
     7
 48
0.03937
100
AcDbLine
 10
10.75
 20
8.25
 30
0.0
 11
10.75
 21
0.25
 31
0.0
210
0.0
220
0.0
230
1.0
  0
LINE
  5
34
100
AcDbEntity
  8
1
370
    35
390
0
 62
     7
 48
0.03937
100
AcDbLine
 10
7.75
 20
1.1875
 30
0.0
 11
7.75
 21
0.25
 31
0.0
210
0.0
220
0.0
230
1.0
  0
CIRCLE
  5
35
100
AcDbEntity
  8
0
370
    70
390
0
 62
     7
 48
0.03937
100
AcDbCircle
 10
8.029755
 20
0.53125
 30
0.0
 40
0.2475
210
0.0
220
0.0
230
1.0
  0
CIRCLE
  5
36
100
AcDbEntity
  8
0
370
    70
390
0
 62
     7
 48
0.03937
100
AcDbCircle
 10
8.029755
 20
0.53125
 30
0.0
 40
0.195
210
0.0
220
0.0
230
1.0
  0
CIRCLE
  5
37
100
AcDbEntity
  8
0
370
    35
390
0
 62
     7
 48
0.03937
100
AcDbCircle
 10
8.029755
 20
0.7525
 30
0.0
 40
0.015
210
0.0
220
0.0
230
1.0
  0
CIRCLE
  5
38
100
AcDbEntity
  8
0
370
    35
390
0
 62
     7
 48
0.03937
100
AcDbCircle
 10
8.251005
 20
0.53125
 30
0.0
 40
0.015
210
0.0
220
0.0
230
1.0
  0
CIRCLE
  5
39
100
AcDbEntity
  8
0
370
    35
390
0
 62
     7
 48
0.03937
100
AcDbCircle
 10
8.186202
 20
0.687697
 30
0.0
 40
0.015
210
0.0
220
0.0
230
1.0
  0
CIRCLE
  5
3A
100
AcDbEntity
  8
0
370
    35
390
0
 62
     7
 48
0.03937
100
AcDbCircle
 10
8.029755
 20
0.31
 30
0.0
 40
0.015
210
0.0
220
0.0
230
1.0
  0
CIRCLE
  5
3B
100
AcDbEntity
  8
0
370
    35
390
0
 62
     7
 48
0.03937
100
AcDbCircle
 10
8.186202
 20
0.374803
 30
0.0
 40
0.015
210
0.0
220
0.0
230
1.0
  0
CIRCLE
  5
3C
100
AcDbEntity
  8
0
370
    35
390
0
 62
     7
 48
0.03937
100
AcDbCircle
 10
7.808505
 20
0.53125
 30
0.0
 40
0.015
210
0.0
220
0.0
230
1.0
  0
CIRCLE
  5
3D
100
AcDbEntity
  8
0
370
    35
390
0
 62
     7
 48
0.03937
100
AcDbCircle
 10
7.873308
 20
0.687697
 30
0.0
 40
0.015
210
0.0
220
0.0
230
1.0
  0
CIRCLE
  5
3E
100
AcDbEntity
  8
0
370
    35
390
0
 62
     7
 48
0.03937
100
AcDbCircle
 10
7.873308
 20
0.374803
 30
0.0
 40
0.015
210
0.0
220
0.0
230
1.0
  0
POLYLINE
  5
3F
100
AcDbEntity
  8
0
370
    13
390
0
 62
     7
 48
0.03937
100
AcDb2dPolyline
 66
     1
 10
0.0
 20
0.0
 30
0.0
 70
     1
 71
   118
  0
VERTEX
  5
40
100
AcDbEntity
  8
0
370
     0
390
0
100
AcDbVertex
100
AcDb2dVertex
 10
8.029831
 20
0.605292
 30
0.0
  0
VERTEX
  5
41
100
AcDbEntity
  8
0
370
     0
390
0
100
AcDbVertex
100
AcDb2dVertex
 10
8.029019
 20
0.60375
 30
0.0
  0
VERTEX
  5
42
100
AcDbEntity
  8
0
370
     0
390
0
100
AcDbVertex
100
AcDb2dVertex
 10
8.021177
 20
0.589826
 30
0.0
  0
VERTEX
  5
43
100
AcDbEntity
  8
0
370
     0
390
0
100
AcDbVertex
100
AcDb2dVertex
 10
8.020426
 20
0.588405
 30
0.0
  0
VERTEX
  5
44
100
AcDbEntity
  8
0
370
     0
390
0
100
AcDbVertex
100
AcDb2dVertex
 10
8.019684
 20
0.586917
 30
0.0
  0
VERTEX
  5
45
100
AcDbEntity
  8
0
370
     0
390
0
100
AcDbVertex
100
AcDb2dVertex
 10
8.018954
 20
0.58536
 30
0.0
  0
VERTEX
  5
46
100
AcDbEntity
  8
0
370
     0
390
0
100
AcDbVertex
100
AcDb2dVertex
 10
8.018235
 20
0.583734
 30
0.0
  0
VERTEX
  5
47
100
AcDbEntity
  8
0
370
     0
390
0
100
AcDbVertex
100
AcDb2dVertex
 10
8.017528
 20
0.582038
 30
0.0
  0
VERTEX
  5
48
100
AcDbEntity
  8
0
370
     0
390
0
100
AcDbVertex
100
AcDb2dVertex
 10
8.01683
 20
0.580272
 30
0.0
  0
VERTEX
  5
49
100
AcDbEntity
  8
0
370
     0
390
0
100
AcDbVertex
100
AcDb2dVertex
 10
8.016143
 20
0.578438
 30
0.0
  0
VERTEX
  5
4A
100
AcDbEntity
  8
0
370
     0
390
0
100
AcDbVertex
100
AcDb2dVertex
 10
8.015467
 20
0.576534
 30
0.0
  0
VERTEX
  5
4B
100
AcDbEntity
  8
0
370
     0
390
0
100
AcDbVertex
100
AcDb2dVertex
 10
8.014802
 20
0.574562
 30
0.0
  0
VERTEX
  5
4C
100
AcDbEntity
  8
0
370
     0
390
0
100
AcDbVertex
100
AcDb2dVertex
 10
8.014147
 20
0.572519
 30
0.0
  0
VERTEX
  5
4D
100
AcDbEntity
  8
0
370
     0
390
0
100
AcDbVertex
100
AcDb2dVertex
 10
8.012525
 20
0.574142
 30
0.0
  0
VERTEX
  5
4E
100
AcDbEntity
  8
0
370
     0
390
0
100
AcDbVertex
100
AcDb2dVertex
 10
8.011871
 20
0.576531
 30
0.0
  0
VERTEX
  5
4F
100
AcDbEntity
  8
0
370
     0
390
0
100
AcDbVertex
100
AcDb2dVertex
 10
8.011163
 20
0.578771
 30
0.0
  0
VERTEX
  5
50
100
AcDbEntity
  8
0
370
     0
390
0
100
AcDbVertex
100
AcDb2dVertex
 10
8.010404
 20
0.580859
 30
0.0
  0
VERTEX
  5
51
100
AcDbEntity
  8
0
370
     0
390
0
100
AcDbVertex
100
AcDb2dVertex
 10
8.009591
 20
0.582795
 30
0.0
  0
VERTEX
  5
52
100
AcDbEntity
  8
0
370
     0
390
0
100
AcDbVertex
100
AcDb2dVertex
 10
8.008726
 20
0.584579
 30
0.0
  0
VERTEX
  5
53
100
AcDbEntity
  8
0
370
     0
390
0
100
AcDbVertex
100
AcDb2dVertex
 10
8.007806
 20
0.586212
 30
0.0
  0
VERTEX
  5
54
100
AcDbEntity
  8
0
370
     0
390
0
100
AcDbVertex
100
AcDb2dVertex
 10
8.006836
 20
0.587694
 30
0.0
  0
VERTEX
  5
55
100
AcDbEntity
  8
0
370
     0
390
0
100
AcDbVertex
100
AcDb2dVertex
 10
8.00581
 20
0.589025
 30
0.0
  0
VERTEX
  5
56
100
AcDbEntity
  8
0
370
     0
390
0
100
AcDbVertex
100
AcDb2dVertex
 10
8.004733
 20
0.590204
 30
0.0
  0
VERTEX
  5
57
100
AcDbEntity
  8
0
370
     0
390
0
100
AcDbVertex
100
AcDb2dVertex
 10
8.003601
 20
0.591231
 30
0.0
  0
VERTEX
  5
58
100
AcDbEntity
  8
0
370
     0
390
0
100
AcDbVertex
100
AcDb2dVertex
 10
8.002384
 20
0.592136
 30
0.0
  0
VERTEX
  5
59
100
AcDbEntity
  8
0
370
     0
390
0
100
AcDbVertex
100
AcDb2dVertex
 10
8.001043
 20
0.592944
 30
0.0
  0
VERTEX
  5
5A
100
AcDbEntity
  8
0
370
     0
390
0
100
AcDbVertex
100
AcDb2dVertex
 10
7.99958
 20
0.593658
 30
0.0
  0
VERTEX
  5
5B
100
AcDbEntity
  8
0
370
     0
390
0
100
AcDbVertex
100
AcDb2dVertex
 10
7.997995
 20
0.594276
 30
0.0
  0
VERTEX
  5
5C
100
AcDbEntity
  8
0
370
     0
390
0
100
AcDbVertex
100
AcDb2dVertex
 10
7.996287
 20
0.5948
 30
0.0
  0
VERTEX
  5
5D
100
AcDbEntity
  8
0
370
     0
390
0
100
AcDbVertex
100
AcDb2dVertex
 10
7.994457
 20
0.595229
 30
0.0
  0
VERTEX
  5
5E
100
AcDbEntity
  8
0
370
     0
390
0
100
AcDbVertex
100
AcDb2dVertex
 10
7.992506
 20
0.595562
 30
0.0
  0
VERTEX
  5
5F
100
AcDbEntity
  8
0
370
     0
390
0
100
AcDbVertex
100
AcDb2dVertex
 10
7.990431
 20
0.595799
 30
0.0
  0
VERTEX
  5
60
100
AcDbEntity
  8
0
370
     0
390
0
100
AcDbVertex
100
AcDb2dVertex
 10
7.988236
 20
0.595943
 30
0.0
  0
VERTEX
  5
61
100
AcDbEntity
  8
0
370
     0
390
0
100
AcDbVertex
100
AcDb2dVertex
 10
7.985918
 20
0.595991
 30
0.0
  0
VERTEX
  5
62
100
AcDbEntity
  8
0
370
     0
390
0
100
AcDbVertex
100
AcDb2dVertex
 10
7.983971
 20
0.595973
 30
0.0
  0
VERTEX
  5
63
100
AcDbEntity
  8
0
370
     0
390
0
100
AcDbVertex
100
AcDb2dVertex
 10
7.982024
 20
0.59592
 30
0.0
  0
VERTEX
  5
64
100
AcDbEntity
  8
0
370
     0
390
0
100
AcDbVertex
100
AcDb2dVertex
 10
7.980077
 20
0.595835
 30
0.0
  0
VERTEX
  5
65
100
AcDbEntity
  8
0
370
     0
390
0
100
AcDbVertex
100
AcDb2dVertex
 10
7.97813
 20
0.595713
 30
0.0
  0
VERTEX
  5
66
100
AcDbEntity
  8
0
370
     0
390
0
100
AcDbVertex
100
AcDb2dVertex
 10
7.976183
 20
0.595557
 30
0.0
  0
VERTEX
  5
67
100
AcDbEntity
  8
0
370
     0
390
0
100
AcDbVertex
100
AcDb2dVertex
 10
7.974885
 20
0.478313
 30
0.0
  0
VERTEX
  5
68
100
AcDbEntity
  8
0
370
     0
390
0
100
AcDbVertex
100
AcDb2dVertex
 10
7.987647
 20
0.466523
 30
0.0
  0
VERTEX
  5
69
100
AcDbEntity
  8
0
370
     0
390
0
100
AcDbVertex
100
AcDb2dVertex
 10
7.93822
 20
0.466523
 30
0.0
  0
VERTEX
  5
6A
100
AcDbEntity
  8
0
370
     0
390
0
100
AcDbVertex
100
AcDb2dVertex
 10
7.953361
 20
0.479178
 30
0.0
  0
VERTEX
  5
6B
100
AcDbEntity
  8
0
370
     0
390
0
100
AcDbVertex
100
AcDb2dVertex
 10
7.953361
 20
0.586796
 30
0.0
  0
VERTEX
  5
6C
100
AcDbEntity
  8
0
370
     0
390
0
100
AcDbVertex
100
AcDb2dVertex
 10
7.945682
 20
0.586905
 30
0.0
  0
VERTEX
  5
6D
100
AcDbEntity
  8
0
370
     0
390
0
100
AcDbVertex
100
AcDb2dVertex
 10
7.943519
 20
0.58686
 30
0.0
  0
VERTEX
  5
6E
100
AcDbEntity
  8
0
370
     0
390
0
100
AcDbVertex
100
AcDb2dVertex
 10
7.941484
 20
0.58673
 30
0.0
  0
VERTEX
  5
6F
100
AcDbEntity
  8
0
370
     0
390
0
100
AcDbVertex
100
AcDb2dVertex
 10
7.939577
 20
0.586511
 30
0.0
  0
VERTEX
  5
70
100
AcDbEntity
  8
0
370
     0
390
0
100
AcDbVertex
100
AcDb2dVertex
 10
7.937799
 20
0.586203
 30
0.0
  0
VERTEX
  5
71
100
AcDbEntity
  8
0
370
     0
390
0
100
AcDbVertex
100
AcDb2dVertex
 10
7.936151
 20
0.585809
 30
0.0
  0
VERTEX
  5
72
100
AcDbEntity
  8
0
370
     0
390
0
100
AcDbVertex
100
AcDb2dVertex
 10
7.93463
 20
0.585327
 30
0.0
  0
VERTEX
  5
73
100
AcDbEntity
  8
0
370
     0
390
0
100
AcDbVertex
100
AcDb2dVertex
 10
7.93324
 20
0.584759
 30
0.0
  0
VERTEX
  5
74
100
AcDbEntity
  8
0
370
     0
390
0
100
AcDbVertex
100
AcDb2dVertex
 10
7.930843
 20
0.583356
 30
0.0
  0
VERTEX
  5
75
100
AcDbEntity
  8
0
370
     0
390
0
100
AcDbVertex
100
AcDb2dVertex
 10
7.928935
 20
0.581582
 30
0.0
  0
VERTEX
  5
76
100
AcDbEntity
  8
0
370
     0
390
0
100
AcDbVertex
100
AcDb2dVertex
 10
7.92736
 20
0.579297
 30
0.0
  0
VERTEX
  5
77
100
AcDbEntity
  8
0
370
     0
390
0
100
AcDbVertex
100
AcDb2dVertex
 10
7.926092
 20
0.57648
 30
0.0
  0
VERTEX
  5
78
100
AcDbEntity
  8
0
370
     0
390
0
100
AcDbVertex
100
AcDb2dVertex
 10
7.925573
 20
0.574872
 30
0.0
  0
VERTEX
  5
79
100
AcDbEntity
  8
0
370
     0
390
0
100
AcDbVertex
100
AcDb2dVertex
 10
7.92513
 20
0.573132
 30
0.0
  0
VERTEX
  5
7A
100
AcDbEntity
  8
0
370
     0
390
0
100
AcDbVertex
100
AcDb2dVertex
 10
7.924766
 20
0.571259
 30
0.0
  0
VERTEX
  5
7B
100
AcDbEntity
  8
0
370
     0
390
0
100
AcDbVertex
100
AcDb2dVertex
 10
7.924478
 20
0.569252
 30
0.0
  0
VERTEX
  5
7C
100
AcDbEntity
  8
0
370
     0
390
0
100
AcDbVertex
100
AcDb2dVertex
 10
7.924266
 20
0.567111
 30
0.0
  0
VERTEX
  5
7D
100
AcDbEntity
  8
0
370
     0
390
0
100
AcDbVertex
100
AcDb2dVertex
 10
7.921454
 20
0.567111
 30
0.0
  0
VERTEX
  5
7E
100
AcDbEntity
  8
0
370
     0
390
0
100
AcDbVertex
100
AcDb2dVertex
 10
7.921734
 20
0.569565
 30
0.0
  0
VERTEX
  5
7F
100
AcDbEntity
  8
0
370
     0
390
0
100
AcDbVertex
100
AcDb2dVertex
 10
7.922096
 20
0.571866
 30
0.0
  0
VERTEX
  5
80
100
AcDbEntity
  8
0
370
     0
390
0
100
AcDbVertex
100
AcDb2dVertex
 10
7.922543
 20
0.574013
 30
0.0
  0
VERTEX
  5
81
100
AcDbEntity
  8
0
370
     0
390
0
100
AcDbVertex
100
AcDb2dVertex
 10
7.923073
 20
0.576006
 30
0.0
  0
VERTEX
  5
82
100
AcDbEntity
  8
0
370
     0
390
0
100
AcDbVertex
100
AcDb2dVertex
 10
7.923684
 20
0.577847
 30
0.0
  0
VERTEX
  5
83
100
AcDbEntity
  8
0
370
     0
390
0
100
AcDbVertex
100
AcDb2dVertex
 10
7.924381
 20
0.579533
 30
0.0
  0
VERTEX
  5
84
100
AcDbEntity
  8
0
370
     0
390
0
100
AcDbVertex
100
AcDb2dVertex
 10
7.92516
 20
0.581064
 30
0.0
  0
VERTEX
  5
85
100
AcDbEntity
  8
0
370
     0
390
0
100
AcDbVertex
100
AcDb2dVertex
 10
7.926023
 20
0.582444
 30
0.0
  0
VERTEX
  5
86
100
AcDbEntity
  8
0
370
     0
390
0
100
AcDbVertex
100
AcDb2dVertex
 10
7.926968
 20
0.58367
 30
0.0
  0
VERTEX
  5
87
100
AcDbEntity
  8
0
370
     0
390
0
100
AcDbVertex
100
AcDb2dVertex
 10
7.929138
 20
0.585687
 30
0.0
  0
VERTEX
  5
88
100
AcDbEntity
  8
0
370
     0
390
0
100
AcDbVertex
100
AcDb2dVertex
 10
7.930418
 20
0.586532
 30
0.0
  0
VERTEX
  5
89
100
AcDbEntity
  8
0
370
     0
390
0
100
AcDbVertex
100
AcDb2dVertex
 10
7.931839
 20
0.587279
 30
0.0
  0
VERTEX
  5
8A
100
AcDbEntity
  8
0
370
     0
390
0
100
AcDbVertex
100
AcDb2dVertex
 10
7.933397
 20
0.587925
 30
0.0
  0
VERTEX
  5
8B
100
AcDbEntity
  8
0
370
     0
390
0
100
AcDbVertex
100
AcDb2dVertex
 10
7.935095
 20
0.588473
 30
0.0
  0
VERTEX
  5
8C
100
AcDbEntity
  8
0
370
     0
390
0
100
AcDbVertex
100
AcDb2dVertex
 10
7.936934
 20
0.588921
 30
0.0
  0
VERTEX
  5
8D
100
AcDbEntity
  8
0
370
     0
390
0
100
AcDbVertex
100
AcDb2dVertex
 10
7.938912
 20
0.589269
 30
0.0
  0
VERTEX
  5
8E
100
AcDbEntity
  8
0
370
     0
390
0
100
AcDbVertex
100
AcDb2dVertex
 10
7.941029
 20
0.589518
 30
0.0
  0
VERTEX
  5
8F
100
AcDbEntity
  8
0
370
     0
390
0
100
AcDbVertex
100
AcDb2dVertex
 10
7.943286
 20
0.589667
 30
0.0
  0
VERTEX
  5
90
100
AcDbEntity
  8
0
370
     0
390
0
100
AcDbVertex
100
AcDb2dVertex
 10
7.945682
 20
0.589716
 30
0.0
  0
VERTEX
  5
91
100
AcDbEntity
  8
0
370
     0
390
0
100
AcDbVertex
100
AcDb2dVertex
 10
7.952171
 20
0.589608
 30
0.0
  0
VERTEX
  5
92
100
AcDbEntity
  8
0
370
     0
390
0
100
AcDbVertex
100
AcDb2dVertex
 10
7.953361
 20
0.594908
 30
0.0
  0
VERTEX
  5
93
100
AcDbEntity
  8
0
370
     0
390
0
100
AcDbVertex
100
AcDb2dVertex
 10
7.951177
 20
0.595142
 30
0.0
  0
VERTEX
  5
94
100
AcDbEntity
  8
0
370
     0
390
0
100
AcDbVertex
100
AcDb2dVertex
 10
7.949034
 20
0.595323
 30
0.0
  0
VERTEX
  5
95
100
AcDbEntity
  8
0
370
     0
390
0
100
AcDbVertex
100
AcDb2dVertex
 10
7.946936
 20
0.595454
 30
0.0
  0
VERTEX
  5
96
100
AcDbEntity
  8
0
370
     0
390
0
100
AcDbVertex
100
AcDb2dVertex
 10
7.944881
 20
0.595532
 30
0.0
  0
VERTEX
  5
97
100
AcDbEntity
  8
0
370
     0
390
0
100
AcDbVertex
100
AcDb2dVertex
 10
7.94287
 20
0.595557
 30
0.0
  0
VERTEX
  5
98
100
AcDbEntity
  8
0
370
     0
390
0
100
AcDbVertex
100
AcDb2dVertex
 10
7.940158
 20
0.5955
 30
0.0
  0
VERTEX
  5
99
100
AcDbEntity
  8
0
370
     0
390
0
100
AcDbVertex
100
AcDb2dVertex
 10
7.9376
 20
0.595331
 30
0.0
  0
VERTEX
  5
9A
100
AcDbEntity
  8
0
370
     0
390
0
100
AcDbVertex
100
AcDb2dVertex
 10
7.9352
 20
0.595046
 30
0.0
  0
VERTEX
  5
9B
100
AcDbEntity
  8
0
370
     0
390
0
100
AcDbVertex
100
AcDb2dVertex
 10
7.932953
 20
0.594648
 30
0.0
  0
VERTEX
  5
9C
100
AcDbEntity
  8
0
370
     0
390
0
100
AcDbVertex
100
AcDb2dVertex
 10
7.930864
 20
0.594138
 30
0.0
  0
VERTEX
  5
9D
100
AcDbEntity
  8
0
370
     0
390
0
100
AcDbVertex
100
AcDb2dVertex
 10
7.92893
 20
0.593513
 30
0.0
  0
VERTEX
  5
9E
100
AcDbEntity
  8
0
370
     0
390
0
100
AcDbVertex
100
AcDb2dVertex
 10
7.927152
 20
0.592775
 30
0.0
  0
VERTEX
  5
9F
100
AcDbEntity
  8
0
370
     0
390
0
100
AcDbVertex
100
AcDb2dVertex
 10
7.92553
 20
0.591923
 30
0.0
  0
VERTEX
  5
A0
100
AcDbEntity
  8
0
370
     0
390
0
100
AcDbVertex
100
AcDb2dVertex
 10
7.924063
 20
0.590958
 30
0.0
  0
VERTEX
  5
A1
100
AcDbEntity
  8
0
370
     0
390
0
100
AcDbVertex
100
AcDb2dVertex
 10
7.922751
 20
0.58988
 30
0.0
  0
VERTEX
  5
A2
100
AcDbEntity
  8
0
370
     0
390
0
100
AcDbVertex
100
AcDb2dVertex
 10
7.921574
 20
0.588665
 30
0.0
  0
VERTEX
  5
A3
100
AcDbEntity
  8
0
370
     0
390
0
100
AcDbVertex
100
AcDb2dVertex
 10
7.920506
 20
0.587294
 30
0.0
  0
VERTEX
  5
A4
100
AcDbEntity
  8
0
370
     0
390
0
100
AcDbVertex
100
AcDb2dVertex
 10
7.919549
 20
0.585767
 30
0.0
  0
VERTEX
  5
A5
100
AcDbEntity
  8
0
370
     0
390
0
100
AcDbVertex
100
AcDb2dVertex
 10
7.918703
 20
0.584081
 30
0.0
  0
VERTEX
  5
A6
100
AcDbEntity
  8
0
370
     0
390
0
100
AcDbVertex
100
AcDb2dVertex
 10
7.917966
 20
0.58224
 30
0.0
  0
VERTEX
  5
A7
100
AcDbEntity
  8
0
370
     0
390
0
100
AcDbVertex
100
AcDb2dVertex
 10
7.917339
 20
0.580242
 30
0.0
  0
VERTEX
  5
A8
100
AcDbEntity
  8
0
370
     0
390
0
100
AcDbVertex
100
AcDb2dVertex
 10
7.916824
 20
0.578087
 30
0.0
  0
VERTEX
  5
A9
100
AcDbEntity
  8
0
370
     0
390
0
100
AcDbVertex
100
AcDb2dVertex
 10
7.916418
 20
0.575775
 30
0.0
  0
VERTEX
  5
AA
100
AcDbEntity
  8
0
370
     0
390
0
100
AcDbVertex
100
AcDb2dVertex
 10
7.916123
 20
0.573306
 30
0.0
  0
VERTEX
  5
AB
100
AcDbEntity
  8
0
370
     0
390
0
100
AcDbVertex
100
AcDb2dVertex
 10
7.915938
 20
0.570681
 30
0.0
  0
VERTEX
  5
AC
100
AcDbEntity
  8
0
370
     0
390
0
100
AcDbVertex
100
AcDb2dVertex
 10
7.913659
 20
0.573722
 30
0.0
  0
VERTEX
  5
AD
100
AcDbEntity
  8
0
370
     0
390
0
100
AcDbVertex
100
AcDb2dVertex
 10
7.912577
 20
0.576833
 30
0.0
  0
VERTEX
  5
AE
100
AcDbEntity
  8
0
370
     0
390
0
100
AcDbVertex
100
AcDb2dVertex
 10
7.911392
 20
0.580013
 30
0.0
  0
VERTEX
  5
AF
100
AcDbEntity
  8
0
370
     0
390
0
100
AcDbVertex
100
AcDb2dVertex
 10
7.910106
 20
0.583262
 30
0.0
  0
VERTEX
  5
B0
100
AcDbEntity
  8
0
370
     0
390
0
100
AcDbVertex
100
AcDb2dVertex
 10
7.908719
 20
0.58658
 30
0.0
  0
VERTEX
  5
B1
100
AcDbEntity
  8
0
370
     0
390
0
100
AcDbVertex
100
AcDb2dVertex
 10
7.907229
 20
0.589967
 30
0.0
  0
VERTEX
  5
B2
100
AcDbEntity
  8
0
370
     0
390
0
100
AcDbVertex
100
AcDb2dVertex
 10
7.905638
 20
0.593424
 30
0.0
  0
VERTEX
  5
B3
100
AcDbEntity
  8
0
370
     0
390
0
100
AcDbVertex
100
AcDb2dVertex
 10
7.903945
 20
0.596951
 30
0.0
  0
VERTEX
  5
B4
100
AcDbEntity
  8
0
370
     0
390
0
100
AcDbVertex
100
AcDb2dVertex
 10
7.902151
 20
0.600546
 30
0.0
  0
VERTEX
  5
B5
100
AcDbEntity
  8
0
370
     0
390
0
100
AcDbVertex
100
AcDb2dVertex
 10
7.900255
 20
0.604209
 30
0.0
  0
SEQEND
  5
B6
100
AcDbEntity
  8
0
370
     0
390
0
  0
POLYLINE
  5
B7
100
AcDbEntity
  8
0
370
    13
390
0
 62
     7
 48
0.03937
100
AcDb2dPolyline
 66
     1
 10
0.0
 20
0.0
 30
0.0
 70
     1
 71
    22
  0
VERTEX
  5
B8
100
AcDbEntity
  8
0
370
     0
390
0
100
AcDbVertex
100
AcDb2dVertex
 10
8.036644
 20
0.598478
 30
0.0
  0
VERTEX
  5
B9
100
AcDbEntity
  8
0
370
     0
390
0
100
AcDbVertex
100
AcDb2dVertex
 10
8.035144
 20
0.596448
 30
0.0
  0
VERTEX
  5
BA
100
AcDbEntity
  8
0
370
     0
390
0
100
AcDbVertex
100
AcDb2dVertex
 10
8.033629
 20
0.594168
 30
0.0
  0
VERTEX
  5
BB
100
AcDbEntity
  8
0
370
     0
390
0
100
AcDbVertex
100
AcDb2dVertex
 10
8.032099
 20
0.591638
 30
0.0
  0
VERTEX
  5
BC
100
AcDbEntity
  8
0
370
     0
390
0
100
AcDbVertex
100
AcDb2dVertex
 10
8.030552
 20
0.588855
 30
0.0
  0
VERTEX
  5
BD
100
AcDbEntity
  8
0
370
     0
390
0
100
AcDbVertex
100
AcDb2dVertex
 10
8.028992
 20
0.585822
 30
0.0
  0
VERTEX
  5
BE
100
AcDbEntity
  8
0
370
     0
390
0
100
AcDbVertex
100
AcDb2dVertex
 10
8.027416
 20
0.582539
 30
0.0
  0
VERTEX
  5
BF
100
AcDbEntity
  8
0
370
     0
390
0
100
AcDbVertex
100
AcDb2dVertex
 10
8.025824
 20
0.579005
 30
0.0
  0
VERTEX
  5
C0
100
AcDbEntity
  8
0
370
     0
390
0
100
AcDbVertex
100
AcDb2dVertex
 10
8.024219
 20
0.575219
 30
0.0
  0
VERTEX
  5
C1
100
AcDbEntity
  8
0
370
     0
390
0
100
AcDbVertex
100
AcDb2dVertex
 10
8.022597
 20
0.571182
 30
0.0
  0
VERTEX
  5
C2
100
AcDbEntity
  8
0
370
     0
390
0
100
AcDbVertex
100
AcDb2dVertex
 10
8.020961
 20
0.566895
 30
0.0
  0
VERTEX
  5
C3
100
AcDbEntity
  8
0
370
     0
390
0
100
AcDbVertex
100
AcDb2dVertex
 10
8.018149
 20
0.567869
 30
0.0
  0
VERTEX
  5
C4
100
AcDbEntity
  8
0
370
     0
390
0
100
AcDbVertex
100
AcDb2dVertex
 10
8.020069
 20
0.573183
 30
0.0
  0
VERTEX
  5
C5
100
AcDbEntity
  8
0
370
     0
390
0
100
AcDbVertex
100
AcDb2dVertex
 10
8.021652
 20
0.577253
 30
0.0
  0
VERTEX
  5
C6
100
AcDbEntity
  8
0
370
     0
390
0
100
AcDbVertex
100
AcDb2dVertex
 10
8.023227
 20
0.581049
 30
0.0
  0
VERTEX
  5
C7
100
AcDbEntity
  8
0
370
     0
390
0
100
AcDbVertex
100
AcDb2dVertex
 10
8.024791
 20
0.584573
 30
0.0
  0
VERTEX
  5
C8
100
AcDbEntity
  8
0
370
     0
390
0
100
AcDbVertex
100
AcDb2dVertex
 10
8.026342
 20
0.587825
 30
0.0
  0
VERTEX
  5
C9
100
AcDbEntity
  8
0
370
     0
390
0
100
AcDbVertex
100
AcDb2dVertex
 10
8.027884
 20
0.590802
 30
0.0
  0
VERTEX
  5
CA
100
AcDbEntity
  8
0
370
     0
390
0
100
AcDbVertex
100
AcDb2dVertex
 10
8.029413
 20
0.593508
 30
0.0
  0
VERTEX
  5
CB
100
AcDbEntity
  8
0
370
     0
390
0
100
AcDbVertex
100
AcDb2dVertex
 10
8.030933
 20
0.595943
 30
0.0
  0
VERTEX
  5
CC
100
AcDbEntity
  8
0
370
     0
390
0
100
AcDbVertex
100
AcDb2dVertex
 10
8.032442
 20
0.598104
 30
0.0
  0
VERTEX
  5
CD
100
AcDbEntity
  8
0
370
     0
390
0
100
AcDbVertex
100
AcDb2dVertex
 10
8.03394
 20
0.599991
 30
0.0
  0
SEQEND
  5
CE
100
AcDbEntity
  8
0
370
     0
390
0
  0
POLYLINE
  5
CF
100
AcDbEntity
  8
0
370
    13
390
0
 62
     7
 48
0.03937
100
AcDb2dPolyline
 66
     1
 10
0.0
 20
0.0
 30
0.0
 70
     1
 71
    34
  0
VERTEX
  5
D0
100
AcDbEntity
  8
0
370
     0
390
0
100
AcDbVertex
100
AcDb2dVertex
 10
8.007766
 20
0.581604
 30
0.0
  0
VERTEX
  5
D1
100
AcDbEntity
  8
0
370
     0
390
0
100
AcDbVertex
100
AcDb2dVertex
 10
8.006072
 20
0.582632
 30
0.0
  0
VERTEX
  5
D2
100
AcDbEntity
  8
0
370
     0
390
0
100
AcDbVertex
100
AcDb2dVertex
 10
8.004322
 20
0.583551
 30
0.0
  0
VERTEX
  5
D3
100
AcDbEntity
  8
0
370
     0
390
0
100
AcDbVertex
100
AcDb2dVertex
 10
8.002516
 20
0.584363
 30
0.0
  0
VERTEX
  5
D4
100
AcDbEntity
  8
0
370
     0
390
0
100
AcDbVertex
100
AcDb2dVertex
 10
8.000652
 20
0.585066
 30
0.0
  0
VERTEX
  5
D5
100
AcDbEntity
  8
0
370
     0
390
0
100
AcDbVertex
100
AcDb2dVertex
 10
7.998734
 20
0.58566
 30
0.0
  0
VERTEX
  5
D6
100
AcDbEntity
  8
0
370
     0
390
0
100
AcDbVertex
100
AcDb2dVertex
 10
7.996758
 20
0.586148
 30
0.0
  0
VERTEX
  5
D7
100
AcDbEntity
  8
0
370
     0
390
0
100
AcDbVertex
100
AcDb2dVertex
 10
7.994728
 20
0.586526
 30
0.0
  0
VERTEX
  5
D8
100
AcDbEntity
  8
0
370
     0
390
0
100
AcDbVertex
100
AcDb2dVertex
 10
7.992641
 20
0.586796
 30
0.0
  0
VERTEX
  5
D9
100
AcDbEntity
  8
0
370
     0
390
0
100
AcDbVertex
100
AcDb2dVertex
 10
7.990496
 20
0.586959
 30
0.0
  0
VERTEX
  5
DA
100
AcDbEntity
  8
0
370
     0
390
0
100
AcDbVertex
100
AcDb2dVertex
 10
7.988297
 20
0.587013
 30
0.0
  0
VERTEX
  5
DB
100
AcDbEntity
  8
0
370
     0
390
0
100
AcDbVertex
100
AcDb2dVertex
 10
7.986785
 20
0.586983
 30
0.0
  0
VERTEX
  5
DC
100
AcDbEntity
  8
0
370
     0
390
0
100
AcDbVertex
100
AcDb2dVertex
 10
7.985234
 20
0.586896
 30
0.0
  0
VERTEX
  5
DD
100
AcDbEntity
  8
0
370
     0
390
0
100
AcDbVertex
100
AcDb2dVertex
 10
7.983644
 20
0.586751
 30
0.0
  0
VERTEX
  5
DE
100
AcDbEntity
  8
0
370
     0
390
0
100
AcDbVertex
100
AcDb2dVertex
 10
7.983538
 20
0.477987
 30
0.0
  0
VERTEX
  5
DF
100
AcDbEntity
  8
0
370
     0
390
0
100
AcDbVertex
100
AcDb2dVertex
 10
8.000735
 20
0.457653
 30
0.0
  0
VERTEX
  5
E0
100
AcDbEntity
  8
0
370
     0
390
0
100
AcDbVertex
100
AcDb2dVertex
 10
7.945466
 20
0.457653
 30
0.0
  0
VERTEX
  5
E1
100
AcDbEntity
  8
0
370
     0
390
0
100
AcDbVertex
100
AcDb2dVertex
 10
7.942978
 20
0.460574
 30
0.0
  0
VERTEX
  5
E2
100
AcDbEntity
  8
0
370
     0
390
0
100
AcDbVertex
100
AcDb2dVertex
 10
7.994786
 20
0.460574
 30
0.0
  0
VERTEX
  5
E3
100
AcDbEntity
  8
0
370
     0
390
0
100
AcDbVertex
100
AcDb2dVertex
 10
7.980293
 20
0.477123
 30
0.0
  0
VERTEX
  5
E4
100
AcDbEntity
  8
0
370
     0
390
0
100
AcDbVertex
100
AcDb2dVertex
 10
7.980293
 20
0.589826
 30
0.0
  0
VERTEX
  5
E5
100
AcDbEntity
  8
0
370
     0
390
0
100
AcDbVertex
100
AcDb2dVertex
 10
7.986134
 20
0.589934
 30
0.0
  0
VERTEX
  5
E6
100
AcDbEntity
  8
0
370
     0
390
0
100
AcDbVertex
100
AcDb2dVertex
 10
7.988171
 20
0.589916
 30
0.0
  0
VERTEX
  5
E7
100
AcDbEntity
  8
0
370
     0
390
0
100
AcDbVertex
100
AcDb2dVertex
 10
7.990086
 20
0.589866
 30
0.0
  0
VERTEX
  5
E8
100
AcDbEntity
  8
0
370
     0
390
0
100
AcDbVertex
100
AcDb2dVertex
 10
7.991879
 20
0.589782
 30
0.0
  0
VERTEX
  5
E9
100
AcDbEntity
  8
0
370
     0
390
0
100
AcDbVertex
100
AcDb2dVertex
 10
7.993549
 20
0.589665
 30
0.0
  0
VERTEX
  5
EA
100
AcDbEntity
  8
0
370
     0
390
0
100
AcDbVertex
100
AcDb2dVertex
 10
7.995098
 20
0.589514
 30
0.0
  0
VERTEX
  5
EB
100
AcDbEntity
  8
0
370
     0
390
0
100
AcDbVertex
100
AcDb2dVertex
 10
7.997828
 20
0.589112
 30
0.0
  0
VERTEX
  5
EC
100
AcDbEntity
  8
0
370
     0
390
0
100
AcDbVertex
100
AcDb2dVertex
 10
8.000069
 20
0.588575
 30
0.0
  0
VERTEX
  5
ED
100
AcDbEntity
  8
0
370
     0
390
0
100
AcDbVertex
100
AcDb2dVertex
 10
8.001862
 20
0.587888
 30
0.0
  0
VERTEX
  5
EE
100
AcDbEntity
  8
0
370
     0
390
0
100
AcDbVertex
100
AcDb2dVertex
 10
8.003455
 20
0.586953
 30
0.0
  0
VERTEX
  5
EF
100
AcDbEntity
  8
0
370
     0
390
0
100
AcDbVertex
100
AcDb2dVertex
 10
8.004886
 20
0.585755
 30
0.0
  0
VERTEX
  5
F0
100
AcDbEntity
  8
0
370
     0
390
0
100
AcDbVertex
100
AcDb2dVertex
 10
8.006157
 20
0.584294
 30
0.0
  0
VERTEX
  5
F1
100
AcDbEntity
  8
0
370
     0
390
0
100
AcDbVertex
100
AcDb2dVertex
 10
8.007269
 20
0.582567
 30
0.0
  0
SEQEND
  5
F2
100
AcDbEntity
  8
0
370
     0
390
0
  0
POLYLINE
  5
F3
100
AcDbEntity
  8
0
370
    13
390
0
 62
     7
 48
0.03937
100
AcDb2dPolyline
 66
     1
 10
0.0
 20
0.0
 30
0.0
 70
     1
 71
   138
  0
VERTEX
  5
F4
100
AcDbEntity
  8
0
370
     0
390
0
100
AcDbVertex
100
AcDb2dVertex
 10
8.03978
 20
0.605292
 30
0.0
  0
VERTEX
  5
F5
100
AcDbEntity
  8
0
370
     0
390
0
100
AcDbVertex
100
AcDb2dVertex
 10
8.152051
 20
0.605292
 30
0.0
  0
VERTEX
  5
F6
100
AcDbEntity
  8
0
370
     0
390
0
100
AcDbVertex
100
AcDb2dVertex
 10
8.150747
 20
0.603555
 30
0.0
  0
VERTEX
  5
F7
100
AcDbEntity
  8
0
370
     0
390
0
100
AcDbVertex
100
AcDb2dVertex
 10
8.149522
 20
0.601895
 30
0.0
  0
VERTEX
  5
F8
100
AcDbEntity
  8
0
370
     0
390
0
100
AcDbVertex
100
AcDb2dVertex
 10
8.148372
 20
0.600311
 30
0.0
  0
VERTEX
  5
F9
100
AcDbEntity
  8
0
370
     0
390
0
100
AcDbVertex
100
AcDb2dVertex
 10
8.1473
 20
0.598802
 30
0.0
  0
VERTEX
  5
FA
100
AcDbEntity
  8
0
370
     0
390
0
100
AcDbVertex
100
AcDb2dVertex
 10
8.146304
 20
0.597369
 30
0.0
  0
VERTEX
  5
FB
100
AcDbEntity
  8
0
370
     0
390
0
100
AcDbVertex
100
AcDb2dVertex
 10
8.145386
 20
0.596012
 30
0.0
  0
VERTEX
  5
FC
100
AcDbEntity
  8
0
370
     0
390
0
100
AcDbVertex
100
AcDb2dVertex
 10
8.144543
 20
0.594729
 30
0.0
  0
VERTEX
  5
FD
100
AcDbEntity
  8
0
370
     0
390
0
100
AcDbVertex
100
AcDb2dVertex
 10
8.143089
 20
0.592394
 30
0.0
  0
VERTEX
  5
FE
100
AcDbEntity
  8
0
370
     0
390
0
100
AcDbVertex
100
AcDb2dVertex
 10
8.14189
 20
0.590261
 30
0.0
  0
VERTEX
  5
FF
100
AcDbEntity
  8
0
370
     0
390
0
100
AcDbVertex
100
AcDb2dVertex
 10
8.140617
 20
0.587735
 30
0.0
  0
VERTEX
  5
100
100
AcDbEntity
  8
0
370
     0
390
0
100
AcDbVertex
100
AcDb2dVertex
 10
8.139935
 20
0.586286
 30
0.0
  0
VERTEX
  5
101
100
AcDbEntity
  8
0
370
     0
390
0
100
AcDbVertex
100
AcDb2dVertex
 10
8.13922
 20
0.584714
 30
0.0
  0
VERTEX
  5
102
100
AcDbEntity
  8
0
370
     0
390
0
100
AcDbVertex
100
AcDb2dVertex
 10
8.138474
 20
0.583019
 30
0.0
  0
VERTEX
  5
103
100
AcDbEntity
  8
0
370
     0
390
0
100
AcDbVertex
100
AcDb2dVertex
 10
8.137697
 20
0.581201
 30
0.0
  0
VERTEX
  5
104
100
AcDbEntity
  8
0
370
     0
390
0
100
AcDbVertex
100
AcDb2dVertex
 10
8.136889
 20
0.57926
 30
0.0
  0
VERTEX
  5
105
100
AcDbEntity
  8
0
370
     0
390
0
100
AcDbVertex
100
AcDb2dVertex
 10
8.136049
 20
0.577196
 30
0.0
  0
VERTEX
  5
106
100
AcDbEntity
  8
0
370
     0
390
0
100
AcDbVertex
100
AcDb2dVertex
 10
8.135177
 20
0.575007
 30
0.0
  0
VERTEX
  5
107
100
AcDbEntity
  8
0
370
     0
390
0
100
AcDbVertex
100
AcDb2dVertex
 10
8.134311
 20
0.572844
 30
0.0
  0
VERTEX
  5
108
100
AcDbEntity
  8
0
370
     0
390
0
100
AcDbVertex
100
AcDb2dVertex
 10
8.132887
 20
0.575682
 30
0.0
  0
VERTEX
  5
109
100
AcDbEntity
  8
0
370
     0
390
0
100
AcDbVertex
100
AcDb2dVertex
 10
8.131463
 20
0.578313
 30
0.0
  0
VERTEX
  5
10A
100
AcDbEntity
  8
0
370
     0
390
0
100
AcDbVertex
100
AcDb2dVertex
 10
8.130044
 20
0.580736
 30
0.0
  0
VERTEX
  5
10B
100
AcDbEntity
  8
0
370
     0
390
0
100
AcDbVertex
100
AcDb2dVertex
 10
8.128628
 20
0.582951
 30
0.0
  0
VERTEX
  5
10C
100
AcDbEntity
  8
0
370
     0
390
0
100
AcDbVertex
100
AcDb2dVertex
 10
8.127215
 20
0.584958
 30
0.0
  0
VERTEX
  5
10D
100
AcDbEntity
  8
0
370
     0
390
0
100
AcDbVertex
100
AcDb2dVertex
 10
8.125804
 20
0.586758
 30
0.0
  0
VERTEX
  5
10E
100
AcDbEntity
  8
0
370
     0
390
0
100
AcDbVertex
100
AcDb2dVertex
 10
8.124398
 20
0.58835
 30
0.0
  0
VERTEX
  5
10F
100
AcDbEntity
  8
0
370
     0
390
0
100
AcDbVertex
100
AcDb2dVertex
 10
8.122994
 20
0.589734
 30
0.0
  0
VERTEX
  5
110
100
AcDbEntity
  8
0
370
     0
390
0
100
AcDbVertex
100
AcDb2dVertex
 10
8.121594
 20
0.59091
 30
0.0
  0
VERTEX
  5
111
100
AcDbEntity
  8
0
370
     0
390
0
100
AcDbVertex
100
AcDb2dVertex
 10
8.120198
 20
0.591881
 30
0.0
  0
VERTEX
  5
112
100
AcDbEntity
  8
0
370
     0
390
0
100
AcDbVertex
100
AcDb2dVertex
 10
8.118707
 20
0.592701
 30
0.0
  0
VERTEX
  5
113
100
AcDbEntity
  8
0
370
     0
390
0
100
AcDbVertex
100
AcDb2dVertex
 10
8.117024
 20
0.593438
 30
0.0
  0
VERTEX
  5
114
100
AcDbEntity
  8
0
370
     0
390
0
100
AcDbVertex
100
AcDb2dVertex
 10
8.11515
 20
0.594086
 30
0.0
  0
VERTEX
  5
115
100
AcDbEntity
  8
0
370
     0
390
0
100
AcDbVertex
100
AcDb2dVertex
 10
8.113085
 20
0.594648
 30
0.0
  0
VERTEX
  5
116
100
AcDbEntity
  8
0
370
     0
390
0
100
AcDbVertex
100
AcDb2dVertex
 10
8.110827
 20
0.595125
 30
0.0
  0
VERTEX
  5
117
100
AcDbEntity
  8
0
370
     0
390
0
100
AcDbVertex
100
AcDb2dVertex
 10
8.108379
 20
0.595514
 30
0.0
  0
VERTEX
  5
118
100
AcDbEntity
  8
0
370
     0
390
0
100
AcDbVertex
100
AcDb2dVertex
 10
8.10574
 20
0.595817
 30
0.0
  0
VERTEX
  5
119
100
AcDbEntity
  8
0
370
     0
390
0
100
AcDbVertex
100
AcDb2dVertex
 10
8.102909
 20
0.596033
 30
0.0
  0
VERTEX
  5
11A
100
AcDbEntity
  8
0
370
     0
390
0
100
AcDbVertex
100
AcDb2dVertex
 10
8.099887
 20
0.596163
 30
0.0
  0
VERTEX
  5
11B
100
AcDbEntity
  8
0
370
     0
390
0
100
AcDbVertex
100
AcDb2dVertex
 10
8.096672
 20
0.596207
 30
0.0
  0
VERTEX
  5
11C
100
AcDbEntity
  8
0
370
     0
390
0
100
AcDbVertex
100
AcDb2dVertex
 10
8.090507
 20
0.596099
 30
0.0
  0
VERTEX
  5
11D
100
AcDbEntity
  8
0
370
     0
390
0
100
AcDbVertex
100
AcDb2dVertex
 10
8.080016
 20
0.596207
 30
0.0
  0
VERTEX
  5
11E
100
AcDbEntity
  8
0
370
     0
390
0
100
AcDbVertex
100
AcDb2dVertex
 10
8.076014
 20
0.596315
 30
0.0
  0
VERTEX
  5
11F
100
AcDbEntity
  8
0
370
     0
390
0
100
AcDbVertex
100
AcDb2dVertex
 10
8.076014
 20
0.545696
 30
0.0
  0
VERTEX
  5
120
100
AcDbEntity
  8
0
370
     0
390
0
100
AcDbVertex
100
AcDb2dVertex
 10
8.082612
 20
0.545696
 30
0.0
  0
VERTEX
  5
121
100
AcDbEntity
  8
0
370
     0
390
0
100
AcDbVertex
100
AcDb2dVertex
 10
8.082612
 20
0.590366
 30
0.0
  0
VERTEX
  5
122
100
AcDbEntity
  8
0
370
     0
390
0
100
AcDbVertex
100
AcDb2dVertex
 10
8.085749
 20
0.590474
 30
0.0
  0
VERTEX
  5
123
100
AcDbEntity
  8
0
370
     0
390
0
100
AcDbVertex
100
AcDb2dVertex
 10
8.088465
 20
0.590591
 30
0.0
  0
VERTEX
  5
124
100
AcDbEntity
  8
0
370
     0
390
0
100
AcDbVertex
100
AcDb2dVertex
 10
8.091251
 20
0.590682
 30
0.0
  0
VERTEX
  5
125
100
AcDbEntity
  8
0
370
     0
390
0
100
AcDbVertex
100
AcDb2dVertex
 10
8.094107
 20
0.590747
 30
0.0
  0
VERTEX
  5
126
100
AcDbEntity
  8
0
370
     0
390
0
100
AcDbVertex
100
AcDb2dVertex
 10
8.097032
 20
0.590786
 30
0.0
  0
VERTEX
  5
127
100
AcDbEntity
  8
0
370
     0
390
0
100
AcDbVertex
100
AcDb2dVertex
 10
8.100026
 20
0.590798
 30
0.0
  0
VERTEX
  5
128
100
AcDbEntity
  8
0
370
     0
390
0
100
AcDbVertex
100
AcDb2dVertex
 10
8.104273
 20
0.590684
 30
0.0
  0
VERTEX
  5
129
100
AcDbEntity
  8
0
370
     0
390
0
100
AcDbVertex
100
AcDb2dVertex
 10
8.108189
 20
0.59034
 30
0.0
  0
VERTEX
  5
12A
100
AcDbEntity
  8
0
370
     0
390
0
100
AcDbVertex
100
AcDb2dVertex
 10
8.111775
 20
0.589767
 30
0.0
  0
VERTEX
  5
12B
100
AcDbEntity
  8
0
370
     0
390
0
100
AcDbVertex
100
AcDb2dVertex
 10
8.115029
 20
0.588965
 30
0.0
  0
VERTEX
  5
12C
100
AcDbEntity
  8
0
370
     0
390
0
100
AcDbVertex
100
AcDb2dVertex
 10
8.117954
 20
0.587933
 30
0.0
  0
VERTEX
  5
12D
100
AcDbEntity
  8
0
370
     0
390
0
100
AcDbVertex
100
AcDb2dVertex
 10
8.120546
 20
0.586671
 30
0.0
  0
VERTEX
  5
12E
100
AcDbEntity
  8
0
370
     0
390
0
100
AcDbVertex
100
AcDb2dVertex
 10
8.122807
 20
0.58518
 30
0.0
  0
VERTEX
  5
12F
100
AcDbEntity
  8
0
370
     0
390
0
100
AcDbVertex
100
AcDb2dVertex
 10
8.124737
 20
0.583461
 30
0.0
  0
VERTEX
  5
130
100
AcDbEntity
  8
0
370
     0
390
0
100
AcDbVertex
100
AcDb2dVertex
 10
8.126338
 20
0.581511
 30
0.0
  0
VERTEX
  5
131
100
AcDbEntity
  8
0
370
     0
390
0
100
AcDbVertex
100
AcDb2dVertex
 10
8.127607
 20
0.579333
 30
0.0
  0
VERTEX
  5
132
100
AcDbEntity
  8
0
370
     0
390
0
100
AcDbVertex
100
AcDb2dVertex
 10
8.125449
 20
0.581235
 30
0.0
  0
VERTEX
  5
133
100
AcDbEntity
  8
0
370
     0
390
0
100
AcDbVertex
100
AcDb2dVertex
 10
8.123219
 20
0.582873
 30
0.0
  0
VERTEX
  5
134
100
AcDbEntity
  8
0
370
     0
390
0
100
AcDbVertex
100
AcDb2dVertex
 10
8.120915
 20
0.584246
 30
0.0
  0
VERTEX
  5
135
100
AcDbEntity
  8
0
370
     0
390
0
100
AcDbVertex
100
AcDb2dVertex
 10
8.118538
 20
0.585356
 30
0.0
  0
VERTEX
  5
136
100
AcDbEntity
  8
0
370
     0
390
0
100
AcDbVertex
100
AcDb2dVertex
 10
8.116087
 20
0.586202
 30
0.0
  0
VERTEX
  5
137
100
AcDbEntity
  8
0
370
     0
390
0
100
AcDbVertex
100
AcDb2dVertex
 10
8.113329
 20
0.586844
 30
0.0
  0
VERTEX
  5
138
100
AcDbEntity
  8
0
370
     0
390
0
100
AcDbVertex
100
AcDb2dVertex
 10
8.111747
 20
0.587112
 30
0.0
  0
VERTEX
  5
139
100
AcDbEntity
  8
0
370
     0
390
0
100
AcDbVertex
100
AcDb2dVertex
 10
8.110031
 20
0.587343
 30
0.0
  0
VERTEX
  5
13A
100
AcDbEntity
  8
0
370
     0
390
0
100
AcDbVertex
100
AcDb2dVertex
 10
8.108179
 20
0.58754
 30
0.0
  0
VERTEX
  5
13B
100
AcDbEntity
  8
0
370
     0
390
0
100
AcDbVertex
100
AcDb2dVertex
 10
8.106191
 20
0.5877
 30
0.0
  0
VERTEX
  5
13C
100
AcDbEntity
  8
0
370
     0
390
0
100
AcDbVertex
100
AcDb2dVertex
 10
8.104068
 20
0.587826
 30
0.0
  0
VERTEX
  5
13D
100
AcDbEntity
  8
0
370
     0
390
0
100
AcDbVertex
100
AcDb2dVertex
 10
8.101811
 20
0.587915
 30
0.0
  0
VERTEX
  5
13E
100
AcDbEntity
  8
0
370
     0
390
0
100
AcDbVertex
100
AcDb2dVertex
 10
8.099417
 20
0.587969
 30
0.0
  0
VERTEX
  5
13F
100
AcDbEntity
  8
0
370
     0
390
0
100
AcDbVertex
100
AcDb2dVertex
 10
8.09689
 20
0.587987
 30
0.0
  0
VERTEX
  5
140
100
AcDbEntity
  8
0
370
     0
390
0
100
AcDbVertex
100
AcDb2dVertex
 10
8.094938
 20
0.587964
 30
0.0
  0
VERTEX
  5
141
100
AcDbEntity
  8
0
370
     0
390
0
100
AcDbVertex
100
AcDb2dVertex
 10
8.092805
 20
0.5879
 30
0.0
  0
VERTEX
  5
142
100
AcDbEntity
  8
0
370
     0
390
0
100
AcDbVertex
100
AcDb2dVertex
 10
8.090491
 20
0.587792
 30
0.0
  0
VERTEX
  5
143
100
AcDbEntity
  8
0
370
     0
390
0
100
AcDbVertex
100
AcDb2dVertex
 10
8.087994
 20
0.58764
 30
0.0
  0
VERTEX
  5
144
100
AcDbEntity
  8
0
370
     0
390
0
100
AcDbVertex
100
AcDb2dVertex
 10
8.085316
 20
0.587445
 30
0.0
  0
VERTEX
  5
145
100
AcDbEntity
  8
0
370
     0
390
0
100
AcDbVertex
100
AcDb2dVertex
 10
8.085316
 20
0.545696
 30
0.0
  0
VERTEX
  5
146
100
AcDbEntity
  8
0
370
     0
390
0
100
AcDbVertex
100
AcDb2dVertex
 10
8.101647
 20
0.545696
 30
0.0
  0
VERTEX
  5
147
100
AcDbEntity
  8
0
370
     0
390
0
100
AcDbVertex
100
AcDb2dVertex
 10
8.118953
 20
0.563975
 30
0.0
  0
VERTEX
  5
148
100
AcDbEntity
  8
0
370
     0
390
0
100
AcDbVertex
100
AcDb2dVertex
 10
8.118953
 20
0.518655
 30
0.0
  0
VERTEX
  5
149
100
AcDbEntity
  8
0
370
     0
390
0
100
AcDbVertex
100
AcDb2dVertex
 10
8.100782
 20
0.53661
 30
0.0
  0
VERTEX
  5
14A
100
AcDbEntity
  8
0
370
     0
390
0
100
AcDbVertex
100
AcDb2dVertex
 10
8.076014
 20
0.53661
 30
0.0
  0
VERTEX
  5
14B
100
AcDbEntity
  8
0
370
     0
390
0
100
AcDbVertex
100
AcDb2dVertex
 10
8.076014
 20
0.482097
 30
0.0
  0
VERTEX
  5
14C
100
AcDbEntity
  8
0
370
     0
390
0
100
AcDbVertex
100
AcDb2dVertex
 10
8.089859
 20
0.468038
 30
0.0
  0
VERTEX
  5
14D
100
AcDbEntity
  8
0
370
     0
390
0
100
AcDbVertex
100
AcDb2dVertex
 10
8.036753
 20
0.468038
 30
0.0
  0
VERTEX
  5
14E
100
AcDbEntity
  8
0
370
     0
390
0
100
AcDbVertex
100
AcDb2dVertex
 10
8.054382
 20
0.482097
 30
0.0
  0
VERTEX
  5
14F
100
AcDbEntity
  8
0
370
     0
390
0
100
AcDbVertex
100
AcDb2dVertex
 10
8.054382
 20
0.528606
 30
0.0
  0
VERTEX
  5
150
100
AcDbEntity
  8
0
370
     0
390
0
100
AcDbVertex
100
AcDb2dVertex
 10
8.052737
 20
0.528543
 30
0.0
  0
VERTEX
  5
151
100
AcDbEntity
  8
0
370
     0
390
0
100
AcDbVertex
100
AcDb2dVertex
 10
8.051134
 20
0.528356
 30
0.0
  0
VERTEX
  5
152
100
AcDbEntity
  8
0
370
     0
390
0
100
AcDbVertex
100
AcDb2dVertex
 10
8.049571
 20
0.528042
 30
0.0
  0
VERTEX
  5
153
100
AcDbEntity
  8
0
370
     0
390
0
100
AcDbVertex
100
AcDb2dVertex
 10
8.048048
 20
0.527603
 30
0.0
  0
VERTEX
  5
154
100
AcDbEntity
  8
0
370
     0
390
0
100
AcDbVertex
100
AcDb2dVertex
 10
8.046567
 20
0.527039
 30
0.0
  0
VERTEX
  5
155
100
AcDbEntity
  8
0
370
     0
390
0
100
AcDbVertex
100
AcDb2dVertex
 10
8.045129
 20
0.526349
 30
0.0
  0
VERTEX
  5
156
100
AcDbEntity
  8
0
370
     0
390
0
100
AcDbVertex
100
AcDb2dVertex
 10
8.04373
 20
0.525533
 30
0.0
  0
VERTEX
  5
157
100
AcDbEntity
  8
0
370
     0
390
0
100
AcDbVertex
100
AcDb2dVertex
 10
8.042372
 20
0.524592
 30
0.0
  0
VERTEX
  5
158
100
AcDbEntity
  8
0
370
     0
390
0
100
AcDbVertex
100
AcDb2dVertex
 10
8.041057
 20
0.523526
 30
0.0
  0
VERTEX
  5
159
100
AcDbEntity
  8
0
370
     0
390
0
100
AcDbVertex
100
AcDb2dVertex
 10
8.03978
 20
0.522333
 30
0.0
  0
VERTEX
  5
15A
100
AcDbEntity
  8
0
370
     0
390
0
100
AcDbVertex
100
AcDb2dVertex
 10
8.037725
 20
0.524604
 30
0.0
  0
VERTEX
  5
15B
100
AcDbEntity
  8
0
370
     0
390
0
100
AcDbVertex
100
AcDb2dVertex
 10
8.039021
 20
0.52592
 30
0.0
  0
VERTEX
  5
15C
100
AcDbEntity
  8
0
370
     0
390
0
100
AcDbVertex
100
AcDb2dVertex
 10
8.0404
 20
0.527097
 30
0.0
  0
VERTEX
  5
15D
100
AcDbEntity
  8
0
370
     0
390
0
100
AcDbVertex
100
AcDb2dVertex
 10
8.041859
 20
0.528135
 30
0.0
  0
VERTEX
  5
15E
100
AcDbEntity
  8
0
370
     0
390
0
100
AcDbVertex
100
AcDb2dVertex
 10
8.043403
 20
0.529035
 30
0.0
  0
VERTEX
  5
15F
100
AcDbEntity
  8
0
370
     0
390
0
100
AcDbVertex
100
AcDb2dVertex
 10
8.045027
 20
0.529796
 30
0.0
  0
VERTEX
  5
160
100
AcDbEntity
  8
0
370
     0
390
0
100
AcDbVertex
100
AcDb2dVertex
 10
8.046733
 20
0.53042
 30
0.0
  0
VERTEX
  5
161
100
AcDbEntity
  8
0
370
     0
390
0
100
AcDbVertex
100
AcDb2dVertex
 10
8.048522
 20
0.530904
 30
0.0
  0
VERTEX
  5
162
100
AcDbEntity
  8
0
370
     0
390
0
100
AcDbVertex
100
AcDb2dVertex
 10
8.050394
 20
0.531249
 30
0.0
  0
VERTEX
  5
163
100
AcDbEntity
  8
0
370
     0
390
0
100
AcDbVertex
100
AcDb2dVertex
 10
8.052347
 20
0.531458
 30
0.0
  0
VERTEX
  5
164
100
AcDbEntity
  8
0
370
     0
390
0
100
AcDbVertex
100
AcDb2dVertex
 10
8.054382
 20
0.531527
 30
0.0
  0
VERTEX
  5
165
100
AcDbEntity
  8
0
370
     0
390
0
100
AcDbVertex
100
AcDb2dVertex
 10
8.054382
 20
0.53661
 30
0.0
  0
VERTEX
  5
166
100
AcDbEntity
  8
0
370
     0
390
0
100
AcDbVertex
100
AcDb2dVertex
 10
8.052773
 20
0.536748
 30
0.0
  0
VERTEX
  5
167
100
AcDbEntity
  8
0
370
     0
390
0
100
AcDbVertex
100
AcDb2dVertex
 10
8.051138
 20
0.536826
 30
0.0
  0
VERTEX
  5
168
100
AcDbEntity
  8
0
370
     0
390
0
100
AcDbVertex
100
AcDb2dVertex
 10
8.049152
 20
0.536744
 30
0.0
  0
VERTEX
  5
169
100
AcDbEntity
  8
0
370
     0
390
0
100
AcDbVertex
100
AcDb2dVertex
 10
8.047222
 20
0.536498
 30
0.0
  0
VERTEX
  5
16A
100
AcDbEntity
  8
0
370
     0
390
0
100
AcDbVertex
100
AcDb2dVertex
 10
8.045345
 20
0.536087
 30
0.0
  0
VERTEX
  5
16B
100
AcDbEntity
  8
0
370
     0
390
0
100
AcDbVertex
100
AcDb2dVertex
 10
8.043522
 20
0.535512
 30
0.0
  0
VERTEX
  5
16C
100
AcDbEntity
  8
0
370
     0
390
0
100
AcDbVertex
100
AcDb2dVertex
 10
8.041754
 20
0.534771
 30
0.0
  0
VERTEX
  5
16D
100
AcDbEntity
  8
0
370
     0
390
0
100
AcDbVertex
100
AcDb2dVertex
 10
8.04004
 20
0.533868
 30
0.0
  0
VERTEX
  5
16E
100
AcDbEntity
  8
0
370
     0
390
0
100
AcDbVertex
100
AcDb2dVertex
 10
8.038381
 20
0.532799
 30
0.0
  0
VERTEX
  5
16F
100
AcDbEntity
  8
0
370
     0
390
0
100
AcDbVertex
100
AcDb2dVertex
 10
8.036774
 20
0.531566
 30
0.0
  0
VERTEX
  5
170
100
AcDbEntity
  8
0
370
     0
390
0
100
AcDbVertex
100
AcDb2dVertex
 10
8.035222
 20
0.530168
 30
0.0
  0
VERTEX
  5
171
100
AcDbEntity
  8
0
370
     0
390
0
100
AcDbVertex
100
AcDb2dVertex
 10
8.033725
 20
0.528606
 30
0.0
  0
VERTEX
  5
172
100
AcDbEntity
  8
0
370
     0
390
0
100
AcDbVertex
100
AcDb2dVertex
 10
8.032967
 20
0.530337
 30
0.0
  0
VERTEX
  5
173
100
AcDbEntity
  8
0
370
     0
390
0
100
AcDbVertex
100
AcDb2dVertex
 10
8.034058
 20
0.533022
 30
0.0
  0
VERTEX
  5
174
100
AcDbEntity
  8
0
370
     0
390
0
100
AcDbVertex
100
AcDb2dVertex
 10
8.03538
 20
0.535451
 30
0.0
  0
VERTEX
  5
175
100
AcDbEntity
  8
0
370
     0
390
0
100
AcDbVertex
100
AcDb2dVertex
 10
8.036938
 20
0.537626
 30
0.0
  0
VERTEX
  5
176
100
AcDbEntity
  8
0
370
     0
390
0
100
AcDbVertex
100
AcDb2dVertex
 10
8.03873
 20
0.539544
 30
0.0
  0
VERTEX
  5
177
100
AcDbEntity
  8
0
370
     0
390
0
100
AcDbVertex
100
AcDb2dVertex
 10
8.040755
 20
0.541208
 30
0.0
  0
VERTEX
  5
178
100
AcDbEntity
  8
0
370
     0
390
0
100
AcDbVertex
100
AcDb2dVertex
 10
8.043013
 20
0.542615
 30
0.0
  0
VERTEX
  5
179
100
AcDbEntity
  8
0
370
     0
390
0
100
AcDbVertex
100
AcDb2dVertex
 10
8.045504
 20
0.543768
 30
0.0
  0
VERTEX
  5
17A
100
AcDbEntity
  8
0
370
     0
390
0
100
AcDbVertex
100
AcDb2dVertex
 10
8.048231
 20
0.544665
 30
0.0
  0
VERTEX
  5
17B
100
AcDbEntity
  8
0
370
     0
390
0
100
AcDbVertex
100
AcDb2dVertex
 10
8.051189
 20
0.545309
 30
0.0
  0
VERTEX
  5
17C
100
AcDbEntity
  8
0
370
     0
390
0
100
AcDbVertex
100
AcDb2dVertex
 10
8.054382
 20
0.545696
 30
0.0
  0
VERTEX
  5
17D
100
AcDbEntity
  8
0
370
     0
390
0
100
AcDbVertex
100
AcDb2dVertex
 10
8.054382
 20
0.591339
 30
0.0
  0
SEQEND
  5
17E
100
AcDbEntity
  8
0
370
     0
390
0
  0
POLYLINE
  5
17F
100
AcDbEntity
  8
0
370
    13
390
0
 62
     7
 48
0.03937
100
AcDb2dPolyline
 66
     1
 10
0.0
 20
0.0
 30
0.0
 70
     1
 71
    22
  0
VERTEX
  5
180
100
AcDbEntity
  8
0
370
     0
390
0
100
AcDbVertex
100
AcDb2dVertex
 10
8.160271
 20
0.598694
 30
0.0
  0
VERTEX
  5
181
100
AcDbEntity
  8
0
370
     0
390
0
100
AcDbVertex
100
AcDb2dVertex
 10
8.157292
 20
0.595112
 30
0.0
  0
VERTEX
  5
182
100
AcDbEntity
  8
0
370
     0
390
0
100
AcDbVertex
100
AcDb2dVertex
 10
8.154542
 20
0.59159
 30
0.0
  0
VERTEX
  5
183
100
AcDbEntity
  8
0
370
     0
390
0
100
AcDbVertex
100
AcDb2dVertex
 10
8.152022
 20
0.588129
 30
0.0
  0
VERTEX
  5
184
100
AcDbEntity
  8
0
370
     0
390
0
100
AcDbVertex
100
AcDb2dVertex
 10
8.149732
 20
0.584729
 30
0.0
  0
VERTEX
  5
185
100
AcDbEntity
  8
0
370
     0
390
0
100
AcDbVertex
100
AcDb2dVertex
 10
8.147671
 20
0.581388
 30
0.0
  0
VERTEX
  5
186
100
AcDbEntity
  8
0
370
     0
390
0
100
AcDbVertex
100
AcDb2dVertex
 10
8.145838
 20
0.578109
 30
0.0
  0
VERTEX
  5
187
100
AcDbEntity
  8
0
370
     0
390
0
100
AcDbVertex
100
AcDb2dVertex
 10
8.144234
 20
0.57489
 30
0.0
  0
VERTEX
  5
188
100
AcDbEntity
  8
0
370
     0
390
0
100
AcDbVertex
100
AcDb2dVertex
 10
8.142862
 20
0.571733
 30
0.0
  0
VERTEX
  5
189
100
AcDbEntity
  8
0
370
     0
390
0
100
AcDbVertex
100
AcDb2dVertex
 10
8.141717
 20
0.568634
 30
0.0
  0
VERTEX
  5
18A
100
AcDbEntity
  8
0
370
     0
390
0
100
AcDbVertex
100
AcDb2dVertex
 10
8.140802
 20
0.565596
 30
0.0
  0
VERTEX
  5
18B
100
AcDbEntity
  8
0
370
     0
390
0
100
AcDbVertex
100
AcDb2dVertex
 10
8.138531
 20
0.567111
 30
0.0
  0
VERTEX
  5
18C
100
AcDbEntity
  8
0
370
     0
390
0
100
AcDbVertex
100
AcDb2dVertex
 10
8.139469
 20
0.570503
 30
0.0
  0
VERTEX
  5
18D
100
AcDbEntity
  8
0
370
     0
390
0
100
AcDbVertex
100
AcDb2dVertex
 10
8.140637
 20
0.573882
 30
0.0
  0
VERTEX
  5
18E
100
AcDbEntity
  8
0
370
     0
390
0
100
AcDbVertex
100
AcDb2dVertex
 10
8.142038
 20
0.577251
 30
0.0
  0
VERTEX
  5
18F
100
AcDbEntity
  8
0
370
     0
390
0
100
AcDbVertex
100
AcDb2dVertex
 10
8.14367
 20
0.58061
 30
0.0
  0
VERTEX
  5
190
100
AcDbEntity
  8
0
370
     0
390
0
100
AcDbVertex
100
AcDb2dVertex
 10
8.145533
 20
0.583958
 30
0.0
  0
VERTEX
  5
191
100
AcDbEntity
  8
0
370
     0
390
0
100
AcDbVertex
100
AcDb2dVertex
 10
8.147629
 20
0.587294
 30
0.0
  0
VERTEX
  5
192
100
AcDbEntity
  8
0
370
     0
390
0
100
AcDbVertex
100
AcDb2dVertex
 10
8.149955
 20
0.590619
 30
0.0
  0
VERTEX
  5
193
100
AcDbEntity
  8
0
370
     0
390
0
100
AcDbVertex
100
AcDb2dVertex
 10
8.152513
 20
0.593936
 30
0.0
  0
VERTEX
  5
194
100
AcDbEntity
  8
0
370
     0
390
0
100
AcDbVertex
100
AcDb2dVertex
 10
8.155303
 20
0.597239
 30
0.0
  0
VERTEX
  5
195
100
AcDbEntity
  8
0
370
     0
390
0
100
AcDbVertex
100
AcDb2dVertex
 10
8.158324
 20
0.600533
 30
0.0
  0
SEQEND
  5
196
100
AcDbEntity
  8
0
370
     0
390
0
  0
POLYLINE
  5
197
100
AcDbEntity
  8
0
370
    13
390
0
 62
     7
 48
0.03937
100
AcDb2dPolyline
 66
     1
 10
0.0
 20
0.0
 30
0.0
 70
     1
 71
     4
  0
VERTEX
  5
198
100
AcDbEntity
  8
0
370
     0
390
0
100
AcDbVertex
100
AcDb2dVertex
 10
8.126849
 20
0.560189
 30
0.0
  0
VERTEX
  5
199
100
AcDbEntity
  8
0
370
     0
390
0
100
AcDbVertex
100
AcDb2dVertex
 10
8.126849
 20
0.513464
 30
0.0
  0
VERTEX
  5
19A
100
AcDbEntity
  8
0
370
     0
390
0
100
AcDbVertex
100
AcDb2dVertex
 10
8.124036
 20
0.515087
 30
0.0
  0
VERTEX
  5
19B
100
AcDbEntity
  8
0
370
     0
390
0
100
AcDbVertex
100
AcDb2dVertex
 10
8.124036
 20
0.561812
 30
0.0
  0
SEQEND
  5
19C
100
AcDbEntity
  8
0
370
     0
390
0
  0
POLYLINE
  5
19D
100
AcDbEntity
  8
0
370
    13
390
0
 62
     7
 48
0.03937
100
AcDb2dPolyline
 66
     1
 10
0.0
 20
0.0
 30
0.0
 70
     1
 71
    10
  0
VERTEX
  5
19E
100
AcDbEntity
  8
0
370
     0
390
0
100
AcDbVertex
100
AcDb2dVertex
 10
8.107488
 20
0.527525
 30
0.0
  0
VERTEX
  5
19F
100
AcDbEntity
  8
0
370
     0
390
0
100
AcDbVertex
100
AcDb2dVertex
 10
8.085316
 20
0.527525
 30
0.0
  0
VERTEX
  5
1A0
100
AcDbEntity
  8
0
370
     0
390
0
100
AcDbVertex
100
AcDb2dVertex
 10
8.085316
 20
0.481233
 30
0.0
  0
VERTEX
  5
1A1
100
AcDbEntity
  8
0
370
     0
390
0
100
AcDbVertex
100
AcDb2dVertex
 10
8.104352
 20
0.457653
 30
0.0
  0
VERTEX
  5
1A2
100
AcDbEntity
  8
0
370
     0
390
0
100
AcDbVertex
100
AcDb2dVertex
 10
8.041727
 20
0.457653
 30
0.0
  0
VERTEX
  5
1A3
100
AcDbEntity
  8
0
370
     0
390
0
100
AcDbVertex
100
AcDb2dVertex
 10
8.039024
 20
0.460574
 30
0.0
  0
VERTEX
  5
1A4
100
AcDbEntity
  8
0
370
     0
390
0
100
AcDbVertex
100
AcDb2dVertex
 10
8.098295
 20
0.460574
 30
0.0
  0
VERTEX
  5
1A5
100
AcDbEntity
  8
0
370
     0
390
0
100
AcDbVertex
100
AcDb2dVertex
 10
8.082612
 20
0.479934
 30
0.0
  0
VERTEX
  5
1A6
100
AcDbEntity
  8
0
370
     0
390
0
100
AcDbVertex
100
AcDb2dVertex
 10
8.082612
 20
0.530445
 30
0.0
  0
VERTEX
  5
1A7
100
AcDbEntity
  8
0
370
     0
390
0
100
AcDbVertex
100
AcDb2dVertex
 10
8.104352
 20
0.530445
 30
0.0
  0
SEQEND
  5
1A8
100
AcDbEntity
  8
0
370
     0
390
0
  0
POLYLINE
  5
1A9
100
AcDbEntity
  8
0
370
    35
390
0
 62
     7
 48
0.03937
100
AcDb2dPolyline
 66
     1
 10
0.0
 20
0.0
 30
0.0
 71
     2
  0
VERTEX
  5
1AA
100
AcDbEntity
  8
0
370
     0
390
0
100
AcDbVertex
100
AcDb2dVertex
 10
2.445191
 20
4.693278
 30
0.0
 42
1.05537
  0
VERTEX
  5
1AB
100
AcDbEntity
  8
0
370
     0
390
0
100
AcDbVertex
100
AcDb2dVertex
 10
2.467202
 20
5.101506
 30
0.0
  0
SEQEND
  5
1AC
100
AcDbEntity
  8
0
370
     0
390
0
  0
POLYLINE
  5
1AD
100
AcDbEntity
  8
0
370
    35
390
0
 62
     7
 48
0.03937
100
AcDb2dPolyline
 66
     1
 10
0.0
 20
0.0
 30
0.0
 71
     2
  0
VERTEX
  5
1AE
100
AcDbEntity
  8
0
370
     0
390
0
100
AcDbVertex
100
AcDb2dVertex
 10
2.467202
 20
5.101506
 30
0.0
 42
0.947537
  0
VERTEX
  5
1AF
100
AcDbEntity
  8
0
370
     0
390
0
100
AcDbVertex
100
AcDb2dVertex
 10
2.445192
 20
4.693278
 30
0.0
  0
SEQEND
  5
1B0
100
AcDbEntity
  8
0
370
     0
390
0
  0
SPLINE
  5
1B1
100
AcDbEntity
  8
0
370
    35
390
0
 62
     7
 48
0.03937
100
AcDbSpline
210
0.0
220
0.0
230
1.0
 70
     8
 71
     5
 72
    30
 73
    24
 74
     0
 42
0.0
 43
0.0
 40
0.0
 40
0.0
 40
0.0
 40
0.0
 40
0.0
 40
0.0
 40
5.4131054253769966
 40
5.4131054253769966
 40
5.4131054253769966
 40
7.2088537142297247
 40
7.2088537142297247
 40
7.2088537142297247
 40
12.602044669416884
 40
12.602044669416884
 40
12.602044669416884
 40
13.494904853509301
 40
13.494904853509301
 40
13.494904853509301
 40
14.387765037601721
 40
14.387765037601721
 40
14.387765037601721
 40
16.154371362113125
 40
16.154371362113125
 40
16.154371362113125
 40
17.843824477689441
 40
17.843824477689441
 40
17.843824477689441
 40
17.843824477689441
 40
17.843824477689441
 40
17.843824477689441
 10
2.6820322003295032
 20
4.8954501236167678
 30
0.0
 10
2.6812824058676226
 20
4.8737007037325517
 30
0.0
 10
2.6777794889231812
 20
4.8521022616433198
 30
0.0
 10
2.6715490901425869
 20
4.8310122844316092
 30
0.0
 10
2.6596981506111228
 20
4.8043179989891982
 30
0.0
 10
2.6438228593667623
 20
4.7804038279324912
 30
0.0
 10
2.639623372098455
 20
4.7746239036286102
 30
0.0
 10
2.6219056233338738
 20
4.7522780875319359
 30
0.0
 10
2.6005051916706243
 20
4.7330447852619937
 30
0.0
 10
2.5826798663735357
 20
4.7207620204967187
 30
0.0
 10
2.5603694529496384
 20
4.7093256545038411
 30
0.0
 10
2.5370173288753843
 20
4.7014144538311831
 30
0.0
 10
2.533682858239795
 20
4.7003624362517602
 30
0.0
 10
2.5269607212374718
 20
4.6983973994359607
 30
0.0
 10
2.5202001526303994
 20
4.6967268493800187
 30
0.0
 10
2.516824234428606
 20
4.6959682085643797
 30
0.0
 10
2.5068120316920841
 20
4.6939352459360721
 30
0.0
 10
2.496928231407356
 20
4.6925571958108163
 30
0.0
 10
2.490423128773839
 20
4.6919126235622119
 30
0.0
 10
2.4776745074014461
 20
4.6911446431037058
 30
0.0
 10
2.4646811459006637
 20
4.6913801228968737
 30
0.0
 10
2.4582232946819089
 20
4.6917421761636176
 30
0.0
 10
2.4516868766213733
 20
4.6923801870132147
 30
0.0
 10
2.4451923111611191
 20
4.6932774857363189
 30
0.0
  0
SPLINE
  5
1B2
100
AcDbEntity
  8
0
370
    35
390
0
 62
     7
 48
0.03937
100
AcDbSpline
210
0.0
220
0.0
230
1.0
 70
     8
 71
     5
 72
    21
 73
    15
 74
     0
 42
0.0
 43
0.0
 40
0.0
 40
0.0
 40
0.0
 40
0.0
 40
0.0
 40
0.0
 40
6.8785715803933734
 40
6.8785715803933734
 40
6.8785715803933734
 40
9.1510283548954483
 40
9.1510283548954483
 40
9.1510283548954483
 40
10.277126454620854
 40
10.277126454620854
 40
10.277126454620854
 40
11.380467809425115
 40
11.380467809425115
 40
11.380467809425115
 40
11.380467809425115
 40
11.380467809425115
 40
11.380467809425115
 10
2.5733267917591189
 20
5.0910587418011586
 30
0.0
 10
2.5977273201712112
 20
5.076848295840497
 30
0.0
 10
2.6197815074335904
 20
5.0587919072160989
 30
0.0
 10
2.6394233453413385
 20
5.0369356046159188
 30
0.0
 10
2.6601102719210106
 20
5.0032352746576656
 30
0.0
 10
2.6726148279241428
 20
4.9673237976593727
 30
0.0
 10
2.6752138708236504
 20
4.9582981186296644
 30
0.0
 10
2.6783366752093185
 20
4.944782976397887
 30
0.0
 10
2.6803576763585122
 20
4.9311975789290825
 30
0.0
 10
2.6809079318859053
 20
4.9266870890218959
 30
0.0
 10
2.6817613944996848
 20
4.9177386691330742
 30
0.0
 10
2.6821472110153479
 20
4.9087671029380351
 30
0.0
 10
2.6822234775853149
 20
4.9043226681332186
 30
0.0
 10
2.6821850292834131
 20
4.8998832599617401
 30
0.0
 10
2.6820322003295032
 20
4.8954501236167687
 30
0.0
  0
CIRCLE
  5
1B3
100
AcDbEntity
  8
0
370
    35
390
0
 62
     7
 48
0.03937
100
AcDbCircle
 10
2.467202
 20
4.896799
 30
0.0
 40
0.262919
210
0.0
220
0.0
230
1.0
  0
POLYLINE
  5
1B4
100
AcDbEntity
  8
0
370
    35
390
0
 62
     7
 48
0.03937
100
AcDb2dPolyline
 66
     1
 10
0.0
 20
0.0
 30
0.0
 71
     2
  0
VERTEX
  5
1B5
100
AcDbEntity
  8
0
370
     0
390
0
100
AcDbVertex
100
AcDb2dVertex
 10
2.351952
 20
4.685835
 30
0.0
 42
0.089172
  0
VERTEX
  5
1B6
100
AcDbEntity
  8
0
370
     0
390
0
100
AcDbVertex
100
AcDb2dVertex
 10
2.432278
 20
4.656783
 30
0.0
  0
SEQEND
  5
1B7
100
AcDbEntity
  8
0
370
     0
390
0
  0
POLYLINE
  5
1B8
100
AcDbEntity
  8
0
370
    35
390
0
 62
     7
 48
0.03937
100
AcDb2dPolyline
 66
     1
 10
0.0
 20
0.0
 30
0.0
 71
     2
  0
VERTEX
  5
1B9
100
AcDbEntity
  8
0
370
     0
390
0
100
AcDbVertex
100
AcDb2dVertex
 10
2.412749
 20
4.699462
 30
0.0
 42
0.055723
  0
VERTEX
  5
1BA
100
AcDbEntity
  8
0
370
     0
390
0
100
AcDbVertex
100
AcDb2dVertex
 10
2.432284
 20
4.656785
 30
0.0
  0
SEQEND
  5
1BB
100
AcDbEntity
  8
0
370
     0
390
0
  0
SPLINE
  5
1BC
100
AcDbEntity
  8
0
370
    35
390
0
 62
     7
 48
0.03937
100
AcDbSpline
210
0.0
220
0.0
230
1.0
 70
     8
 71
     5
 72
    33
 73
    27
 74
     0
 42
0.0
 43
0.0
 40
0.0
 40
0.0
 40
0.0
 40
0.0
 40
0.0
 40
0.0
 40
6.5299592631068935
 40
6.5299592631068935
 40
6.5299592631068935
 40
9.4348580840081055
 40
9.4348580840081055
 40
9.4348580840081055
 40
13.055046642217066
 40
13.055046642217066
 40
13.055046642217066
 40
15.242014342461623
 40
15.242014342461623
 40
15.242014342461623
 40
18.913144493303498
 40
18.913144493303498
 40
18.913144493303498
 40
20.401985581962311
 40
20.401985581962311
 40
20.401985581962311
 40
21.868532665031506
 40
21.868532665031506
 40
21.868532665031506
 40
22.646657624369716
 40
22.646657624369716
 40
22.646657624369716
 40
22.646657624369716
 40
22.646657624369716
 40
22.646657624369716
 10
2.2333104089348987
 20
4.8972196296722998
 30
0.0
 10
2.2340822967146652
 20
4.9250807667648884
 30
0.0
 10
2.2390036216975457
 20
4.9527530936770248
 30
0.0
 10
2.2480340717056073
 20
4.9794620071439759
 30
0.0
 10
2.2666472472992876
 20
5.0154077468963436
 30
0.0
 10
2.2920629071093948
 20
5.046061973395398
 30
0.0
 10
2.300514926605191
 20
5.0549846878342217
 30
0.0
 10
2.3208637705633999
 20
5.0737522770389862
 30
0.0
 10
2.3438661076550038
 20
5.0892931369476964
 30
0.0
 10
2.3572760262652519
 20
5.0967756313090682
 30
0.0
 10
2.3795522500880799
 20
5.1068692678893202
 30
0.0
 10
2.4027609620408263
 20
5.113845417509288
 30
0.0
 10
2.4115570654685787
 20
5.1160110625130688
 30
0.0
 10
2.4352464379898717
 20
5.1205945761273437
 30
0.0
 10
2.4585274932413843
 20
5.1219509137587282
 30
0.0
 10
2.4729859569757773
 20
5.1216476192715747
 30
0.0
 10
2.4932769564346691
 20
5.1196290043784032
 30
0.0
 10
2.5136875291876164
 20
5.1151442306971102
 30
0.0
 10
2.5195872285685561
 20
5.1136376518541731
 30
0.0
 10
2.5312517699077013
 20
5.1102241302378983
 30
0.0
 10
2.5427029004485981
 20
5.106004638923193
 30
0.0
 10
2.5483117844027094
 20
5.1037165988893287
 30
0.0
 10
2.5567439787434347
 20
5.0999384597560553
 30
0.0
 10
2.5649562107467658
 20
5.0957334109640966
 30
0.0
 10
2.5677762419936401
 20
5.094224583705345
 30
0.0
 10
2.5705665296964821
 20
5.0926662707126606
 30
0.0
 10
2.5733267917591189
 20
5.0910587418011586
 30
0.0
  0
SPLINE
  5
1BD
100
AcDbEntity
  8
0
370
    35
390
0
 62
     7
 48
0.03937
100
AcDbSpline
210
0.0
220
0.0
230
1.0
 70
     8
 71
     5
 72
    15
 73
     9
 74
     0
 42
0.0
 43
0.0
 40
0.0
 40
0.0
 40
0.0
 40
0.0
 40
0.0
 40
0.0
 40
7.1141819536672761
 40
7.1141819536672761
 40
7.1141819536672761
 40
11.815669366132639
 40
11.815669366132639
 40
11.815669366132639
 40
11.815669366132639
 40
11.815669366132639
 40
11.815669366132639
 10
2.3519524566940659
 20
4.6858357395623216
 30
0.0
 10
2.3251988769827245
 20
4.701339391769948
 30
0.0
 10
2.3010162857105003
 20
4.7211012678536139
 30
0.0
 10
2.2803111359149653
 20
4.7445615821965212
 30
0.0
 10
2.2528877775080649
 20
4.7882522055948513
 30
0.0
 10
2.2381128939232156
 20
4.8370580078226713
 30
0.0
 10
2.2343499039234125
 20
4.857002441129282
 30
0.0
 10
2.2327546595695784
 20
4.877159966195074
 30
0.0
 10
2.2333104089348979
 20
4.8972196296722998
 30
0.0
  0
CIRCLE
  5
1BE
100
AcDbEntity
  8
0
370
    35
390
0
 62
     7
 48
0.03937
100
AcDbCircle
 10
3.283566
 20
5.713163
 30
0.0
 40
1.697813
210
0.0
220
0.0
230
1.0
  0
CIRCLE
  5
1BF
100
AcDbEntity
  8
0
370
    35
390
0
 62
     7
 48
0.03937
100
AcDbCircle
 10
4.09993
 20
4.896799
 30
0.0
 40
0.262919
210
0.0
220
0.0
230
1.0
  0
CIRCLE
  5
1C0
100
AcDbEntity
  8
0
370
    35
390
0
 62
     7
 48
0.03937
100
AcDbCircle
 10
4.09993
 20
6.529527
 30
0.0
 40
0.262919
210
0.0
220
0.0
230
1.0
  0
CIRCLE
  5
1C1
100
AcDbEntity
  8
0
370
    35
390
0
 62
     7
 48
0.03937
100
AcDbCircle
 10
2.467202
 20
6.529527
 30
0.0
 40
0.262919
210
0.0
220
0.0
230
1.0
  0
CIRCLE
  5
1C2
100
AcDbEntity
  8
0
370
    35
390
0
 62
     7
 48
0.03937
100
AcDbCircle
 10
3.283566
 20
5.713163
 30
0.0
 40
0.669424
210
0.0
220
0.0
230
1.0
  0
POLYLINE
  5
1C3
100
AcDbEntity
  8
0
370
    35
390
0
 62
     7
 48
0.03937
100
AcDb2dPolyline
 66
     1
 10
0.0
 20
0.0
 30
0.0
 71
     2
  0
VERTEX
  5
1C4
100
AcDbEntity
  8
0
370
     0
390
0
100
AcDbVertex
100
AcDb2dVertex
 10
4.297264
 20
4.842352
 30
0.0
 42
0.040393
  0
VERTEX
  5
1C5
100
AcDbEntity
  8
0
370
     0
390
0
100
AcDbVertex
100
AcDb2dVertex
 10
4.303451
 20
4.874789
 30
0.0
  0
SEQEND
  5
1C6
100
AcDbEntity
  8
0
370
     0
390
0
  0
SPLINE
  5
1C7
100
AcDbEntity
  8
0
370
    35
390
0
 62
     7
 48
0.03937
100
AcDbSpline
210
0.0
220
0.0
230
1.0
 70
     8
 71
     5
 72
    30
 73
    24
 74
     0
 42
0.0
 43
0.0
 40
0.0
 40
0.0
 40
0.0
 40
0.0
 40
0.0
 40
0.0
 40
5.4131047427299768
 40
5.4131047427299768
 40
5.4131047427299768
 40
7.2088528052084904
 40
7.2088528052084904
 40
7.2088528052084904
 40
12.602043089627749
 40
12.602043089627749
 40
12.602043089627749
 40
13.494903162166185
 40
13.494903162166185
 40
13.494903162166185
 40
14.387763234704616
 40
14.387763234704616
 40
14.387763234704616
 40
16.154369559689957
 40
16.154369559689957
 40
16.154369559689957
 40
17.843822786942141
 40
17.843822786942141
 40
17.843822786942141
 40
17.843822786942141
 40
17.843822786942141
 40
17.843822786942141
 10
4.1012784280526144
 20
5.1116288084088275
 30
0.0
 10
4.1230278451940094
 20
5.1108790140415046
 30
0.0
 10
4.144626284578564
 20
5.1073760978860721
 30
0.0
 10
4.165716259414932
 20
5.1011457005718919
 30
0.0
 10
4.1924105422756579
 20
5.0892947636771675
 30
0.0
 10
4.2163247115077338
 20
5.0734194759631546
 30
0.0
 10
4.2221046354055005
 20
5.0692199896290546
 30
0.0
 10
4.2444504500952913
 20
5.0515022448156888
 30
0.0
 10
4.2636837520334776
 20
5.030101817785356
 30
0.0
 10
4.2759665175097092
 20
5.0122764959997665
 30
0.0
 10
4.2874028851574355
 20
4.9899660863864561
 30
0.0
 10
4.2953140883370793
 20
4.96661396617744
 30
0.0
 10
4.2963661062909209
 20
4.9632794960752404
 30
0.0
 10
4.2983311438532423
 20
4.9565573603470892
 30
0.0
 10
4.3000016949054212
 20
4.9497967922797024
 30
0.0
 10
4.3007603363007849
 20
4.9464208740250575
 30
0.0
 10
4.3027933009939003
 20
4.9364086691529456
 30
0.0
 10
4.304171353286093
 20
4.926524863563146
 30
0.0
 10
4.3048159267662065
 20
4.9200197558456864
 30
0.0
 10
4.3055839086873648
 20
4.9072711245329996
 30
0.0
 10
4.3053484290261439
 20
4.8942777566622926
 30
0.0
 10
4.304986375590131
 20
4.8878199036254912
 30
0.0
 10
4.304348364715481
 20
4.8812834851299938
 30
0.0
 10
4.3034510659330634
 20
4.8747889192404372
 30
0.0
  0
SPLINE
  5
1C8
100
AcDbEntity
  8
0
370
    35
390
0
 62
     7
 48
0.03937
100
AcDbSpline
210
0.0
220
0.0
230
1.0
 70
     8
 71
     5
 72
    21
 73
    15
 74
     0
 42
0.0
 43
0.0
 40
0.0
 40
0.0
 40
0.0
 40
0.0
 40
0.0
 40
0.0
 40
6.8785720257635123
 40
6.8785720257635123
 40
6.8785720257635123
 40
9.15102900703606
 40
9.15102900703606
 40
9.15102900703606
 40
10.277127258222265
 40
10.277127258222265
 40
10.277127258222265
 40
11.38046877555305
 40
11.38046877555305
 40
11.38046877555305
 40
11.38046877555305
 40
11.38046877555305
 40
11.38046877555305
 10
3.9056698098682245
 20
5.0029233998384433
 30
0.0
 10
3.9198802567489759
 20
5.0273239298304082
 30
0.0
 10
3.9379366467914454
 20
5.0493781183685709
 30
0.0
 10
3.9597929486400449
 20
5.069019953105439
 30
0.0
 10
3.9934932722623238
 20
5.0897068771733878
 30
0.0
 10
4.0294047469260583
 20
5.1022114337751745
 30
0.0
 10
4.0384304258994508
 20
5.104810477031732
 30
0.0
 10
4.0519455688779296
 20
5.1079332820749928
 30
0.0
 10
4.0655309676552269
 20
5.1099542837822227
 30
0.0
 10
4.0700414581731028
 20
5.110504539486457
 30
0.0
 10
4.0789898793102566
 20
5.1113580023884824
 30
0.0
 10
4.0879614467672925
 20
5.111743819060945
 30
0.0
 10
4.0924058822282845
 20
5.1118200856759639
 30
0.0
 10
4.0968452910546249
 20
5.11178163738525
 30
0.0
 10
4.1012784280526136
 20
5.1116288084088275
 30
0.0
  0
POLYLINE
  5
1C9
100
AcDbEntity
  8
0
370
    35
390
0
 62
     7
 48
0.03937
100
AcDb2dPolyline
 66
     1
 10
0.0
 20
0.0
 30
0.0
 71
     2
  0
VERTEX
  5
1CA
100
AcDbEntity
  8
0
370
     0
390
0
100
AcDbVertex
100
AcDb2dVertex
 10
4.310894
 20
4.781548
 30
0.0
 42
0.089172
  0
VERTEX
  5
1CB
100
AcDbEntity
  8
0
370
     0
390
0
100
AcDbVertex
100
AcDb2dVertex
 10
4.339946
 20
4.861875
 30
0.0
  0
SEQEND
  5
1CC
100
AcDbEntity
  8
0
370
     0
390
0
  0
POLYLINE
  5
1CD
100
AcDbEntity
  8
0
370
    35
390
0
 62
     7
 48
0.03937
100
AcDb2dPolyline
 66
     1
 10
0.0
 20
0.0
 30
0.0
 71
     2
  0
VERTEX
  5
1CE
100
AcDbEntity
  8
0
370
     0
390
0
100
AcDbVertex
100
AcDb2dVertex
 10
4.297266
 20
4.842346
 30
0.0
 42
0.055723
  0
VERTEX
  5
1CF
100
AcDbEntity
  8
0
370
     0
390
0
100
AcDbVertex
100
AcDb2dVertex
 10
4.339944
 20
4.86188
 30
0.0
  0
SEQEND
  5
1D0
100
AcDbEntity
  8
0
370
     0
390
0
  0
SPLINE
  5
1D1
100
AcDbEntity
  8
0
370
    35
390
0
 62
     7
 48
0.03937
100
AcDbSpline
210
0.0
220
0.0
230
1.0
 70
     8
 71
     5
 72
    33
 73
    27
 74
     0
 42
0.0
 43
0.0
 40
0.0
 40
0.0
 40
0.0
 40
0.0
 40
0.0
 40
0.0
 40
6.5299592692181152
 40
6.5299592692181152
 40
6.5299592692181152
 40
9.4348580931905417
 40
9.4348580931905417
 40
9.4348580931905417
 40
13.055046586655321
 40
13.055046586655321
 40
13.055046586655321
 40
15.242014954872879
 40
15.242014954872879
 40
15.242014954872879
 40
18.913141295639043
 40
18.913141295639043
 40
18.913141295639043
 40
20.401982298468582
 40
20.401982298468582
 40
20.401982298468582
 40
21.868527071886788
 40
21.868527071886788
 40
21.868527071886788
 40
22.64668388153536
 40
22.64668388153536
 40
22.64668388153536
 40
22.64668388153536
 40
22.64668388153536
 40
22.64668388153536
 10
4.0995089219970833
 20
4.6629070170142235
 30
0.0
 10
4.0716477848784205
 20
4.663678904794712
 30
0.0
 10
4.0439754579405633
 20
4.6686002297860805
 30
0.0
 10
4.0172665445216111
 20
4.6776306798028298
 30
0.0
 10
3.9813208048326914
 20
4.6962438553350463
 30
0.0
 10
3.9506665782699781
 20
4.7216595151890379
 30
0.0
 10
3.9417438637745175
 20
4.7301115347234841
 30
0.0
 10
3.9229762744608934
 20
4.750460378825859
 30
0.0
 10
3.9074354143512733
 20
4.7734627163193544
 30
0.0
 10
3.899952920041093
 20
4.7868726349857678
 30
0.0
 10
3.8898592823962717
 20
4.8091488613565092
 30
0.0
 10
3.8828831324644937
 20
4.8323575758040676
 30
0.0
 10
3.8807174899592716
 20
4.8411536715949826
 30
0.0
 10
3.876133986987647
 20
4.8648429959801733
 30
0.0
 10
3.8747776520222135
 20
4.8881238932814304
 30
0.0
 10
3.8750809278060032
 20
4.9025822257555713
 30
0.0
 10
3.8770994813989135
 20
4.9228730629186073
 30
0.0
 10
3.8815841833573566
 20
4.943283564057964
 30
0.0
 10
3.8830907428533838
 20
4.9491832552034243
 30
0.0
 10
3.8865042264691727
 20
4.9608477856433861
 30
0.0
 10
3.8907236833522827
 20
4.9722989225717482
 30
0.0
 10
3.8930117046196444
 20
4.977907805902178
 30
0.0
 10
3.8967898692431322
 20
4.9863401226572899
 30
0.0
 10
3.9009949554285606
 20
4.9945524725354264
 30
0.0
 10
3.902503840393984
 20
4.9973726216480898
 30
0.0
 10
3.9040622151571434
 20
5.0001630247924069
 30
0.0
 10
3.9056698098682237
 20
5.0029233998384433
 30
0.0
  0
SPLINE
  5
1D2
100
AcDbEntity
  8
0
370
    35
390
0
 62
     7
 48
0.03937
100
AcDbSpline
210
0.0
220
0.0
230
1.0
 70
     8
 71
     5
 72
    15
 73
     9
 74
     0
 42
0.0
 43
0.0
 40
0.0
 40
0.0
 40
0.0
 40
0.0
 40
0.0
 40
0.0
 40
7.1141819538691182
 40
7.1141819538691182
 40
7.1141819538691182
 40
11.815669366408404
 40
11.815669366408404
 40
11.815669366408404
 40
11.815669366408404
 40
11.815669366408404
 40
11.815669366408404
 10
4.3108928121070615
 20
4.7815490647733903
 30
0.0
 10
4.2953891598989955
 20
4.7547954850612903
 30
0.0
 10
4.2756272838141642
 20
4.7306128937886678
 30
0.0
 10
4.2521669694739233
 20
4.7099077439956272
 30
0.0
 10
4.208476346075372
 20
4.6824843855872027
 30
0.0
 10
4.1596705438459107
 20
4.6677095020025305
 30
0.0
 10
4.1397261105407814
 20
4.6639465120028696
 30
0.0
 10
4.1195685854746253
 20
4.6623512676488943
 30
0.0
 10
4.0995089219970842
 20
4.6629070170142226
 30
0.0
  0
POLYLINE
  5
1D3
100
AcDbEntity
  8
0
370
    35
390
0
 62
     7
 48
0.03937
100
AcDb2dPolyline
 66
     1
 10
0.0
 20
0.0
 30
0.0
 71
     2
  0
VERTEX
  5
1D4
100
AcDbEntity
  8
0
370
     0
390
0
100
AcDbVertex
100
AcDb2dVertex
 10
4.154376
 20
6.726861
 30
0.0
 42
0.040393
  0
VERTEX
  5
1D5
100
AcDbEntity
  8
0
370
     0
390
0
100
AcDbVertex
100
AcDb2dVertex
 10
4.12194
 20
6.733048
 30
0.0
  0
SEQEND
  5
1D6
100
AcDbEntity
  8
0
370
     0
390
0
  0
SPLINE
  5
1D7
100
AcDbEntity
  8
0
370
    35
390
0
 62
     7
 48
0.03937
100
AcDbSpline
210
0.0
220
0.0
230
1.0
 70
     8
 71
     5
 72
    30
 73
    24
 74
     0
 42
0.0
 43
0.0
 40
0.0
 40
0.0
 40
0.0
 40
0.0
 40
0.0
 40
0.0
 40
5.4131050354134356
 40
5.4131050354134356
 40
5.4131050354134356
 40
7.2088531882212585
 40
7.2088531882212585
 40
7.2088531882212585
 40
12.602043696134967
 40
12.602043696134967
 40
12.602043696134967
 40
13.494903810781034
 40
13.494903810781034
 40
13.494903810781034
 40
14.387763925427098
 40
14.387763925427098
 40
14.387763925427098
 40
16.154370250742019
 40
16.154370250742019
 40
16.154370250742019
 40
17.843823435581083
 40
17.843823435581083
 40
17.843823435581083
 40
17.843823435581083
 40
17.843823435581083
 40
17.843823435581083
 10
3.8850997432605547
 20
6.5308750361319374
 30
0.0
 10
3.8858495376684203
 20
6.5526244544493126
 30
0.0
 10
3.8893524541620872
 20
6.5742228949935804
 30
0.0
 10
3.8955828521146878
 20
6.595312871031191
 30
0.0
 10
3.9074337903604732
 20
6.6220071552800777
 30
0.0
 10
3.9233090796742922
 20
6.6459213252801721
 30
0.0
 10
3.9275085664040534
 20
6.6517012493146099
 30
0.0
 10
3.9452263128027192
 20
6.6740470643576018
 30
0.0
 10
3.9666267414924485
 20
6.6932803660969418
 30
0.0
 10
3.9844520643764589
 20
6.705563131033438
 30
0.0
 10
4.006762475124285
 20
6.716999497876837
 30
0.0
 10
4.0301145966625871
 20
6.724910700048178
 30
0.0
 10
4.0334490669667638
 20
6.7259627178583647
 30
0.0
 10
4.0401712031778949
 20
6.7279277551342549
 30
0.0
 10
4.0469317714475368
 20
6.7295983058049247
 30
0.0
 10
4.0503076896799888
 20
6.7303569469784339
 30
0.0
 10
4.0603198937358691
 20
6.7323899108829846
 30
0.0
 10
4.0702036972980382
 20
6.7337679623475415
 30
0.0
 10
4.0767088030742036
 20
6.734412535357432
 30
0.0
 10
4.0894574305903335
 20
6.7351805167201748
 30
0.0
 10
4.1024507960291858
 20
6.7349450370086998
 30
0.0
 10
4.10890864837212
 20
6.7345829836374138
 30
0.0
 10
4.1154450667024243
 20
6.7339449727722789
 30
0.0
 10
4.1219396324289379
 20
6.7330476740123881
 30
0.0
  0
SPLINE
  5
1D8
100
AcDbEntity
  8
0
370
    35
390
0
 62
     7
 48
0.03937
100
AcDbSpline
210
0.0
220
0.0
230
1.0
 70
     8
 71
     5
 72
    21
 73
    15
 74
     0
 42
0.0
 43
0.0
 40
0.0
 40
0.0
 40
0.0
 40
0.0
 40
0.0
 40
0.0
 40
6.8785712432964514
 40
6.8785712432964514
 40
6.8785712432964514
 40
9.1510278611386049
 40
9.1510278611386049
 40
9.1510278611386049
 40
10.277125846108634
 40
10.277125846108634
 40
10.277125846108634
 40
11.380467077772668
 40
11.380467077772668
 40
11.380467077772668
 40
11.380467077772668
 40
11.380467077772668
 40
11.380467077772668
 10
3.9938051518309394
 20
6.3352664179475493
 30
0.0
 10
3.9694046246146395
 20
6.3494768632118008
 30
0.0
 10
3.9473504383178781
 20
6.3675332507626363
 30
0.0
 10
3.9277085980113582
 20
6.3893895539280754
 30
0.0
 10
3.9070216695276807
 20
6.4230898886878691
 30
0.0
 10
3.8945171139775794
 20
6.459001367456473
 30
0.0
 10
3.8919180713486869
 20
6.4680270465288494
 30
0.0
 10
3.8887952674611568
 20
6.4815421881949575
 30
0.0
 10
3.8867742667348293
 20
6.4951275846723773
 30
0.0
 10
3.8862240113414064
 20
6.4996380741168709
 30
0.0
 10
3.8853705489460166
 20
6.5085864930598936
 30
0.0
 10
3.8849847325491549
 20
6.5175580582987545
 30
0.0
 10
3.884908466013322
 20
6.5220024926064264
 30
0.0
 10
3.8849469143237023
 20
6.5264419002817355
 30
0.0
 10
3.8850997432605556
 20
6.5308750361319392
 30
0.0
  0
POLYLINE
  5
1D9
100
AcDbEntity
  8
0
370
    35
390
0
 62
     7
 48
0.03937
100
AcDb2dPolyline
 66
     1
 10
0.0
 20
0.0
 30
0.0
 71
     2
  0
VERTEX
  5
1DA
100
AcDbEntity
  8
0
370
     0
390
0
100
AcDbVertex
100
AcDb2dVertex
 10
4.21518
 20
6.740491
 30
0.0
 42
0.089172
  0
VERTEX
  5
1DB
100
AcDbEntity
  8
0
370
     0
390
0
100
AcDbVertex
100
AcDb2dVertex
 10
4.134854
 20
6.769543
 30
0.0
  0
SEQEND
  5
1DC
100
AcDbEntity
  8
0
370
     0
390
0
  0
POLYLINE
  5
1DD
100
AcDbEntity
  8
0
370
    35
390
0
 62
     7
 48
0.03937
100
AcDb2dPolyline
 66
     1
 10
0.0
 20
0.0
 30
0.0
 71
     2
  0
VERTEX
  5
1DE
100
AcDbEntity
  8
0
370
     0
390
0
100
AcDbVertex
100
AcDb2dVertex
 10
4.154383
 20
6.726863
 30
0.0
 42
0.055723
  0
VERTEX
  5
1DF
100
AcDbEntity
  8
0
370
     0
390
0
100
AcDbVertex
100
AcDb2dVertex
 10
4.134848
 20
6.76954
 30
0.0
  0
SEQEND
  5
1E0
100
AcDbEntity
  8
0
370
     0
390
0
  0
SPLINE
  5
1E1
100
AcDbEntity
  8
0
370
    35
390
0
 62
     7
 48
0.03937
100
AcDbSpline
210
0.0
220
0.0
230
1.0
 70
     8
 71
     5
 72
    33
 73
    27
 74
     0
 42
0.0
 43
0.0
 40
0.0
 40
0.0
 40
0.0
 40
0.0
 40
0.0
 40
0.0
 40
6.5299592607370727
 40
6.5299592607370727
 40
6.5299592607370727
 40
9.4348580808543137
 40
9.4348580808543137
 40
9.4348580808543137
 40
13.055046695644819
 40
13.055046695644819
 40
13.055046695644819
 40
15.242014310638968
 40
15.242014310638968
 40
15.242014310638968
 40
18.91314509887205
 40
18.91314509887205
 40
18.91314509887205
 40
20.401986206265736
 40
20.401986206265736
 40
20.401986206265736
 40
21.868533670907937
 40
21.868533670907937
 40
21.868533670907937
 40
22.646653339130374
 40
22.646653339130374
 40
22.646653339130374
 40
22.646653339130374
 40
22.646653339130374
 40
22.646653339130374
 10
4.3338215346551596
 20
6.5291055300764071
 30
0.0
 10
4.3330496468756738
 20
6.5012443929939305
 30
0.0
 10
4.3281283218957176
 20
6.4735720660915872
 30
0.0
 10
4.3190978718908362
 20
6.44686315259385
 30
0.0
 10
4.3004846962528855
 20
6.4109174127958326
 30
0.0
 10
4.2750690364588291
 20
6.3802631863306365
 30
0.0
 10
4.2666170169888291
 20
6.3713404719365618
 30
0.0
 10
4.2462681731464835
 20
6.3525728828256902
 30
0.0
 10
4.223265836395691
 20
6.3370320230942259
 30
0.0
 10
4.2098559178324058
 20
6.3295495286913654
 30
0.0
 10
4.1875796943218342
 20
6.3194558921810753
 30
0.0
 10
4.1643709824753987
 20
6.3124797425083674
 30
0.0
 10
4.1555748776866963
 20
6.3103140970713838
 30
0.0
 10
4.1318854970785335
 20
6.3057305816940836
 30
0.0
 10
4.1086044156024588
 20
6.3043742436513543
 30
0.0
 10
4.094145930148926
 20
6.3046775412533531
 30
0.0
 10
4.0738549038176082
 20
6.3066961663199814
 30
0.0
 10
4.0534443191806782
 20
6.3111809519121351
 30
0.0
 10
4.0475446184211972
 20
6.312687533971447
 30
0.0
 10
4.0358800752670687
 20
6.3161010619027964
 30
0.0
 10
4.024428945776676
 20
6.3203205589430427
 30
0.0
 10
4.0188200617262515
 20
6.3226086020921448
 30
0.0
 10
4.0103878877296912
 20
6.3263867369876881
 30
0.0
 10
4.002175675315967
 20
6.3305917795636484
 30
0.0
 10
3.999355663649466
 20
6.3321005972358826
 30
0.0
 10
3.9965653951242688
 20
6.3336588999669665
 30
0.0
 10
3.9938051518309394
 20
6.3352664179475493
 30
0.0
  0
SPLINE
  5
1E2
100
AcDbEntity
  8
0
370
    35
390
0
 62
     7
 48
0.03937
100
AcDbSpline
210
0.0
220
0.0
230
1.0
 70
     8
 71
     5
 72
    15
 73
     9
 74
     0
 42
0.0
 43
0.0
 40
0.0
 40
0.0
 40
0.0
 40
0.0
 40
0.0
 40
0.0
 40
7.114181953588937
 40
7.114181953588937
 40
7.114181953588937
 40
11.815669366111667
 40
11.815669366111667
 40
11.815669366111667
 40
11.815669366111667
 40
11.815669366111667
 40
11.815669366111667
 10
4.2151794868959929
 20
6.7404894201863845
 30
0.0
 10
4.2419330666070394
 20
6.7249857679789304
 30
0.0
 10
4.2661156578791326
 20
6.7052238918957965
 30
0.0
 10
4.2868208076754657
 20
6.6817635775516999
 30
0.0
 10
4.3142441660822257
 20
6.6380729541532464
 30
0.0
 10
4.3290190496669805
 20
6.5892671519256183
 30
0.0
 10
4.3327820396663999
 20
6.5693227186199632
 30
0.0
 10
4.3343772840204871
 20
6.5491651935538782
 30
0.0
 10
4.3338215346551596
 20
6.5291055300764071
 30
0.0
  0
POLYLINE
  5
1E3
100
AcDbEntity
  8
0
370
    35
390
0
 62
     7
 48
0.03937
100
AcDb2dPolyline
 66
     1
 10
0.0
 20
0.0
 30
0.0
 71
     2
  0
VERTEX
  5
1E4
100
AcDbEntity
  8
0
370
     0
390
0
100
AcDbVertex
100
AcDb2dVertex
 10
2.269868
 20
6.583973
 30
0.0
 42
0.040393
  0
VERTEX
  5
1E5
100
AcDbEntity
  8
0
370
     0
390
0
100
AcDbVertex
100
AcDb2dVertex
 10
2.263681
 20
6.551536
 30
0.0
  0
SEQEND
  5
1E6
100
AcDbEntity
  8
0
370
     0
390
0
  0
SPLINE
  5
1E7
100
AcDbEntity
  8
0
370
    35
390
0
 62
     7
 48
0.03937
100
AcDbSpline
210
0.0
220
0.0
230
1.0
 70
     8
 71
     5
 72
    30
 73
    24
 74
     0
 42
0.0
 43
0.0
 40
0.0
 40
0.0
 40
0.0
 40
0.0
 40
0.0
 40
0.0
 40
5.4131050903141027
 40
5.4131050903141027
 40
5.4131050903141027
 40
7.2088532616376284
 40
7.2088532616376284
 40
7.2088532616376284
 40
12.602043857122032
 40
12.602043857122032
 40
12.602043857122032
 40
13.494903981612955
 40
13.494903981612955
 40
13.494903981612955
 40
14.387764106103878
 40
14.387764106103878
 40
14.387764106103878
 40
16.154370425010516
 40
16.154370425010516
 40
16.154370425010516
 40
17.843823591624556
 40
17.843823591624556
 40
17.843823591624556
 40
17.843823591624556
 40
17.843823591624556
 40
17.843823591624556
 10
2.4658535155374439
 20
6.3146963513398795
 30
0.0
 10
2.4441040969994834
 20
6.3154461457553488
 30
0.0
 10
2.4225056562378158
 20
6.318949062312579
 30
0.0
 10
2.4014156800203064
 20
6.3251794603819471
 30
0.0
 10
2.3747213955781343
 20
6.3370303988281194
 30
0.0
 10
2.3508072254305268
 20
6.3529056884211546
 30
0.0
 10
2.3450273013614478
 20
6.3571051752267467
 30
0.0
 10
2.3226814861094063
 20
6.3748229220107557
 30
0.0
 10
2.3034481841339334
 20
6.3962233513131368
 30
0.0
 10
2.2911654191061928
 20
6.4140486747861365
 30
0.0
 10
2.2797290523650742
 20
6.4363590862045292
 30
0.0
 10
2.2718178504832109
 20
6.4597112082430144
 30
0.0
 10
2.2707658327219113
 20
6.4630456785982098
 30
0.0
 10
2.2688007955427563
 20
6.469767814933868
 30
0.0
 10
2.2671302449952675
 20
6.4765283832443465
 30
0.0
 10
2.2663716038918835
 20
6.479904301461457
 30
0.0
 10
2.2643386402331025
 20
6.4899165052483188
 30
0.0
 10
2.2629605890204689
 20
6.4998003081947626
 30
0.0
 10
2.2623160161530462
 20
6.5063054133905398
 30
0.0
 10
2.2615480349618493
 20
6.5190540397739642
 30
0.0
 10
2.2617835146923202
 20
6.5320474044709789
 30
0.0
 10
2.2621455680457325
 20
6.5385052565924777
 30
0.0
 10
2.2627835789067832
 20
6.5450416748518077
 30
0.0
 10
2.2636808776569937
 20
6.55153624050826
 30
0.0
  0
SPLINE
  5
1E8
100
AcDbEntity
  8
0
370
    35
390
0
 62
     7
 48
0.03937
100
AcDbSpline
210
0.0
220
0.0
230
1.0
 70
     8
 71
     5
 72
    21
 73
    15
 74
     0
 42
0.0
 43
0.0
 40
0.0
 40
0.0
 40
0.0
 40
0.0
 40
0.0
 40
0.0
 40
6.8785715054378516
 40
6.8785715054378516
 40
6.8785715054378516
 40
9.1510282452545937
 40
9.1510282452545937
 40
9.1510282452545937
 40
10.277126319572323
 40
10.277126319572323
 40
10.277126319572323
 40
11.380467647112201
 40
11.380467647112201
 40
11.380467647112201
 40
11.380467647112201
 40
11.380467647112201
 40
11.380467647112201
 10
2.6614621337218343
 20
6.4234017599102646
 30
0.0
 10
2.6472516879160235
 20
6.3990012317640632
 30
0.0
 10
2.6291952995305445
 20
6.3769470447162888
 30
0.0
 10
2.6073389968009222
 20
6.3573052062740052
 30
0.0
 10
2.5736386657808197
 20
6.3366182792738259
 30
0.0
 10
2.5377271883917385
 20
6.3241137233714033
 30
0.0
 10
2.5287015093526111
 20
6.3215146805318474
 30
0.0
 10
2.5151863672460251
 20
6.3183918762564417
 30
0.0
 10
2.5016009699967325
 20
6.3163708752008985
 30
0.0
 10
2.4970904801919853
 20
6.3158206197031612
 30
0.0
 10
2.4881420605125668
 20
6.3149671571377368
 30
0.0
 10
2.4791704945292374
 20
6.314581340648374
 30
0.0
 10
2.4747260598344867
 20
6.3145050740859672
 30
0.0
 10
2.4702866517728692
 20
6.314543522389747
 30
0.0
 10
2.4658535155374444
 20
6.3146963513398795
 30
0.0
  0
POLYLINE
  5
1E9
100
AcDbEntity
  8
0
370
    35
390
0
 62
     7
 48
0.03937
100
AcDb2dPolyline
 66
     1
 10
0.0
 20
0.0
 30
0.0
 71
     2
  0
VERTEX
  5
1EA
100
AcDbEntity
  8
0
370
     0
390
0
100
AcDbVertex
100
AcDb2dVertex
 10
2.256238
 20
6.644777
 30
0.0
 42
0.089172
  0
VERTEX
  5
1EB
100
AcDbEntity
  8
0
370
     0
390
0
100
AcDbVertex
100
AcDb2dVertex
 10
2.227186
 20
6.56445
 30
0.0
  0
SEQEND
  5
1EC
100
AcDbEntity
  8
0
370
     0
390
0
  0
POLYLINE
  5
1ED
100
AcDbEntity
  8
0
370
    35
390
0
 62
     7
 48
0.03937
100
AcDb2dPolyline
 66
     1
 10
0.0
 20
0.0
 30
0.0
 71
     2
  0
VERTEX
  5
1EE
100
AcDbEntity
  8
0
370
     0
390
0
100
AcDbVertex
100
AcDb2dVertex
 10
2.269865
 20
6.583979
 30
0.0
 42
0.055723
  0
VERTEX
  5
1EF
100
AcDbEntity
  8
0
370
     0
390
0
100
AcDbVertex
100
AcDb2dVertex
 10
2.227188
 20
6.564445
 30
0.0
  0
SEQEND
  5
1F0
100
AcDbEntity
  8
0
370
     0
390
0
  0
SPLINE
  5
1F1
100
AcDbEntity
  8
0
370
    35
390
0
 62
     7
 48
0.03937
100
AcDbSpline
210
0.0
220
0.0
230
1.0
 70
     8
 71
     5
 72
    33
 73
    27
 74
     0
 42
0.0
 43
0.0
 40
0.0
 40
0.0
 40
0.0
 40
0.0
 40
0.0
 40
0.0
 40
6.5299592636771653
 40
6.5299592636771653
 40
6.5299592636771653
 40
9.4348580836053593
 40
9.4348580836053593
 40
9.4348580836053593
 40
13.055046627616328
 40
13.055046627616328
 40
13.055046627616328
 40
15.242014258476708
 40
15.242014258476708
 40
15.242014258476708
 40
18.9131447403267
 40
18.9131447403267
 40
18.9131447403267
 40
20.401985834181623
 40
20.401985834181623
 40
20.401985834181623
 40
21.868533120129175
 40
21.868533120129175
 40
21.868533120129175
 40
22.646655294046454
 40
22.646655294046454
 40
22.646655294046454
 40
22.646655294046454
 40
22.646655294046454
 40
22.646655294046454
 10
2.4676230215929751
 20
6.7634181427344844
 30
0.0
 10
2.4954841586879972
 20
6.7626462549546504
 30
0.0
 10
2.5231564856026232
 20
6.757724929971423
 30
0.0
 10
2.5498653990737639
 20
6.7486944799609958
 30
0.0
 10
2.5858111388255982
 20
6.7300813043646341
 30
0.0
 10
2.6164653653214569
 20
6.7046656445546891
 30
0.0
 10
2.6253880797665023
 20
6.6962136250564583
 30
0.0
 10
2.6441556689911017
 20
6.6758647810724252
 30
0.0
 10
2.6596965289415575
 20
6.6528624438992674
 30
0.0
 10
2.6671790232926895
 20
6.6394525252772931
 30
0.0
 10
2.6772726597327052
 20
6.6171763017243288
 30
0.0
 10
2.6842488092792252
 20
6.593967590122273
 30
0.0
 10
2.6864144544924704
 20
6.5851714860697097
 30
0.0
 10
2.6909979690387398
 20
6.5614821093777822
 30
0.0
 10
2.6923543069161053
 20
6.5382010403053652
 30
0.0
 10
2.6920510107960127
 20
6.5237425650554091
 30
0.0
 10
2.6900323905368788
 20
6.5034515513655657
 30
0.0
 10
2.685547610581112
 20
6.4830409723463358
 30
0.0
 10
2.6840410300474673
 20
6.4771412722511448
 30
0.0
 10
2.6806275051092174
 20
6.4654767299623694
 30
0.0
 10
2.6764080107863006
 20
6.4540255999862994
 30
0.0
 10
2.6741199691104525
 20
6.4484167159749353
 30
0.0
 10
2.6703418322050618
 20
6.43998453233635
 30
0.0
 10
2.6661367866816588
 20
6.431772310638296
 30
0.0
 10
2.6646279644695667
 20
6.4289522896991933
 30
0.0
 10
2.6630696568789332
 20
6.4261620120921084
 30
0.0
 10
2.6614621337218347
 20
6.4234017599102646
 30
0.0
  0
SPLINE
  5
1F2
100
AcDbEntity
  8
0
370
    35
390
0
 62
     7
 48
0.03937
100
AcDbSpline
210
0.0
220
0.0
230
1.0
 70
     8
 71
     5
 72
    15
 73
     9
 74
     0
 42
0.0
 43
0.0
 40
0.0
 40
0.0
 40
0.0
 40
0.0
 40
0.0
 40
0.0
 40
7.1141819536143398
 40
7.1141819536143398
 40
7.1141819536143398
 40
11.815669366137868
 40
11.815669366137868
 40
11.815669366137868
 40
11.815669366137868
 40
11.815669366137868
 40
11.815669366137868
 10
2.2562391314829973
 20
6.6447760949753167
 30
0.0
 10
2.2717427836905077
 20
6.6715296746864592
 30
0.0
 10
2.2915046597733517
 20
6.6957122659587371
 30
0.0
 10
2.3149649741177081
 20
6.7164174157543703
 30
0.0
 10
2.358655597515892
 20
6.7438407741616926
 30
0.0
 10
2.4074613997438656
 20
6.7586156577462138
 30
0.0
 10
2.4274058330494119
 20
6.7623786477459227
 30
0.0
 10
2.447563358115501
 20
6.7639738920998118
 30
0.0
 10
2.4676230215929746
 20
6.7634181427344844
 30
0.0
  0
CIRCLE
  5
1F3
100
AcDbEntity
  8
0
370
    35
390
0
 62
     7
 48
0.03937
100
AcDbCircle
 10
3.283566
 20
5.713163
 30
0.0
 40
0.242545
210
0.0
220
0.0
230
1.0
  0
POLYLINE
  5
1F4
100
AcDbEntity
  8
0
370
    35
390
0
 62
     7
 48
0.03937
100
AcDb2dPolyline
 66
     1
 10
0.0
 20
0.0
 30
0.0
 71
     2
  0
VERTEX
  5
1F5
100
AcDbEntity
  8
0
370
     0
390
0
100
AcDbVertex
100
AcDb2dVertex
 10
2.263681
 20
6.551538
 30
0.0
 42
1.055371
  0
VERTEX
  5
1F6
100
AcDbEntity
  8
0
370
     0
390
0
100
AcDbVertex
100
AcDb2dVertex
 10
2.67191
 20
6.529527
 30
0.0
  0
SEQEND
  5
1F7
100
AcDbEntity
  8
0
370
     0
390
0
  0
POLYLINE
  5
1F8
100
AcDbEntity
  8
0
370
    35
390
0
 62
     7
 48
0.03937
100
AcDb2dPolyline
 66
     1
 10
0.0
 20
0.0
 30
0.0
 71
     2
  0
VERTEX
  5
1F9
100
AcDbEntity
  8
0
370
     0
390
0
100
AcDbVertex
100
AcDb2dVertex
 10
4.198072
 20
6.709175
 30
0.0
 42
1.287427
  0
VERTEX
  5
1FA
100
AcDbEntity
  8
0
370
     0
390
0
100
AcDbVertex
100
AcDb2dVertex
 10
4.09993
 20
6.324819
 30
0.0
  0
SEQEND
  5
1FB
100
AcDbEntity
  8
0
370
     0
390
0
  0
POLYLINE
  5
1FC
100
AcDbEntity
  8
0
370
    35
390
0
 62
     7
 48
0.03937
100
AcDb2dPolyline
 66
     1
 10
0.0
 20
0.0
 30
0.0
 71
     2
  0
VERTEX
  5
1FD
100
AcDbEntity
  8
0
370
     0
390
0
100
AcDbVertex
100
AcDb2dVertex
 10
4.279578
 20
4.798656
 30
0.0
 42
1.287427
  0
VERTEX
  5
1FE
100
AcDbEntity
  8
0
370
     0
390
0
100
AcDbVertex
100
AcDb2dVertex
 10
3.895222
 20
4.896799
 30
0.0
  0
SEQEND
  5
1FF
100
AcDbEntity
  8
0
370
     0
390
0
  0
POLYLINE
  5
200
100
AcDbEntity
  8
0
370
    35
390
0
 62
     7
 48
0.03937
100
AcDb2dPolyline
 66
     1
 10
0.0
 20
0.0
 30
0.0
 71
     2
  0
VERTEX
  5
201
100
AcDbEntity
  8
0
370
     0
390
0
100
AcDbVertex
100
AcDb2dVertex
 10
3.895222
 20
4.896799
 30
0.0
 42
0.873704
  0
VERTEX
  5
202
100
AcDbEntity
  8
0
370
     0
390
0
100
AcDbVertex
100
AcDb2dVertex
 10
4.297264
 20
4.842352
 30
0.0
  0
SEQEND
  5
203
100
AcDbEntity
  8
0
370
     0
390
0
  0
POLYLINE
  5
204
100
AcDbEntity
  8
0
370
    35
390
0
 62
     7
 48
0.03937
100
AcDb2dPolyline
 66
     1
 10
0.0
 20
0.0
 30
0.0
 71
     2
  0
VERTEX
  5
205
100
AcDbEntity
  8
0
370
     0
390
0
100
AcDbVertex
100
AcDb2dVertex
 10
4.09993
 20
6.324819
 30
0.0
 42
0.873704
  0
VERTEX
  5
206
100
AcDbEntity
  8
0
370
     0
390
0
100
AcDbVertex
100
AcDb2dVertex
 10
4.154376
 20
6.726861
 30
0.0
  0
SEQEND
  5
207
100
AcDbEntity
  8
0
370
     0
390
0
  0
POLYLINE
  5
208
100
AcDbEntity
  8
0
370
    35
390
0
 62
     7
 48
0.03937
100
AcDb2dPolyline
 66
     1
 10
0.0
 20
0.0
 30
0.0
 71
     2
  0
VERTEX
  5
209
100
AcDbEntity
  8
0
370
     0
390
0
100
AcDbVertex
100
AcDb2dVertex
 10
2.67191
 20
6.529527
 30
0.0
 42
0.873704
  0
VERTEX
  5
20A
100
AcDbEntity
  8
0
370
     0
390
0
100
AcDbVertex
100
AcDb2dVertex
 10
2.269868
 20
6.583973
 30
0.0
  0
SEQEND
  5
20B
100
AcDbEntity
  8
0
370
     0
390
0
  0
LINE
  5
20C
100
AcDbEntity
  8
0
370
    35
390
0
 62
     7
 48
0.03937
100
AcDbLine
 10
3.041021
 20
1.353077
 30
0.0
 11
3.041021
 21
2.626437
 31
0.0
210
0.0
220
0.0
230
1.0
  0
LINE
  5
20D
100
AcDbEntity
  8
0
370
    35
390
0
 62
     7
 48
0.010672
100
AcDbLine
 10
3.041021
 20
2.626437
 30
0.0
 11
2.614142
 21
2.626437
 31
0.0
210
0.0
220
0.0
230
1.0
  0
LINE
  5
20E
100
AcDbEntity
  8
0
370
    35
390
0
 62
     7
 48
0.001516
100
AcDbLine
 10
2.614142
 20
2.565801
 30
0.0
 11
2.614142
 21
2.626437
 31
0.0
210
0.0
220
0.0
230
1.0
  0
LINE
  5
20F
100
AcDbEntity
  8
0
370
    35
390
0
 62
     7
 48
0.03937
100
AcDbLine
 10
2.614142
 20
2.565801
 30
0.0
 11
1.585753
 21
2.565801
 31
0.0
210
0.0
220
0.0
230
1.0
  0
LINE
  5
210
100
AcDbEntity
  8
0
370
    35
390
0
 62
     7
 48
0.03937
100
AcDbLine
 10
1.585753
 20
1.353077
 30
0.0
 11
1.585753
 21
2.565801
 31
0.0
210
0.0
220
0.0
230
1.0
  0
LINE
  5
211
100
AcDbEntity
  8
0
370
    35
390
0
 62
     7
 48
0.03937
100
AcDbLine
 10
3.041021
 20
1.353077
 30
0.0
 11
1.585753
 21
1.353077
 31
0.0
210
0.0
220
0.0
230
1.0
  0
LINE
  5
212
100
AcDbEntity
  8
0
370
    35
390
0
 62
     7
 48
0.03937
100
AcDbLine
 10
4.981379
 20
1.353077
 30
0.0
 11
3.526111
 21
1.353077
 31
0.0
210
0.0
220
0.0
230
1.0
  0
LINE
  5
213
100
AcDbEntity
  8
0
370
    35
390
0
 62
     7
 48
0.03937
100
AcDbLine
 10
4.981379
 20
1.353077
 30
0.0
 11
4.981379
 21
2.565801
 31
0.0
210
0.0
220
0.0
230
1.0
  0
LINE
  5
214
100
AcDbEntity
  8
0
370
    35
390
0
 62
     7
 48
0.03937
100
AcDbLine
 10
4.981379
 20
2.565801
 30
0.0
 11
3.952989
 21
2.565801
 31
0.0
210
0.0
220
0.0
230
1.0
  0
LINE
  5
215
100
AcDbEntity
  8
0
370
    35
390
0
 62
     7
 48
0.001516
100
AcDbLine
 10
3.952989
 20
2.565801
 30
0.0
 11
3.952989
 21
2.626437
 31
0.0
210
0.0
220
0.0
230
1.0
  0
LINE
  5
216
100
AcDbEntity
  8
0
370
    35
390
0
 62
     7
 48
0.010672
100
AcDbLine
 10
3.952989
 20
2.626437
 30
0.0
 11
3.526111
 21
2.626437
 31
0.0
210
0.0
220
0.0
230
1.0
  0
LINE
  5
217
100
AcDbEntity
  8
0
370
    35
390
0
 62
     7
 48
0.03937
100
AcDbLine
 10
3.526111
 20
1.353077
 30
0.0
 11
3.526111
 21
2.626437
 31
0.0
210
0.0
220
0.0
230
1.0
  0
POLYLINE
  5
218
100
AcDbEntity
  8
0
370
    35
390
0
 62
     7
 48
0.03937
100
AcDb2dPolyline
 66
     1
 10
0.0
 20
0.0
 30
0.0
 71
     2
  0
VERTEX
  5
219
100
AcDbEntity
  8
0
370
     0
390
0
100
AcDbVertex
100
AcDb2dVertex
 10
7.201561
 20
4.752422
 30
0.0
 42
0.021265
  0
VERTEX
  5
21A
100
AcDbEntity
  8
0
370
     0
390
0
100
AcDbVertex
100
AcDb2dVertex
 10
7.20079
 20
4.724783
 30
0.0
  0
SEQEND
  5
21B
100
AcDbEntity
  8
0
370
     0
390
0
  0
SPLINE
  5
21C
100
AcDbEntity
  8
0
370
    35
390
0
 62
     7
 48
0.03937
100
AcDbSpline
210
0.0
220
0.0
230
1.0
 70
     8
 71
     5
 72
    15
 73
     9
 74
     0
 42
0.0
 43
0.0
 40
0.0
 40
0.0
 40
0.0
 40
0.0
 40
0.0
 40
0.0
 40
6.0750569869328048
 40
6.0750569869328048
 40
6.0750569869328048
 40
8.7478995617994411
 40
8.7478995617994411
 40
8.7478995617994411
 40
8.7478995617994411
 40
8.7478995617994411
 40
8.7478995617994411
 10
7.2788180744499957
 20
4.5005662068147929
 30
0.0
 10
7.2588016795523362
 20
4.5253726791570177
 30
0.0
 10
7.2415363938476069
 20
4.5540553598018327
 30
0.0
 10
7.2274133707090567
 20
4.5851586505418256
 30
0.0
 10
7.2118386499689642
 20
4.6321066688599126
 30
0.0
 10
7.2037381118560635
 20
4.6804574201248723
 30
0.0
 10
7.2019870811260791
 20
4.6952872145587774
 30
0.0
 10
7.2009918099419741
 20
4.7100941870079147
 30
0.0
 10
7.2007884087547636
 20
4.7247833835622721
 30
0.0
  0
POLYLINE
  5
21D
100
AcDbEntity
  8
0
370
    35
390
0
 62
     7
 48
0.03937
100
AcDb2dPolyline
 66
     1
 10
0.0
 20
0.0
 30
0.0
 71
     2
  0
VERTEX
  5
21E
100
AcDbEntity
  8
0
370
     0
390
0
100
AcDbVertex
100
AcDb2dVertex
 10
7.199923
 20
4.740849
 30
0.0
 42
0.029225
  0
VERTEX
  5
21F
100
AcDbEntity
  8
0
370
     0
390
0
100
AcDbVertex
100
AcDb2dVertex
 10
7.198159
 20
4.709599
 30
0.0
  0
SEQEND
  5
220
100
AcDbEntity
  8
0
370
     0
390
0
  0
POLYLINE
  5
221
100
AcDbEntity
  8
0
370
    35
390
0
 62
     7
 48
0.03937
100
AcDb2dPolyline
 66
     1
 10
0.0
 20
0.0
 30
0.0
 71
     2
  0
VERTEX
  5
222
100
AcDbEntity
  8
0
370
     0
390
0
100
AcDbVertex
100
AcDb2dVertex
 10
7.201684
 20
4.753147
 30
0.0
 42
0.012962
  0
VERTEX
  5
223
100
AcDbEntity
  8
0
370
     0
390
0
100
AcDbVertex
100
AcDb2dVertex
 10
7.199925
 20
4.740849
 30
0.0
  0
SEQEND
  5
224
100
AcDbEntity
  8
0
370
     0
390
0
  0
SPLINE
  5
225
100
AcDbEntity
  8
0
370
    35
390
0
 62
     7
 48
0.03937
100
AcDbSpline
210
0.0
220
0.0
230
1.0
 70
     8
 71
     5
 72
    15
 73
     9
 74
     0
 42
0.0
 43
0.0
 40
0.0
 40
0.0
 40
0.0
 40
0.0
 40
0.0
 40
0.0
 40
6.0893382771435958
 40
6.0893382771435958
 40
6.0893382771435958
 40
10.05829477982148
 40
10.05829477982148
 40
10.05829477982148
 40
10.05829477982148
 40
10.05829477982148
 40
10.05829477982148
 10
7.1967339787869564
 20
4.7055904894512013
 30
0.0
 10
7.1970582078011072
 20
4.6802939782113313
 30
0.0
 10
7.200142592431817
 20
4.6544053186827048
 30
0.0
 10
7.2058239456696498
 20
4.6286826708686233
 30
0.0
 10
7.2191199580406789
 20
4.587550796507557
 30
0.0
 10
7.2382921689161988
 20
4.5503776074475688
 30
0.0
 10
7.2467626947346568
 20
4.5363949340104766
 30
0.0
 10
7.2560565786229914
 20
4.5234335077122214
 30
0.0
 10
7.2659476979826962
 20
4.5117975831931512
 30
0.0
  0
POLYLINE
  5
226
100
AcDbEntity
  8
0
370
    35
390
0
 62
     7
 48
0.03937
100
AcDb2dPolyline
 66
     1
 10
0.0
 20
0.0
 30
0.0
 71
     2
  0
VERTEX
  5
227
100
AcDbEntity
  8
0
370
     0
390
0
100
AcDbVertex
100
AcDb2dVertex
 10
7.20057
 20
4.754644
 30
0.0
 42
0.047347
  0
VERTEX
  5
228
100
AcDbEntity
  8
0
370
     0
390
0
100
AcDbVertex
100
AcDb2dVertex
 10
7.196744
 20
4.705591
 30
0.0
  0
SEQEND
  5
229
100
AcDbEntity
  8
0
370
     0
390
0
  0
SPLINE
  5
22A
100
AcDbEntity
  8
0
370
    35
390
0
 62
     7
 48
0.03937
100
AcDbSpline
210
0.0
220
0.0
230
1.0
 70
     8
 71
     5
 72
    15
 73
     9
 74
     0
 42
0.0
 43
0.0
 40
0.0
 40
0.0
 40
0.0
 40
0.0
 40
0.0
 40
0.0
 40
6.1917444322868764
 40
6.1917444322868764
 40
6.1917444322868764
 40
10.230221498905109
 40
10.230221498905109
 40
10.230221498905109
 40
10.230221498905109
 40
10.230221498905109
 40
10.230221498905109
 10
7.1981569292288743
 20
4.7095994705883895
 30
0.0
 10
7.1981715486153535
 20
4.6839485863415362
 30
0.0
 10
7.2010540429221752
 20
4.657619617584678
 30
0.0
 10
7.2066343177576089
 20
4.6314373750430304
 30
0.0
 10
7.2198962579583466
 20
4.5895356790856834
 30
0.0
 10
7.2392973863420664
 20
4.5515778133729778
 30
0.0
 10
7.2478951392464932
 20
4.5373061015199045
 30
0.0
 10
7.2573379530234048
 20
4.5241003294132849
 30
0.0
 10
7.2673936244131276
 20
4.5122702239950536
 30
0.0
  0
POLYLINE
  5
22B
100
AcDbEntity
  8
0
370
    35
390
0
 62
     7
 48
0.03937
100
AcDb2dPolyline
 66
     1
 10
0.0
 20
0.0
 30
0.0
 71
     2
  0
VERTEX
  5
22C
100
AcDbEntity
  8
0
370
     0
390
0
100
AcDbVertex
100
AcDb2dVertex
 10
7.267394
 20
4.51227
 30
0.0
 42
0.010949
  0
VERTEX
  5
22D
100
AcDbEntity
  8
0
370
     0
390
0
100
AcDbVertex
100
AcDb2dVertex
 10
7.273623
 20
4.505255
 30
0.0
  0
SEQEND
  5
22E
100
AcDbEntity
  8
0
370
     0
390
0
  0
LINE
  5
22F
100
AcDbEntity
  8
0
370
    35
390
0
 62
     7
 48
0.000186
100
AcDbLine
 10
7.273623
 20
4.505255
 30
0.0
 11
7.278785
 21
4.499896
 31
0.0
210
0.0
220
0.0
230
1.0
  0
POLYLINE
  5
230
100
AcDbEntity
  8
0
370
    35
390
0
 62
     7
 48
0.03937
100
AcDb2dPolyline
 66
     1
 10
0.0
 20
0.0
 30
0.0
 71
     2
  0
VERTEX
  5
231
100
AcDbEntity
  8
0
370
     0
390
0
100
AcDbVertex
100
AcDb2dVertex
 10
7.145295
 20
4.73403
 30
0.0
 42
0.021265
  0
VERTEX
  5
232
100
AcDbEntity
  8
0
370
     0
390
0
100
AcDbVertex
100
AcDb2dVertex
 10
7.144524
 20
4.706391
 30
0.0
  0
SEQEND
  5
233
100
AcDbEntity
  8
0
370
     0
390
0
  0
SPLINE
  5
234
100
AcDbEntity
  8
0
370
    35
390
0
 62
     7
 48
0.03937
100
AcDbSpline
210
0.0
220
0.0
230
1.0
 70
     8
 71
     5
 72
    15
 73
     9
 74
     0
 42
0.0
 43
0.0
 40
0.0
 40
0.0
 40
0.0
 40
0.0
 40
0.0
 40
0.0
 40
6.1922132555453002
 40
6.1922132555453002
 40
6.1922132555453002
 40
8.9240810760676048
 40
8.9240810760676048
 40
8.9240810760676048
 40
8.9240810760676048
 40
8.9240810760676048
 40
8.9240810760676048
 10
7.2254844472228017
 20
4.4786025923801853
 30
0.0
 10
7.2047583804550586
 20
4.5034202100400877
 30
0.0
 10
7.1868493404417038
 20
4.5324043886638314
 30
0.0
 10
7.1721960018392998
 20
4.5639746484332777
 30
0.0
 10
7.1560134689194657
 20
4.6117711857807571
 30
0.0
 10
7.1475897404964419
 20
4.6610829600732933
 30
0.0
 10
7.1457659424950588
 20
4.6762412662124904
 30
0.0
 10
7.144730819109566
 20
4.6913778810245566
 30
0.0
 10
7.1445229261438881
 20
4.7063914638484068
 30
0.0
  0
POLYLINE
  5
235
100
AcDbEntity
  8
0
370
    35
390
0
 62
     7
 48
0.03937
100
AcDb2dPolyline
 66
     1
 10
0.0
 20
0.0
 30
0.0
 71
     2
  0
VERTEX
  5
236
100
AcDbEntity
  8
0
370
     0
390
0
100
AcDbVertex
100
AcDb2dVertex
 10
7.265949
 20
4.511798
 30
0.0
 42
0.02268
  0
VERTEX
  5
237
100
AcDbEntity
  8
0
370
     0
390
0
100
AcDbVertex
100
AcDb2dVertex
 10
7.27869
 20
4.498085
 30
0.0
  0
SEQEND
  5
238
100
AcDbEntity
  8
0
370
     0
390
0
  0
POLYLINE
  5
239
100
AcDbEntity
  8
0
370
    35
390
0
 62
     7
 48
0.03937
100
AcDb2dPolyline
 66
     1
 10
0.0
 20
0.0
 30
0.0
 71
     2
  0
VERTEX
  5
23A
100
AcDbEntity
  8
0
370
     0
390
0
100
AcDbVertex
100
AcDb2dVertex
 10
7.143657
 20
4.722457
 30
0.0
 42
0.029225
  0
VERTEX
  5
23B
100
AcDbEntity
  8
0
370
     0
390
0
100
AcDbVertex
100
AcDb2dVertex
 10
7.141894
 20
4.691208
 30
0.0
  0
SEQEND
  5
23C
100
AcDbEntity
  8
0
370
     0
390
0
  0
ELLIPSE
  5
23D
100
AcDbEntity
  8
0
370
    35
390
0
 62
     7
 48
0.03937
100
AcDbEllipse
 10
7.288354
 20
4.635781
 30
0.0
 11
0.0646719679344397
 21
-0.2085980836791075
 31
0.0
210
0.0
220
0.0
230
1.0
 40
0.629981
 41
3.6958691126204415
 42
4.0994462613596383
  0
SPLINE
  5
23E
100
AcDbEntity
  8
0
370
    35
390
0
 62
     7
 48
0.03937
100
AcDbSpline
210
0.0
220
0.0
230
1.0
 70
     8
 71
     5
 72
    15
 73
     9
 74
     0
 42
0.0
 43
0.0
 40
0.0
 40
0.0
 40
0.0
 40
0.0
 40
0.0
 40
0.0
 40
6.0893430460531643
 40
6.0893430460531643
 40
6.0893430460531643
 40
10.058297674767367
 40
10.058297674767367
 40
10.058297674767367
 40
10.058297674767367
 40
10.058297674767367
 40
10.058297674767367
 10
7.1404684961760827
 20
4.6871985697373351
 30
0.0
 10
7.1407927254588399
 20
4.6619020386920305
 30
0.0
 10
7.1438771178290423
 20
4.6360133515021502
 30
0.0
 10
7.1495584882185064
 20
4.6102906686375187
 30
0.0
 10
7.1628545269718416
 20
4.5691587682093706
 30
0.0
 10
7.1820267582027295
 20
4.5319855756408183
 30
0.0
 10
7.1904972706220711
 20
4.5180029433498916
 30
0.0
 10
7.1997911218528241
 20
4.5050415624811908
 30
0.0
 10
7.2096822174631212
 20
4.4934056641628839
 30
0.0
  0
ELLIPSE
  5
23F
100
AcDbEntity
  8
0
370
    35
390
0
 62
     7
 48
0.03937
100
AcDbEllipse
 10
7.285303
 20
4.636761
 30
0.0
 11
0.0627950227303918
 21
-0.2071425253667063
 31
0.0
210
0.0
220
0.0
230
1.0
 40
0.630192
 41
3.6941369310703474
 42
4.2821151979811791
  0
SPLINE
  5
240
100
AcDbEntity
  8
0
370
    35
390
0
 62
     7
 48
0.03937
100
AcDbSpline
210
0.0
220
0.0
230
1.0
 70
     8
 71
     5
 72
    15
 73
     9
 74
     0
 42
0.0
 43
0.0
 40
0.0
 40
0.0
 40
0.0
 40
0.0
 40
0.0
 40
0.0
 40
6.1917408700003893
 40
6.1917408700003893
 40
6.1917408700003893
 40
10.230222189100299
 40
10.230222189100299
 40
10.230222189100299
 40
10.230222189100299
 40
10.230222189100299
 40
10.230222189100299
 10
7.1418914466180006
 20
4.6912075508745241
 30
0.0
 10
7.1419060660057463
 20
4.6655566813885168
 30
0.0
 10
7.144788558806666
 20
4.6392277381985059
 30
0.0
 10
7.1503688236813767
 20
4.6130455399817762
 30
0.0
 10
7.1636307410777542
 20
4.5711438659578203
 30
0.0
 10
7.1830318507244275
 20
4.533185990869625
 30
0.0
 10
7.1916296145436398
 20
4.5189142417233299
 30
0.0
 10
7.2010724518802967
 20
4.5057084323912129
 30
0.0
 10
7.211128141815772
 20
4.493878304285607
 30
0.0
  0
POLYLINE
  5
241
100
AcDbEntity
  8
0
370
    35
390
0
 62
     7
 48
0.03937
100
AcDb2dPolyline
 66
     1
 10
0.0
 20
0.0
 30
0.0
 71
     2
  0
VERTEX
  5
242
100
AcDbEntity
  8
0
370
     0
390
0
100
AcDbVertex
100
AcDb2dVertex
 10
7.211128
 20
4.493878
 30
0.0
 42
0.010949
  0
VERTEX
  5
243
100
AcDbEntity
  8
0
370
     0
390
0
100
AcDbVertex
100
AcDb2dVertex
 10
7.217358
 20
4.486863
 30
0.0
  0
SEQEND
  5
244
100
AcDbEntity
  8
0
370
     0
390
0
  0
ELLIPSE
  5
245
100
AcDbEntity
  8
0
370
    35
390
0
 62
     7
 48
0.03937
100
AcDbEllipse
 10
7.26429
 20
4.627523
 30
0.0
 11
0.0569878677515663
 21
-0.181935618841489
 31
0.0
210
0.0
220
0.0
230
1.0
 40
0.586756
 41
5.394551894459557
 42
5.7925268933594918
  0
POLYLINE
  5
246
100
AcDbEntity
  8
0
370
    35
390
0
 62
     7
 48
0.03937
100
AcDb2dPolyline
 66
     1
 10
0.0
 20
0.0
 30
0.0
 71
     2
  0
VERTEX
  5
247
100
AcDbEntity
  8
0
370
     0
390
0
100
AcDbVertex
100
AcDb2dVertex
 10
7.08903
 20
4.715638
 30
0.0
 42
0.021265
  0
VERTEX
  5
248
100
AcDbEntity
  8
0
370
     0
390
0
100
AcDbVertex
100
AcDb2dVertex
 10
7.088259
 20
4.688
 30
0.0
  0
SEQEND
  5
249
100
AcDbEntity
  8
0
370
     0
390
0
  0
SPLINE
  5
24A
100
AcDbEntity
  8
0
370
    35
390
0
 62
     7
 48
0.03937
100
AcDbSpline
210
0.0
220
0.0
230
1.0
 70
     8
 71
     5
 72
    15
 73
     9
 74
     0
 42
0.0
 43
0.0
 40
0.0
 40
0.0
 40
0.0
 40
0.0
 40
0.0
 40
0.0
 40
6.1922121576202693
 40
6.1922121576202693
 40
6.1922121576202693
 40
8.9240792171660672
 40
8.9240792171660672
 40
8.9240792171660672
 40
8.9240792171660672
 40
8.9240792171660672
 40
8.9240792171660672
 10
7.1692189799964616
 20
4.4602106572541356
 30
0.0
 10
7.1484929100388301
 20
4.4850282752470036
 30
0.0
 10
7.1305838648716806
 20
4.5140124572128064
 30
0.0
 10
7.1159305211171491
 20
4.5455827230430481
 30
0.0
 10
7.0997479851545373
 20
4.5933792692279534
 30
0.0
 10
7.0913242570141737
 20
4.6426910472930905
 30
0.0
 10
7.0895004594307158
 20
4.6578493526836233
 30
0.0
 10
7.0884653364394801
 20
4.6729859654921801
 30
0.0
 10
7.088257443533017
 20
4.6879995441345415
 30
0.0
  0
ELLIPSE
  5
24B
100
AcDbEntity
  8
0
370
    35
390
0
 62
     7
 48
0.03937
100
AcDbEllipse
 10
7.262803
 20
4.627341
 30
0.0
 11
0.0569811569467448
 21
-0.1822342049281725
 31
0.0
210
0.0
220
0.0
230
1.0
 40
0.586296
 41
5.3390919469786846
 42
5.8011226585919928
  0
POLYLINE
  5
24C
100
AcDbEntity
  8
0
370
    35
390
0
 62
     7
 48
0.03937
100
AcDb2dPolyline
 66
     1
 10
0.0
 20
0.0
 30
0.0
 71
     2
  0
VERTEX
  5
24D
100
AcDbEntity
  8
0
370
     0
390
0
100
AcDbVertex
100
AcDb2dVertex
 10
7.087392
 20
4.704066
 30
0.0
 42
0.029225
  0
VERTEX
  5
24E
100
AcDbEntity
  8
0
370
     0
390
0
100
AcDbVertex
100
AcDb2dVertex
 10
7.085628
 20
4.672816
 30
0.0
  0
SEQEND
  5
24F
100
AcDbEntity
  8
0
370
     0
390
0
  0
SPLINE
  5
250
100
AcDbEntity
  8
0
370
    35
390
0
 62
     7
 48
0.03937
100
AcDbSpline
210
0.0
220
0.0
230
1.0
 70
     8
 71
     5
 72
    15
 73
     9
 74
     0
 42
0.0
 43
0.0
 40
0.0
 40
0.0
 40
0.0
 40
0.0
 40
0.0
 40
0.0
 40
4.6002344806550202
 40
4.6002344806550202
 40
4.6002344806550202
 40
6.4758973778006066
 40
6.4758973778006066
 40
6.4758973778006066
 40
6.4758973778006066
 40
6.4758973778006066
 40
6.4758973778006066
 10
7.0873940850430008
 20
4.7040652517245274
 30
0.0
 10
7.0895480516781531
 20
4.722480623487864
 30
0.0
 10
7.0933701251785868
 20
4.7402530118729267
 30
0.0
 10
7.0989110751158897
 20
4.7567777113923437
 30
0.0
 10
7.1089960050696144
 20
4.7778352455246109
 30
0.0
 10
7.1222819545650351
 20
4.795194458269223
 30
0.0
 10
7.1264138682364804
 20
4.7999093390790115
 30
0.0
 10
7.1307939869165216
 20
4.8042434848426208
 30
0.0
 10
7.1354113097676555
 20
4.8081803993767238
 30
0.0
  0
SPLINE
  5
251
100
AcDbEntity
  8
0
370
    35
390
0
 62
     7
 48
0.03937
100
AcDbSpline
210
0.0
220
0.0
230
1.0
 70
     8
 71
     5
 72
    15
 73
     9
 74
     0
 42
0.0
 43
0.0
 40
0.0
 40
0.0
 40
0.0
 40
0.0
 40
0.0
 40
0.0
 40
6.0893423281613241
 40
6.0893423281613241
 40
6.0893423281613241
 40
10.058295368776784
 40
10.058295368776784
 40
10.058295368776784
 40
10.058295368776784
 40
10.058295368776784
 40
10.058295368776784
 10
7.0842030135652099
 20
4.6688066500234688
 30
0.0
 10
7.0845272427925421
 20
4.643510121952942
 30
0.0
 10
7.0876116343471596
 20
4.6176214365646455
 30
0.0
 10
7.0932930037093413
 20
4.5918987553669766
 30
0.0
 10
7.1065890372258478
 20
4.5507668632011464
 30
0.0
 10
7.1257612643133372
 20
4.5135936726310275
 30
0.0
 10
7.1342317777537581
 20
4.4996110340935864
 30
0.0
 10
7.1435256350653766
 20
4.4866496453209423
 30
0.0
 10
7.1534167335795944
 20
4.4750137440330162
 30
0.0
  0
SPLINE
  5
252
100
AcDbEntity
  8
0
370
    35
390
0
 62
     7
 48
0.03937
100
AcDbSpline
210
0.0
220
0.0
230
1.0
 70
     8
 71
     5
 72
    18
 73
    12
 74
     0
 42
0.0
 43
0.0
 40
0.0
 40
0.0
 40
0.0
 40
0.0
 40
0.0
 40
0.0
 40
4.2300096550023367
 40
4.2300096550023367
 40
4.2300096550023367
 40
7.4760067430855326
 40
7.4760067430855326
 40
7.4760067430855326
 40
8.2367069124735632
 40
8.2367069124735632
 40
8.2367069124735632
 40
8.2367069124735632
 40
8.2367069124735632
 40
8.2367069124735632
 10
7.0842030135652099
 20
4.6688066500234688
 30
0.0
 10
7.0839777851708181
 20
4.6863790826768206
 30
0.0
 10
7.0850844744471981
 20
4.7036657644656561
 30
0.0
 10
7.0875813044168448
 20
4.7205453891749016
 30
0.0
 10
7.0946230153499696
 20
4.7489168763400178
 30
0.0
 10
7.1060524908377332
 20
4.7734484947499194
 30
0.0
 10
7.1118300558582765
 20
4.7832658561933385
 30
0.0
 10
7.1199681840747866
 20
4.7942195748952514
 30
0.0
 10
7.1292808875643523
 20
4.803518614063564
 30
0.0
 10
7.1310913154562838
 20
4.8052231488192714
 30
0.0
 10
7.1329406879646697
 20
4.8068625377056069
 30
0.0
 10
7.1348283454794927
 20
4.8084356855918191
 30
0.0
  0
SPLINE
  5
253
100
AcDbEntity
  8
0
370
    35
390
0
 62
     7
 48
0.03937
100
AcDbSpline
210
0.0
220
0.0
230
1.0
 70
     8
 71
     5
 72
    15
 73
     9
 74
     0
 42
0.0
 43
0.0
 40
0.0
 40
0.0
 40
0.0
 40
0.0
 40
0.0
 40
0.0
 40
6.1917449417555988
 40
6.1917449417555988
 40
6.1917449417555988
 40
10.230223859904527
 40
10.230223859904527
 40
10.230223859904527
 40
10.230223859904527
 40
10.230223859904527
 40
10.230223859904527
 10
7.0856259640071286
 20
4.6728156311606588
 30
0.0
 10
7.0856405833925624
 20
4.6471647448021951
 30
0.0
 10
7.0885230775875492
 20
4.62083577602235
 30
0.0
 10
7.0941033515082861
 20
4.5946535335520942
 30
0.0
 10
7.1073652951128299
 20
4.5527518274730623
 30
0.0
 10
7.1267664246806364
 20
4.5147939623308311
 30
0.0
 10
7.1353641769039289
 20
4.5005222550826991
 30
0.0
 10
7.1448069867194057
 20
4.4873164883867354
 30
0.0
 10
7.1548626576509466
 20
4.4754863840637897
 30
0.0
  0
POLYLINE
  5
254
100
AcDbEntity
  8
0
370
    35
390
0
 62
     7
 48
0.03937
100
AcDb2dPolyline
 66
     1
 10
0.0
 20
0.0
 30
0.0
 71
     2
  0
VERTEX
  5
255
100
AcDbEntity
  8
0
370
     0
390
0
100
AcDbVertex
100
AcDb2dVertex
 10
7.154863
 20
4.475486
 30
0.0
 42
0.010949
  0
VERTEX
  5
256
100
AcDbEntity
  8
0
370
     0
390
0
100
AcDbVertex
100
AcDb2dVertex
 10
7.161092
 20
4.468471
 30
0.0
  0
SEQEND
  5
257
100
AcDbEntity
  8
0
370
     0
390
0
  0
ELLIPSE
  5
258
100
AcDbEntity
  8
0
370
    35
390
0
 62
     7
 48
0.03937
100
AcDbEllipse
 10
7.207926
 20
4.608496
 30
0.0
 11
0.0571298133757385
 21
-0.181266761473927
 31
0.0
210
0.0
220
0.0
230
1.0
 40
0.586953
 41
5.3921555154199776
 42
5.8567329640872359
  0
POLYLINE
  5
259
100
AcDbEntity
  8
0
370
    35
390
0
 62
     7
 48
0.03937
100
AcDb2dPolyline
 66
     1
 10
0.0
 20
0.0
 30
0.0
 71
     2
  0
VERTEX
  5
25A
100
AcDbEntity
  8
0
370
     0
390
0
100
AcDbVertex
100
AcDb2dVertex
 10
7.215934
 20
4.429607
 30
0.0
 42
0.084723
  0
VERTEX
  5
25B
100
AcDbEntity
  8
0
370
     0
390
0
100
AcDbVertex
100
AcDb2dVertex
 10
7.243577
 20
4.424155
 30
0.0
  0
SEQEND
  5
25C
100
AcDbEntity
  8
0
370
     0
390
0
  0
POLYLINE
  5
25D
100
AcDbEntity
  8
0
370
    35
390
0
 62
     7
 48
0.03937
100
AcDb2dPolyline
 66
     1
 10
0.0
 20
0.0
 30
0.0
 71
     2
  0
VERTEX
  5
25E
100
AcDbEntity
  8
0
370
     0
390
0
100
AcDbVertex
100
AcDb2dVertex
 10
7.032764
 20
4.697246
 30
0.0
 42
0.021265
  0
VERTEX
  5
25F
100
AcDbEntity
  8
0
370
     0
390
0
100
AcDbVertex
100
AcDb2dVertex
 10
7.031993
 20
4.669608
 30
0.0
  0
SEQEND
  5
260
100
AcDbEntity
  8
0
370
     0
390
0
  0
SPLINE
  5
261
100
AcDbEntity
  8
0
370
    35
390
0
 62
     7
 48
0.03937
100
AcDbSpline
210
0.0
220
0.0
230
1.0
 70
     8
 71
     5
 72
    15
 73
     9
 74
     0
 42
0.0
 43
0.0
 40
0.0
 40
0.0
 40
0.0
 40
0.0
 40
0.0
 40
0.0
 40
6.1924440335529987
 40
6.1924440335529987
 40
6.1924440335529987
 40
8.9244283666820543
 40
8.9244283666820543
 40
8.9244283666820543
 40
8.9244283666820543
 40
8.9244283666820543
 40
8.9244283666820543
 10
7.1129593659565264
 20
4.4418117114426598
 30
0.0
 10
7.0922318800549622
 20
4.4666293168405407
 30
0.0
 10
7.0743215450656827
 20
4.4956140798224924
 30
0.0
 10
7.0596671383879919
 20
4.527185264358752
 30
0.0
 10
7.0434833842668194
 20
4.5749834895022108
 30
0.0
 10
7.0350590088770444
 20
4.6242971740594507
 30
0.0
 10
7.0332350654629652
 20
4.6394561329165134
 30
0.0
 10
7.0321998627509466
 20
4.6545934012771122
 30
0.0
 10
7.0319919609221415
 20
4.669607624420677
 30
0.0
  0
POLYLINE
  5
262
100
AcDbEntity
  8
0
370
    35
390
0
 62
     7
 48
0.03937
100
AcDb2dPolyline
 66
     1
 10
0.0
 20
0.0
 30
0.0
 71
     2
  0
VERTEX
  5
263
100
AcDbEntity
  8
0
370
     0
390
0
100
AcDbVertex
100
AcDb2dVertex
 10
7.214488
 20
4.429136
 30
0.0
 42
0.087954
  0
VERTEX
  5
264
100
AcDbEntity
  8
0
370
     0
390
0
100
AcDbVertex
100
AcDb2dVertex
 10
7.243047
 20
4.423673
 30
0.0
  0
SEQEND
  5
265
100
AcDbEntity
  8
0
370
     0
390
0
  0
ELLIPSE
  5
266
100
AcDbEntity
  8
0
370
    35
390
0
 62
     7
 48
0.03937
100
AcDbEllipse
 10
7.206487
 20
4.608668
 30
0.0
 11
0.0570479322237798
 21
-0.1819379636003874
 31
0.0
210
0.0
220
0.0
230
1.0
 40
0.586356
 41
5.3379847643628864
 42
5.8582584121286478
  0
POLYLINE
  5
267
100
AcDbEntity
  8
0
370
    35
390
0
 62
     7
 48
0.03937
100
AcDb2dPolyline
 66
     1
 10
0.0
 20
0.0
 30
0.0
 71
     2
  0
VERTEX
  5
268
100
AcDbEntity
  8
0
370
     0
390
0
100
AcDbVertex
100
AcDb2dVertex
 10
7.031126
 20
4.685674
 30
0.0
 42
0.029225
  0
VERTEX
  5
269
100
AcDbEntity
  8
0
370
     0
390
0
100
AcDbVertex
100
AcDb2dVertex
 10
7.029363
 20
4.654424
 30
0.0
  0
SEQEND
  5
26A
100
AcDbEntity
  8
0
370
     0
390
0
  0
SPLINE
  5
26B
100
AcDbEntity
  8
0
370
    35
390
0
 62
     7
 48
0.03937
100
AcDbSpline
210
0.0
220
0.0
230
1.0
 70
     8
 71
     5
 72
    15
 73
     9
 74
     0
 42
0.0
 43
0.0
 40
0.0
 40
0.0
 40
0.0
 40
0.0
 40
0.0
 40
0.0
 40
4.4696359208828937
 40
4.4696359208828937
 40
4.4696359208828937
 40
8.7169278628008176
 40
8.7169278628008176
 40
8.7169278628008176
 40
8.7169278628008176
 40
8.7169278628008176
 40
8.7169278628008176
 10
7.0311286026152517
 20
4.6856733365964409
 30
0.0
 10
7.033221419827167
 20
4.7035659102878249
 30
0.0
 10
7.0368889764239979
 20
4.7208514954207557
 30
0.0
 10
7.042188837302894
 20
4.7370083419492302
 30
0.0
 10
7.0555146908591198
 20
4.7656100095926712
 30
0.0
 10
7.0746299449229939
 20
4.7875793039466341
 30
0.0
 10
7.0852747830082192
 20
4.7964193688460268
 30
0.0
 10
7.0970517196106622
 20
4.8029704017862755
 30
0.0
 10
7.109514176291702
 20
4.8071567256403291
 30
0.0
  0
SPLINE
  5
26C
100
AcDbEntity
  8
0
370
    35
390
0
 62
     7
 48
0.03937
100
AcDbSpline
210
0.0
220
0.0
230
1.0
 70
     8
 71
     5
 72
    18
 73
    12
 74
     0
 42
0.0
 43
0.0
 40
0.0
 40
0.0
 40
0.0
 40
0.0
 40
0.0
 40
0.0
 40
5.4077199529605329
 40
5.4077199529605329
 40
5.4077199529605329
 40
7.5566893910101705
 40
7.5566893910101705
 40
7.5566893910101705
 40
10.705188165908471
 40
10.705188165908471
 40
10.705188165908471
 40
10.705188165908471
 40
10.705188165908471
 40
10.705188165908471
 10
7.029360481396254
 20
4.6544237114467926
 30
0.0
 10
7.029373249609848
 20
4.6320208490449861
 30
0.0
 10
7.031573590525122
 20
4.6091007538230784
 30
0.0
 10
7.0358504144861307
 20
4.5861143247861902
 30
0.0
 10
7.0445869916084805
 20
4.5546336619791559
 30
0.0
 10
7.0567229660738828
 20
4.5251606197532519
 30
0.0
 10
7.0604595859882053
 20
4.5169170390274065
 30
0.0
 10
7.0703052028303874
 20
4.4971280610617832
 30
0.0
 10
7.0817317534277864
 20
4.4786843758764574
 30
0.0
 10
7.0890329630270061
 20
4.4683401265672567
 30
0.0
 10
7.0967591320227168
 20
4.4587695174815689
 30
0.0
 10
7.1048197397141832
 20
4.4500866259703944
 30
0.0
  0
ELLIPSE
  5
26D
100
AcDbEntity
  8
0
370
    35
390
0
 62
     7
 48
0.03937
100
AcDbEllipse
 10
7.151844
 20
4.591216
 30
0.0
 11
0.0568761126745131
 21
-0.1824391088650034
 31
0.0
210
0.0
220
0.0
230
1.0
 40
0.586647
 41
5.3962755655369694
 42
5.7477356740465835
  0
ELLIPSE
  5
26E
100
AcDbEntity
  8
0
370
    35
390
0
 62
     7
 48
0.03937
100
AcDbEllipse
 10
7.150355
 20
4.605143
 30
0.0
 11
0.0636026442631261
 21
-0.1945763971606804
 31
0.0
210
0.0
220
0.0
230
1.0
 40
0.608973
 41
5.5978118643705361
 42
5.7592964189180327
  0
SPLINE
  5
26F
100
AcDbEntity
  8
0
370
    35
390
0
 62
     7
 48
0.03937
100
AcDbSpline
210
0.0
220
0.0
230
1.0
 70
     8
 71
     5
 72
    18
 73
    12
 74
     0
 42
0.0
 43
0.0
 40
0.0
 40
0.0
 40
0.0
 40
0.0
 40
0.0
 40
0.0
 40
6.1831079427568438
 40
6.1831079427568438
 40
6.1831079427568438
 40
9.8320430941855026
 40
9.8320430941855026
 40
9.8320430941855026
 40
12.15094171088314
 40
12.15094171088314
 40
12.15094171088314
 40
12.15094171088314
 40
12.15094171088314
 40
12.15094171088314
 10
7.027937530954337
 20
4.6504147303096026
 30
0.0
 10
7.0282667527766103
 20
4.6247286783223185
 30
0.0
 10
7.0314417950364039
 20
4.598432092321513
 30
0.0
 10
7.0372913092207714
 20
4.5723370412529736
 30
0.0
 10
7.0504425510133508
 20
4.53222831155154
 30
0.0
 10
7.0692115535632567
 20
4.4959139714444776
 30
0.0
 10
7.0769421460326631
 20
4.4830216953559869
 30
0.0
 10
7.0907344344478052
 20
4.4633074068929579
 30
0.0
 10
7.1059483067450948
 20
4.4464871476357066
 30
0.0
 10
7.1119764046762572
 20
4.4405005261494788
 30
0.0
 10
7.1182174817772008
 20
4.4349700524035756
 30
0.0
 10
7.1245941697696331
 20
4.429989274024587
 30
0.0
  0
SPLINE
  5
270
100
AcDbEntity
  8
0
370
    35
390
0
 62
     7
 48
0.03937
100
AcDbSpline
210
0.0
220
0.0
230
1.0
 70
     8
 71
     5
 72
    18
 73
    12
 74
     0
 42
0.0
 43
0.0
 40
0.0
 40
0.0
 40
0.0
 40
0.0
 40
0.0
 40
0.0
 40
4.3365300723277507
 40
4.3365300723277507
 40
4.3365300723277507
 40
7.4565853351191054
 40
7.4565853351191054
 40
7.4565853351191054
 40
10.448888690151367
 40
10.448888690151367
 40
10.448888690151367
 40
10.448888690151367
 40
10.448888690151367
 40
10.448888690151367
 10
7.027937530954337
 20
4.6504147303096026
 30
0.0
 10
7.0277066308433778
 20
4.6684296732682897
 30
0.0
 10
7.0288755746429343
 20
4.6861442923349399
 30
0.0
 10
7.0315075199047303
 20
4.7034237211875736
 30
0.0
 10
7.0387244404608555
 20
4.7316024091082971
 30
0.0
 10
7.0502928450400679
 20
4.7558821797061475
 30
0.0
 10
7.0558958313147961
 20
4.7652831720467415
 30
0.0
 10
7.0683301965655438
 20
4.7819569179292776
 30
0.0
 10
7.0835030482698071
 20
4.794790804660356
 30
0.0
 10
7.0915034504214223
 20
4.799992088373128
 30
0.0
 10
7.0999585030788115
 20
4.8040366536201526
 30
0.0
 10
7.1087507951923952
 20
4.8069102568337492
 30
0.0
  0
POLYLINE
  5
271
100
AcDbEntity
  8
0
370
    35
390
0
 62
     7
 48
0.03937
100
AcDb2dPolyline
 66
     1
 10
0.0
 20
0.0
 30
0.0
 71
     2
  0
VERTEX
  5
272
100
AcDbEntity
  8
0
370
     0
390
0
100
AcDbVertex
100
AcDb2dVertex
 10
7.128627
 20
4.810961
 30
0.0
 42
0.057117
  0
VERTEX
  5
273
100
AcDbEntity
  8
0
370
     0
390
0
100
AcDbVertex
100
AcDb2dVertex
 10
7.10875
 20
4.806911
 30
0.0
  0
SEQEND
  5
274
100
AcDbEntity
  8
0
370
     0
390
0
  0
SPLINE
  5
275
100
AcDbEntity
  8
0
370
    35
390
0
 62
     7
 48
0.03937
100
AcDbSpline
210
0.0
220
0.0
230
1.0
 70
     8
 71
     5
 72
    24
 73
    18
 74
     0
 42
0.0
 43
0.0
 40
0.0
 40
0.0
 40
0.0
 40
0.0
 40
0.0
 40
0.0
 40
2.6524226925051675
 40
2.6524226925051675
 40
2.6524226925051675
 40
7.811895578774064
 40
7.811895578774064
 40
7.811895578774064
 40
9.082450098159228
 40
9.082450098159228
 40
9.082450098159228
 40
11.612353701919545
 40
11.612353701919545
 40
11.612353701919545
 40
12.848642161756146
 40
12.848642161756146
 40
12.848642161756146
 40
12.848642161756146
 40
12.848642161756146
 40
12.848642161756146
 10
7.2779774178849026
 20
4.488107488470205
 30
0.0
 10
7.2758641837479381
 20
4.4793393793120861
 30
0.0
 10
7.2732821128983307
 20
4.4709563745854828
 30
0.0
 10
7.2702277329019767
 20
4.4630065858190848
 30
0.0
 10
7.259990510255121
 20
4.4412198309742195
 30
0.0
 10
7.2460115520216917
 20
4.424146668711523
 30
0.0
 10
7.2352343811372783
 20
4.4152665652122396
 30
0.0
 10
7.2202236974764684
 20
4.4078225559040787
 30
0.0
 10
7.2041365688027126
 20
4.4048985221821333
 30
0.0
 10
7.2009169143760552
 20
4.4044945080160911
 30
0.0
 10
7.1911585730358301
 20
4.4038186030468589
 30
0.0
 10
7.1814285444718342
 20
4.4046802048301865
 30
0.0
 10
7.1750485569141196
 20
4.4058745943904478
 30
0.0
 10
7.1656394802506167
 20
4.4084305439989828
 30
0.0
 10
7.1559023429331488
 20
4.4124118560791885
 30
0.0
 10
7.1526621729905431
 20
4.4138809832208459
 30
0.0
 10
7.1493980382127136
 20
4.4155143178341811
 30
0.0
 10
7.14615168175294
 20
4.4172872198229829
 30
0.0
  0
POLYLINE
  5
276
100
AcDbEntity
  8
0
370
    35
390
0
 62
     7
 48
0.03937
100
AcDb2dPolyline
 66
     1
 10
0.0
 20
0.0
 30
0.0
 71
     2
  0
VERTEX
  5
277
100
AcDbEntity
  8
0
370
     0
390
0
100
AcDbVertex
100
AcDb2dVertex
 10
6.977372
 20
4.68881
 30
0.0
 42
0.029532
  0
VERTEX
  5
278
100
AcDbEntity
  8
0
370
     0
390
0
100
AcDbVertex
100
AcDb2dVertex
 10
6.975729
 20
4.651216
 30
0.0
  0
SEQEND
  5
279
100
AcDbEntity
  8
0
370
     0
390
0
  0
ELLIPSE
  5
27A
100
AcDbEntity
  8
0
370
    35
390
0
 62
     7
 48
0.03937
100
AcDbEllipse
 10
7.106468
 20
4.590797
 30
0.0
 11
-0.0816887042431623
 21
0.2499061783438121
 31
0.0
210
0.0
220
0.0
230
1.0
 40
0.608973
 41
5.407838321750436
 42
10.300142937124635
  0
ELLIPSE
  5
27B
100
AcDbEntity
  8
0
370
    35
390
0
 62
     7
 48
0.03937
100
AcDbEllipse
 10
7.106468
 20
4.590797
 30
0.0
 11
-0.0816887042431618
 21
0.2499061783438122
 31
0.0
210
0.0
220
0.0
230
1.0
 40
0.608973
 41
4.016957629945046
 42
5.3670233043288675
  0
POLYLINE
  5
27C
100
AcDbEntity
  8
0
370
    35
390
0
 62
     7
 48
0.03937
100
AcDb2dPolyline
 66
     1
 10
0.0
 20
0.0
 30
0.0
 71
     2
  0
VERTEX
  5
27D
100
AcDbEntity
  8
0
370
     0
390
0
100
AcDbVertex
100
AcDb2dVertex
 10
7.064529
 20
4.414508
 30
0.0
 42
0.072834
  0
VERTEX
  5
27E
100
AcDbEntity
  8
0
370
     0
390
0
100
AcDbVertex
100
AcDb2dVertex
 10
7.110978
 20
4.376138
 30
0.0
  0
SEQEND
  5
27F
100
AcDbEntity
  8
0
370
     0
390
0
  0
LINE
  5
280
100
AcDbEntity
  8
0
370
    35
390
0
 62
     7
 48
0.000223
100
AcDbLine
 10
7.064501
 20
4.414483
 30
0.0
 11
7.058547
 21
4.421145
 31
0.0
210
0.0
220
0.0
230
1.0
  0
POLYLINE
  5
281
100
AcDbEntity
  8
0
370
    35
390
0
 62
     7
 48
0.03937
100
AcDb2dPolyline
 66
     1
 10
0.0
 20
0.0
 30
0.0
 71
     2
  0
VERTEX
  5
282
100
AcDbEntity
  8
0
370
     0
390
0
100
AcDbVertex
100
AcDb2dVertex
 10
7.124592
 20
4.42999
 30
0.0
 42
0.032209
  0
VERTEX
  5
283
100
AcDbEntity
  8
0
370
     0
390
0
100
AcDbVertex
100
AcDb2dVertex
 10
7.110999
 20
4.376169
 30
0.0
  0
SEQEND
  5
284
100
AcDbEntity
  8
0
370
     0
390
0
  0
SPLINE
  5
285
100
AcDbEntity
  8
0
370
    35
390
0
 62
     7
 48
0.03937
100
AcDbSpline
210
0.0
220
0.0
230
1.0
 70
     8
 71
     5
 72
    15
 73
     9
 74
     0
 42
0.0
 43
0.0
 40
0.0
 40
0.0
 40
0.0
 40
0.0
 40
0.0
 40
0.0
 40
5.5633942095003643
 40
5.5633942095003643
 40
5.5633942095003643
 40
9.4302265509061378
 40
9.4302265509061378
 40
9.4302265509061378
 40
9.4302265509061378
 40
9.4302265509061378
 40
9.4302265509061378
 10
7.0653369933405612
 20
4.413579160525348
 30
0.0
 10
7.0459078454803103
 20
4.4345926387112771
 30
0.0
 10
7.0286444811439273
 20
4.4593088556354301
 30
0.0
 10
7.0139356382181965
 20
4.4864873375242906
 30
0.0
 10
6.9935657991439815
 20
4.5353097845988097
 30
0.0
 10
6.9814720971166597
 20
4.5870077685536659
 30
0.0
 10
6.9779723674702279
 20
4.6084671411661979
 30
0.0
 10
6.9760207411627446
 20
4.6299646737524602
 30
0.0
 10
6.9757264783112696
 20
4.6512157047068108
 30
0.0
  0
POLYLINE
  5
286
100
AcDbEntity
  8
0
370
    35
390
0
 62
     7
 48
0.03937
100
AcDb2dPolyline
 66
     1
 10
0.0
 20
0.0
 30
0.0
 71
     2
  0
VERTEX
  5
287
100
AcDbEntity
  8
0
370
     0
390
0
100
AcDbVertex
100
AcDb2dVertex
 10
6.976968
 20
4.685439
 30
0.0
 42
0.031972
  0
VERTEX
  5
288
100
AcDbEntity
  8
0
370
     0
390
0
100
AcDbVertex
100
AcDb2dVertex
 10
6.975129
 20
4.647744
 30
0.0
  0
SEQEND
  5
289
100
AcDbEntity
  8
0
370
     0
390
0
  0
SPLINE
  5
28A
100
AcDbEntity
  8
0
370
    35
390
0
 62
     7
 48
0.03937
100
AcDbSpline
210
0.0
220
0.0
230
1.0
 70
     8
 71
     5
 72
    36
 73
    30
 74
     0
 42
0.0
 43
0.0
 40
0.0
 40
0.0
 40
0.0
 40
0.0
 40
0.0
 40
0.0
 40
3.7929168985908319
 40
3.7929168985908319
 40
3.7929168985908319
 40
5.632043924216295
 40
5.632043924216295
 40
5.632043924216295
 40
9.2344861985170681
 40
9.2344861985170681
 40
9.2344861985170681
 40
10.123714413795373
 40
10.123714413795373
 40
10.123714413795373
 40
11.012942629073672
 40
11.012942629073672
 40
11.012942629073672
 40
12.79054350081184
 40
12.79054350081184
 40
12.79054350081184
 40
16.349956888329821
 40
16.349956888329821
 40
16.349956888329821
 40
17.216924176778381
 40
17.216924176778381
 40
17.216924176778381
 40
18.083891465226941
 40
18.083891465226941
 40
18.083891465226941
 40
18.083891465226941
 40
18.083891465226941
 40
18.083891465226941
 10
6.9769719442272633
 20
4.6854389009107882
 30
0.0
 10
6.9786907824474813
 20
4.7003418400705286
 30
0.0
 10
6.9814085632290181
 20
4.7147961562535015
 30
0.0
 10
6.985150416876996
 20
4.7285828318072314
 30
0.0
 10
6.9921931223042737
 20
4.7477298815578228
 30
0.0
 10
7.0013257724012536
 20
4.7645414683369181
 30
0.0
 10
7.0045317448239883
 20
4.7697754964890002
 30
0.0
 10
7.0146566686607983
 20
4.7844389391715421
 30
0.0
 10
7.0266914111079899
 20
4.7965885407411077
 30
0.0
 10
7.0354381809493916
 20
4.8033571435941456
 30
0.0
 10
7.0471594765126921
 20
4.8100003772659869
 30
0.0
 10
7.0595798724952097
 20
4.8143380631619772
 30
0.0
 10
7.0620653006071352
 20
4.8151065004883087
 30
0.0
 10
7.0670785086297316
 20
4.8164609557215909
 30
0.0
 10
7.0721763377714213
 20
4.8174537568611369
 30
0.0
 10
7.0747444203963736
 20
4.8178601669272112
 30
0.0
 10
7.082512585107037
 20
4.8188101017247966
 30
0.0
 10
7.0904036369593042
 20
4.8189531235465619
 30
0.0
 10
7.095655127885049
 20
4.8186909473706008
 30
0.0
 10
7.111255363451825
 20
4.8169378028461596
 30
0.0
 10
7.1264766544035529
 20
4.8124400469804351
 30
0.0
 10
7.1366068479235292
 20
4.8083551979813626
 30
0.0
 10
7.1493684397762411
 20
4.8017274804885073
 30
0.0
 10
7.1621001358448249
 20
4.7932112207661408
 30
0.0
 10
7.1645902176353173
 20
4.7914713643770392
 30
0.0
 10
7.1695492395906912
 20
4.7878564021169243
 30
0.0
 10
7.1744431617862352
 20
4.7839901427556821
 30
0.0
 10
7.1768673143141068
 20
4.7819996891298677
 30
0.0
 10
7.1792703305467054
 20
4.7799517109640011
 30
0.0
 10
7.1816506626441443
 20
4.7778481782821318
 30
0.0
  0
ELLIPSE
  5
28B
100
AcDbEntity
  8
0
370
    35
390
0
 62
     7
 48
0.03937
100
AcDbEllipse
 10
7.106468
 20
4.590797
 30
0.0
 11
-0.0816887042431623
 21
0.2499061783438122
 31
0.0
210
0.0
220
0.0
230
1.0
 40
0.608973
 41
5.3670233043288667
 42
5.407838321750436
  0
SPLINE
  5
28C
100
AcDbEntity
  8
0
370
    35
390
0
 62
     7
 48
0.03937
100
AcDbSpline
210
0.0
220
0.0
230
1.0
 70
     8
 71
     5
 72
    15
 73
     9
 74
     0
 42
0.0
 43
0.0
 40
0.0
 40
0.0
 40
0.0
 40
0.0
 40
0.0
 40
0.0
 40
10.514303098947462
 40
10.514303098947462
 40
10.514303098947462
 40
11.684358864136128
 40
11.684358864136128
 40
11.684358864136128
 40
11.684358864136128
 40
11.684358864136128
 40
11.684358864136128
 10
7.0585474980357992
 20
4.4211454999844637
 30
0.0
 10
7.0313240322957231
 20
4.4526590522662204
 30
0.0
 10
7.0083125478496529
 20
4.4915489559539026
 30
0.0
 10
6.9909823361164083
 20
4.5347746788227239
 30
0.0
 10
6.9789043599693521
 20
4.5846554502730079
 30
0.0
 10
6.9755858383598728
 20
4.6332588351118797
 30
0.0
 10
6.9753422023966474
 20
4.638110797160385
 30
0.0
 10
6.9751882885705871
 20
4.6429400297136842
 30
0.0
 10
6.9751248012202414
 20
4.6477439647602612
 30
0.0
  0
ELLIPSE
  5
28D
100
AcDbEntity
  8
0
370
    35
390
0
 62
     7
 48
0.03937
100
AcDbEllipse
 10
7.600241
 20
5.190564
 30
0.0
 11
-0.5275100827510462
 21
1.6137852845080127
 31
0.0
210
0.0
220
0.0
230
1.0
 40
0.608973
 41
3.1415595233208977
 42
6.2831521769106917
  0
ELLIPSE
  5
28E
100
AcDbEntity
  8
0
370
    35
390
0
 62
     7
 48
0.03937
100
AcDbEllipse
 10
7.600241
 20
5.190564
 30
0.0
 11
-0.5275100827510462
 21
1.6137852845080127
 31
0.0
210
0.0
220
0.0
230
1.0
 40
0.608973
 41
6.2831521769106917
 42
7.9378196311237641
  0
ELLIPSE
  5
28F
100
AcDbEntity
  8
0
370
    35
390
0
 62
     7
 48
0.03937
100
AcDbEllipse
 10
7.600241
 20
5.190564
 30
0.0
 11
-0.5275100827510462
 21
1.6137852845080127
 31
0.0
210
0.0
220
0.0
230
1.0
 40
0.608973
 41
1.6546343239441776
 42
3.1415595233208977
  0
ELLIPSE
  5
290
100
AcDbEntity
  8
0
370
    35
390
0
 62
     7
 48
0.03937
100
AcDbEllipse
 10
7.600241
 20
5.190564
 30
0.0
 11
-0.2079896897704124
 21
0.6362924836060164
 31
0.0
210
0.0
220
0.0
230
1.0
 40
0.608973
 41
3.1415475425254571
 42
4.7962269775339692
  0
ELLIPSE
  5
291
100
AcDbEntity
  8
0
370
    35
390
0
 62
     7
 48
0.03937
100
AcDbEllipse
 10
7.600241
 20
5.190564
 30
0.0
 11
-0.2079896897704124
 21
0.6362924836060164
 31
0.0
210
0.0
220
0.0
230
1.0
 40
0.608973
 41
4.7962269775339692
 42
6.2831401961152498
  0
ELLIPSE
  5
292
100
AcDbEntity
  8
0
370
    35
390
0
 62
     7
 48
0.03937
100
AcDbEllipse
 10
8.175954
 20
4.245986
 30
0.0
 11
-0.0816887042431622
 21
0.2499061783438123
 31
0.0
210
0.0
220
0.0
230
1.0
 40
0.608973
 41
0.6546343239441776
 42
4.0169576299450434
  0
ELLIPSE
  5
293
100
AcDbEntity
  8
0
370
    35
390
0
 62
     7
 48
0.03937
100
AcDbEllipse
 10
8.175954
 20
4.245986
 30
0.0
 11
-0.0816887042431622
 21
0.2499061783438123
 31
0.0
210
0.0
220
0.0
230
1.0
 40
0.608973
 41
4.016957629945046
 42
5.4078383217504351
  0
ELLIPSE
  5
294
100
AcDbEntity
  8
0
370
    35
390
0
 62
     7
 48
0.03937
100
AcDbEllipse
 10
8.175954
 20
4.245986
 30
0.0
 11
-0.0816887042431622
 21
0.2499061783438123
 31
0.0
210
0.0
220
0.0
230
1.0
 40
0.608973
 41
5.4078383217504351
 42
6.9378196311237641
  0
ELLIPSE
  5
295
100
AcDbEntity
  8
0
370
    35
390
0
 62
     7
 48
0.03937
100
AcDbEllipse
 10
8.094015
 20
5.79033
 30
0.0
 11
-0.081688704243162
 21
0.2499061783438122
 31
0.0
210
0.0
220
0.0
230
1.0
 40
0.608973
 41
4.0169576299450469
 42
5.4078383217504395
  0
ELLIPSE
  5
296
100
AcDbEntity
  8
0
370
    35
390
0
 62
     7
 48
0.03937
100
AcDbEllipse
 10
8.094015
 20
5.79033
 30
0.0
 11
-0.0816887042431614
 21
0.2499061783438124
 31
0.0
210
0.0
220
0.0
230
1.0
 40
0.608973
 41
5.4078383217504369
 42
8.5086159579186607
  0
ELLIPSE
  5
297
100
AcDbEntity
  8
0
370
    35
390
0
 62
     7
 48
0.03937
100
AcDbEllipse
 10
8.094015
 20
5.79033
 30
0.0
 11
-0.081688704243162
 21
0.2499061783438121
 31
0.0
210
0.0
220
0.0
230
1.0
 40
0.608973
 41
2.2254306507390726
 42
4.0169576299450469
  0
ELLIPSE
  5
298
100
AcDbEntity
  8
0
370
    35
390
0
 62
     7
 48
0.03937
100
AcDbEllipse
 10
7.024529
 20
6.135141
 30
0.0
 11
-0.0816887042431622
 21
0.2499061783438123
 31
0.0
210
0.0
220
0.0
230
1.0
 40
0.608973
 41
5.4078383217504351
 42
10.300142937124635
  0
ELLIPSE
  5
299
100
AcDbEntity
  8
0
370
    35
390
0
 62
     7
 48
0.03937
100
AcDbEllipse
 10
7.024529
 20
6.135141
 30
0.0
 11
-0.0816887042431622
 21
0.2499061783438122
 31
0.0
210
0.0
220
0.0
230
1.0
 40
0.608973
 41
4.0169576299450451
 42
5.4078383217504351
  0
ELLIPSE
  5
29A
100
AcDbEntity
  8
0
370
    35
390
0
 62
     7
 48
0.03937
100
AcDbEllipse
 10
8.514555
 20
5.489432
 30
0.0
 11
-0.5275100827510468
 21
1.6137852845080125
 31
0.0
210
0.0
220
0.0
230
1.0
 40
0.608973
 41
3.1415595233208977
 42
6.2831521769106917
  0
ELLIPSE
  5
29B
100
AcDbEntity
  8
0
370
    35
390
0
 62
     7
 48
0.03937
100
AcDbEllipse
 10
7.554526
 20
5.17562
 30
0.0
 11
-0.2079896897704124
 21
0.6362924836060164
 31
0.0
210
0.0
220
0.0
230
1.0
 40
0.608973
 41
6.2831401961152498
 42
9.4247328497050429
  0
ELLIPSE
  5
29C
100
AcDbEntity
  8
0
370
    35
390
0
 62
     7
 48
0.03937
100
AcDbEllipse
 10
7.554526
 20
5.17562
 30
0.0
 11
-0.2079896897704124
 21
0.6362924836060164
 31
0.0
210
0.0
220
0.0
230
1.0
 40
0.608973
 41
3.1415475425254571
 42
4.796226977533971
  0
ELLIPSE
  5
29D
100
AcDbEntity
  8
0
370
    35
390
0
 62
     7
 48
0.03937
100
AcDbEllipse
 10
7.554526
 20
5.17562
 30
0.0
 11
-0.2079896897704124
 21
0.6362924836060164
 31
0.0
210
0.0
220
0.0
230
1.0
 40
0.608973
 41
4.796226977533971
 42
6.2831401961152498
  0
ELLIPSE
  5
29E
100
AcDbEntity
  8
0
370
    35
390
0
 62
     7
 48
0.03937
100
AcDbEllipse
 10
8.208061
 20
4.25328
 30
0.0
 11
0.0690284378249178
 21
-0.2094051857357342
 31
0.0
210
0.0
220
0.0
230
1.0
 40
0.624422
 41
2.3421843699649516
 42
2.6947818807803157
  0
SPLINE
  5
29F
100
AcDbEntity
  8
0
370
    35
390
0
 62
     7
 48
0.03937
100
AcDbSpline
210
0.0
220
0.0
230
1.0
 70
     8
 71
     5
 72
    18
 73
    12
 74
     0
 42
0.0
 43
0.0
 40
0.0
 40
0.0
 40
0.0
 40
0.0
 40
0.0
 40
0.0
 40
4.2215454402257651
 40
4.2215454402257651
 40
4.2215454402257651
 40
8.369459928356104
 40
8.369459928356104
 40
8.369459928356104
 40
10.41415723285216
 40
10.41415723285216
 40
10.41415723285216
 40
10.41415723285216
 40
10.41415723285216
 40
10.41415723285216
 10
8.0747153767352842
 20
4.3976332991403613
 30
0.0
 10
8.0803619561844808
 20
4.4108398167988172
 30
0.0
 10
8.0871823610411564
 20
4.4228858349942639
 30
0.0
 10
8.095282315799702
 20
4.433864153203058
 30
0.0
 10
8.1140202543816269
 20
4.4524171250729525
 30
0.0
 10
8.1366413543325002
 20
4.4632990771088314
 30
0.0
 10
8.1484216681656907
 20
4.4664658730502422
 30
0.0
 10
8.166287468771797
 20
4.4681920246825007
 30
0.0
 10
8.1843483462013182
 20
4.4657561117495543
 30
0.0
 10
8.190316623259049
 20
4.4645191168280531
 30
0.0
 10
8.1963214081375106
 20
4.4628431310930434
 30
0.0
 10
8.2023080259865928
 20
4.460751876294621
 30
0.0
  0
POLYLINE
  5
2A0
100
AcDbEntity
  8
0
370
    35
390
0
 62
     7
 48
0.03937
100
AcDb2dPolyline
 66
     1
 10
0.0
 20
0.0
 30
0.0
 71
     2
  0
VERTEX
  5
2A1
100
AcDbEntity
  8
0
370
     0
390
0
100
AcDbVertex
100
AcDb2dVertex
 10
8.336917
 20
4.097971
 30
0.0
 42
0.043687
  0
VERTEX
  5
2A2
100
AcDbEntity
  8
0
370
     0
390
0
100
AcDbVertex
100
AcDb2dVertex
 10
8.346234
 20
4.131887
 30
0.0
  0
SEQEND
  5
2A3
100
AcDbEntity
  8
0
370
     0
390
0
  0
ELLIPSE
  5
2A4
100
AcDbEntity
  8
0
370
    35
390
0
 62
     7
 48
0.03937
100
AcDbEllipse
 10
8.204179
 20
4.242005
 30
0.0
 11
0.0680546921402056
 21
-0.2133615153710926
 31
0.0
210
0.0
220
0.0
230
1.0
 40
0.60473
 41
5.371632641558123
 42
5.8329306224821087
  0
SPLINE
  5
2A5
100
AcDbEntity
  8
0
370
    35
390
0
 62
     7
 48
0.03937
100
AcDbSpline
210
0.0
220
0.0
230
1.0
 70
     8
 71
     5
 72
    24
 73
    18
 74
     0
 42
0.0
 43
0.0
 40
0.0
 40
0.0
 40
0.0
 40
0.0
 40
0.0
 40
0.0
 40
2.7631165388369405
 40
2.7631165388369405
 40
2.7631165388369405
 40
8.4606295684431743
 40
8.4606295684431743
 40
8.4606295684431743
 40
9.8916088884633737
 40
9.8916088884633737
 40
9.8916088884633737
 40
12.677428554740624
 40
12.677428554740624
 40
12.677428554740624
 40
14.028574676150086
 40
14.028574676150086
 40
14.028574676150086
 40
14.028574676150086
 40
14.028574676150086
 40
14.028574676150086
 10
8.1438747864229146
 20
4.0787860707740151
 30
0.0
 10
8.136713802073567
 20
4.0865195588264083
 30
0.0
 10
8.1298414021005456
 20
4.0947709520334126
 30
0.0
 10
8.1232485194957231
 20
4.1035293613039512
 30
0.0
 10
8.1041880597811673
 20
4.1314341705595252
 30
0.0
 10
8.0882286222831574
 20
4.1630311802774065
 30
0.0
 10
8.079205233208695
 20
4.1854046643962555
 30
0.0
 10
8.0702108001740172
 20
4.2140834461269465
 30
0.0
 10
8.0642195980653995
 20
4.2430933397559807
 30
0.0
 10
8.0631717139405144
 20
4.2487472321413389
 30
0.0
 10
8.060372786566413
 20
4.2657772309279718
 30
0.0
 10
8.0586868688312805
 20
4.2823588292784853
 30
0.0
 10
8.0580431124274892
 20
4.2930460276416804
 30
0.0
 10
8.0577323297290171
 20
4.308648717501125
 30
0.0
 10
8.0584372381003977
 20
4.3240593897027928
 30
0.0
 10
8.0587786064506162
 20
4.3290820272501529
 30
0.0
 10
8.0592361428418418
 20
4.3340932487675801
 30
0.0
 10
8.0598145958996703
 20
4.3390871872497874
 30
0.0
  0
POLYLINE
  5
2A6
100
AcDbEntity
  8
0
370
    35
390
0
 62
     7
 48
0.03937
100
AcDb2dPolyline
 66
     1
 10
0.0
 20
0.0
 30
0.0
 71
     2
  0
VERTEX
  5
2A7
100
AcDbEntity
  8
0
370
     0
390
0
100
AcDbVertex
100
AcDb2dVertex
 10
8.074683
 20
4.397647
 30
0.0
 42
0.071895
  0
VERTEX
  5
2A8
100
AcDbEntity
  8
0
370
     0
390
0
100
AcDbVertex
100
AcDb2dVertex
 10
8.05985
 20
4.339084
 30
0.0
  0
SEQEND
  5
2A9
100
AcDbEntity
  8
0
370
     0
390
0
  0
SPLINE
  5
2AA
100
AcDbEntity
  8
0
370
    35
390
0
 62
     7
 48
0.03937
100
AcDbSpline
210
0.0
220
0.0
230
1.0
 70
     8
 71
     5
 72
    15
 73
     9
 74
     0
 42
0.0
 43
0.0
 40
0.0
 40
0.0
 40
0.0
 40
0.0
 40
0.0
 40
0.0
 40
5.3933590988100857
 40
5.3933590988100857
 40
5.3933590988100857
 40
10.650567816928703
 40
10.650567816928703
 40
10.650567816928703
 40
10.650567816928703
 40
10.650567816928703
 40
10.650567816928703
 10
8.336909001627971
 20
4.097974043571754
 30
0.0
 10
8.3301876271623154
 20
4.0801276510176443
 30
0.0
 10
8.3214186219441846
 20
4.0642420085069269
 30
0.0
 10
8.3106650432923086
 20
4.050866878405202
 30
0.0
 10
8.2859758330844446
 20
4.0305373757308578
 30
0.0
 10
8.2562305440578942
 20
4.023189967405167
 30
0.0
 10
8.2407414352660719
 20
4.022961631590678
 30
0.0
 10
8.224953676568628
 20
4.0260060451622781
 30
0.0
 10
8.2093000441227879
 20
4.0319976426290394
 30
0.0
  0
ELLIPSE
  5
2AB
100
AcDbEntity
  8
0
370
    35
390
0
 62
     7
 48
0.03937
100
AcDbEllipse
 10
8.137902
 20
5.804676
 30
0.0
 11
0.0636026442631267
 21
-0.1945763971606802
 31
0.0
210
0.0
220
0.0
230
1.0
 40
0.608973
 41
2.4562192107807417
 42
2.61770376532824
  0
POLYLINE
  5
2AC
100
AcDbEntity
  8
0
370
    35
390
0
 62
     7
 48
0.03937
100
AcDb2dPolyline
 66
     1
 10
0.0
 20
0.0
 30
0.0
 71
     2
  0
VERTEX
  5
2AD
100
AcDbEntity
  8
0
370
     0
390
0
100
AcDbVertex
100
AcDb2dVertex
 10
7.991224
 20
5.881871
 30
0.0
 42
0.030588
  0
VERTEX
  5
2AE
100
AcDbEntity
  8
0
370
     0
390
0
100
AcDbVertex
100
AcDb2dVertex
 10
7.989482
 20
5.848825
 30
0.0
  0
SEQEND
  5
2AF
100
AcDbEntity
  8
0
370
     0
390
0
  0
SPLINE
  5
2B0
100
AcDbEntity
  8
0
370
    35
390
0
 62
     7
 48
0.03937
100
AcDbSpline
210
0.0
220
0.0
230
1.0
 70
     8
 71
     5
 72
    27
 73
    21
 74
     0
 42
0.0
 43
0.0
 40
0.0
 40
0.0
 40
0.0
 40
0.0
 40
0.0
 40
0.0
 40
4.6675113787672302
 40
4.6675113787672302
 40
4.6675113787672302
 40
9.1611731995207748
 40
9.1611731995207748
 40
9.1611731995207748
 40
10.637642880452992
 40
10.637642880452992
 40
10.637642880452992
 40
11.375707496664779
 40
11.375707496664779
 40
11.375707496664779
 40
13.580747012664618
 40
13.580747012664618
 40
13.580747012664618
 40
14.991096158107196
 40
14.991096158107196
 40
14.991096158107196
 40
14.991096158107196
 40
14.991096158107196
 40
14.991096158107196
 10
7.9912270144815825
 20
5.8818708441174659
 30
0.0
 10
7.9932295039564591
 20
5.8990901154896465
 30
0.0
 10
7.9966788776632001
 20
5.9156384273852796
 30
0.0
 10
8.0016073327293746
 20
5.9310610993762385
 30
0.0
 10
8.0139892090741842
 20
5.9584902958513428
 30
0.0
 10
8.0314532825148923
 20
5.979527415159712
 30
0.0
 10
8.0412160860221551
 20
5.9881489321422432
 30
0.0
 10
8.0555866181160241
 20
5.9968306351240344
 30
0.0
 10
8.0710918723829135
 20
6.0016833659633555
 30
0.0
 10
8.0749912269070698
 20
6.0026490963635792
 30
0.0
 10
8.0809063417563181
 20
6.0037448387040682
 30
0.0
 10
8.0869287262373781
 20
6.0043188724198506
 30
0.0
 10
8.088949356135311
 20
6.004452244075777
 30
0.0
 10
8.0969892444813159
 20
6.0047515358306001
 30
0.0
 10
8.1049437022439257
 20
6.0041586941448486
 30
0.0
 10
8.1108243871607542
 20
6.0032613803167711
 30
0.0
 10
8.12041411621008
 20
6.0011271173120369
 30
0.0
 10
8.130292792361713
 20
5.9977291869666027
 30
0.0
 10
8.1342105325650209
 20
5.9961989138368832
 30
0.0
 10
8.1381692794522511
 20
5.9944550126039386
 30
0.0
 10
8.1421052522956732
 20
5.9925313994990432
 30
0.0
  0
SPLINE
  5
2B1
100
AcDbEntity
  8
0
370
    35
390
0
 62
     7
 48
0.03937
100
AcDbSpline
210
0.0
220
0.0
230
1.0
 70
     8
 71
     5
 72
    21
 73
    15
 74
     0
 42
0.0
 43
0.0
 40
0.0
 40
0.0
 40
0.0
 40
0.0
 40
0.0
 40
0.0
 40
4.4559489500254905
 40
4.4559489500254905
 40
4.4559489500254905
 40
9.0160888385360778
 40
9.0160888385360778
 40
9.0160888385360778
 40
10.137002698856008
 40
10.137002698856008
 40
10.137002698856008
 40
11.250790042771975
 40
11.250790042771975
 40
11.250790042771975
 40
11.250790042771975
 40
11.250790042771975
 40
11.250790042771975
 10
8.0655826967798934
 20
5.6392400531306173
 30
0.0
 10
8.0547762898648489
 20
5.6518376819278524
 30
0.0
 10
8.0446870411230229
 20
5.6657175866313318
 30
0.0
 10
8.0352248946347196
 20
5.6809015891048915
 30
0.0
 10
8.0178090696466136
 20
5.7140714441885008
 30
0.0
 10
8.0047697401702766
 20
5.7501295457364829
 30
0.0
 10
7.9995081692935681
 20
5.7686079942802735
 30
0.0
 10
7.9945876242470826
 20
5.7914399631090037
 30
0.0
 10
7.991669729297012
 20
5.8139127337014012
 30
0.0
 10
7.9911713975035017
 20
5.8183330350767424
 30
0.0
 10
7.9903317156968887
 20
5.8271274042272303
 30
0.0
 10
7.9898021288140777
 20
5.8358685679526738
 30
0.0
 10
7.9896158674814304
 20
5.8402097938062649
 30
0.0
 10
7.9895080630191551
 20
5.8445293479886029
 30
0.0
 10
7.9894792376427581
 20
5.8488248393539415
 30
0.0
  0
POLYLINE
  5
2B2
100
AcDbEntity
  8
0
370
    35
390
0
 62
     7
 48
0.03937
100
AcDb2dPolyline
 66
     1
 10
0.0
 20
0.0
 30
0.0
 71
     2
  0
VERTEX
  5
2B3
100
AcDbEntity
  8
0
370
     0
390
0
100
AcDbVertex
100
AcDb2dVertex
 10
8.164184
 20
5.982785
 30
0.0
 42
0.06512
  0
VERTEX
  5
2B4
100
AcDbEntity
  8
0
370
     0
390
0
100
AcDbVertex
100
AcDb2dVertex
 10
8.120218
 20
6.015022
 30
0.0
  0
SEQEND
  5
2B5
100
AcDbEntity
  8
0
370
     0
390
0
  0
POLYLINE
  5
2B6
100
AcDbEntity
  8
0
370
    35
390
0
 62
     7
 48
0.03937
100
AcDb2dPolyline
 66
     1
 10
0.0
 20
0.0
 30
0.0
 71
     2
  0
VERTEX
  5
2B7
100
AcDbEntity
  8
0
370
     0
390
0
100
AcDbVertex
100
AcDb2dVertex
 10
8.163662
 20
5.979828
 30
0.0
 42
0.016098
  0
VERTEX
  5
2B8
100
AcDbEntity
  8
0
370
     0
390
0
100
AcDbVertex
100
AcDb2dVertex
 10
8.120207
 20
6.015001
 30
0.0
  0
SEQEND
  5
2B9
100
AcDbEntity
  8
0
370
     0
390
0
  0
SPLINE
  5
2BA
100
AcDbEntity
  8
0
370
    35
390
0
 62
     7
 48
0.03937
100
AcDbSpline
210
0.0
220
0.0
230
1.0
 70
     8
 71
     5
 72
    27
 73
    21
 74
     0
 42
0.0
 43
0.0
 40
0.0
 40
0.0
 40
0.0
 40
0.0
 40
0.0
 40
0.0
 40
3.5245943764655512
 40
3.5245943764655512
 40
3.5245943764655512
 40
8.6193208366999183
 40
8.6193208366999183
 40
8.6193208366999183
 40
10.294005333067494
 40
10.294005333067494
 40
10.294005333067494
 40
13.637633359419192
 40
13.637633359419192
 40
13.637633359419192
 40
15.342627189502799
 40
15.342627189502799
 40
15.342627189502799
 40
17.023767844278019
 40
17.023767844278019
 40
17.023767844278019
 40
17.023767844278019
 40
17.023767844278019
 40
17.023767844278019
 10
8.2647464167670943
 20
5.6799162006469555
 30
0.0
 10
8.2621423951554256
 20
5.6671264059308086
 30
0.0
 10
8.2586605407160114
 20
5.6549658806175911
 30
0.0
 10
8.2543322809343653
 20
5.6436918478553313
 30
0.0
 10
8.2417288254488934
 20
5.6183327380669708
 30
0.0
 10
8.2242355632836617
 20
5.5991024049755813
 30
0.0
 10
8.2123386394776041
 20
5.5903946280732715
 30
0.0
 10
8.194954771689309
 20
5.5828659816138035
 30
0.0
 10
8.1763701839429981
 20
5.5806633167103046
 30
0.0
 10
8.171719187359443
 20
5.5804436537889748
 30
0.0
 10
8.157701108562744
 20
5.5807498584599804
 30
0.0
 10
8.1438774442998199
 20
5.5837480966067607
 30
0.0
 10
8.1347981908551219
 20
5.5867929841119661
 30
0.0
 10
8.1212039904967046
 20
5.5928428734811808
 30
0.0
 10
8.1074820108454855
 20
5.6013830271447569
 30
0.0
 10
8.1028253694905548
 20
5.6045642604019656
 30
0.0
 10
8.0936068115026014
 20
5.6114521039797713
 30
0.0
 10
8.0845984802878501
 20
5.6193434479289097
 30
0.0
 10
8.080270730774286
 20
5.6234234047767613
 30
0.0
 10
8.0759792114135909
 20
5.6277565500586961
 30
0.0
 10
8.0717834868667389
 20
5.6322836717384073
 30
0.0
  0
POLYLINE
  5
2BB
100
AcDbEntity
  8
0
370
    35
390
0
 62
     7
 48
0.03937
100
AcDb2dPolyline
 66
     1
 10
0.0
 20
0.0
 30
0.0
 71
     2
  0
VERTEX
  5
2BC
100
AcDbEntity
  8
0
370
     0
390
0
100
AcDbVertex
100
AcDb2dVertex
 10
8.065583
 20
5.63924
 30
0.0
 42
0.009602
  0
VERTEX
  5
2BD
100
AcDbEntity
  8
0
370
     0
390
0
100
AcDbVertex
100
AcDb2dVertex
 10
8.071783
 20
5.632284
 30
0.0
  0
SEQEND
  5
2BE
100
AcDbEntity
  8
0
370
     0
390
0
  0
ELLIPSE
  5
2BF
100
AcDbEntity
  8
0
370
    35
390
0
 62
     7
 48
0.03937
100
AcDbEllipse
 10
7.068416
 20
6.149487
 30
0.0
 11
0.0636026442631263
 21
-0.1945763971606803
 31
0.0
210
0.0
220
0.0
230
1.0
 40
0.608973
 41
4.0270155375756431
 42
4.1885000921231388
  0
ELLIPSE
  5
2C0
100
AcDbEntity
  8
0
370
    35
390
0
 62
     7
 48
0.03937
100
AcDbEllipse
 10
7.067087
 20
6.135872
 30
0.0
 11
0.0621465695047179
 21
-0.19530381494005
 31
0.0
210
0.0
220
0.0
230
1.0
 40
0.604345
 41
5.373878004056917
 42
5.8254707452937531
  0
SPLINE
  5
2C1
100
AcDbEntity
  8
0
370
    35
390
0
 62
     7
 48
0.03937
100
AcDbSpline
210
0.0
220
0.0
230
1.0
 70
     8
 71
     5
 72
    24
 73
    18
 74
     0
 42
0.0
 43
0.0
 40
0.0
 40
0.0
 40
0.0
 40
0.0
 40
0.0
 40
0.0
 40
3.8555463333639652
 40
3.8555463333639652
 40
3.8555463333639652
 40
8.4656181463013542
 40
8.4656181463013542
 40
8.4656181463013542
 40
9.1232519074585756
 40
9.1232519074585756
 40
9.1232519074585756
 40
11.710088460009922
 40
11.710088460009922
 40
11.710088460009922
 40
12.987078470759112
 40
12.987078470759112
 40
12.987078470759112
 40
12.987078470759112
 40
12.987078470759112
 40
12.987078470759112
 10
7.0121279951905313
 20
5.9862625742146953
 30
0.0
 10
7.0027750440480281
 20
5.9963460990677913
 30
0.0
 10
6.9939480844577639
 20
6.007408385934375
 30
0.0
 10
6.985688319782823
 20
6.0193324320353785
 30
0.0
 10
6.9689612833211116
 20
6.0470629030030851
 30
0.0
 10
6.955485672311668
 20
6.0778248080986979
 30
0.0
 10
6.9493051924661993
 20
6.0950945482100369
 30
0.0
 10
6.9435945915524542
 20
6.1150814995135132
 30
0.0
 10
6.939469891069006
 20
6.1352128238993417
 30
0.0
 10
6.938980409260652
 20
6.137725266598399
 30
0.0
 10
6.9366989219926847
 20
6.150069586089379
 30
0.0
 10
6.9350696031596595
 20
6.1621276061950292
 30
0.0
 10
6.9341736805018943
 20
6.1714224329299734
 30
0.0
 10
6.9333420115857143
 20
6.1852694049029742
 30
0.0
 10
6.9333665376218843
 20
6.1993087132216349
 30
0.0
 10
6.9334724560563314
 20
6.2039771931000773
 30
0.0
 10
6.9336841773346309
 20
6.2086548485229711
 30
0.0
 10
6.9339990283445516
 20
6.2132865340155838
 30
0.0
  0
SPLINE
  5
2C2
100
AcDbEntity
  8
0
370
    35
390
0
 62
     7
 48
0.03937
100
AcDbSpline
210
0.0
220
0.0
230
1.0
 70
     8
 71
     5
 72
    18
 73
    12
 74
     0
 42
0.0
 43
0.0
 40
0.0
 40
0.0
 40
0.0
 40
0.0
 40
0.0
 40
0.0
 40
4.186915391560067
 40
4.186915391560067
 40
4.186915391560067
 40
8.2944642663326782
 40
8.2944642663326782
 40
8.2944642663326782
 40
10.32092379056893
 40
10.32092379056893
 40
10.32092379056893
 40
10.32092379056893
 40
10.32092379056893
 40
10.32092379056893
 10
7.1884348179300739
 20
6.0039784922369499
 30
0.0
 10
7.1835532706351257
 20
5.9910359289387021
 30
0.0
 10
7.177505413430862
 20
5.9792450916697728
 30
0.0
 10
7.1701971308582921
 20
5.9685144580794507
 30
0.0
 10
7.1530678998232169
 20
5.9504776233712953
 30
0.0
 10
7.1320645242903886
 20
5.9401262775260033
 30
0.0
 10
7.1210846252834177
 20
5.9372283906364993
 30
0.0
 10
7.1043945301843054
 20
5.9358938918908706
 30
0.0
 10
7.0874959793559498
 20
5.9387056822354687
 30
0.0
 10
7.0819080175261782
 20
5.9400655118899248
 30
0.0
 10
7.0762844999085184
 20
5.9418637986493144
 30
0.0
 10
7.0706792193346271
 20
5.94407542550735
 30
0.0
  0
LINE
  5
2C3
100
AcDbEntity
  8
0
370
    35
390
0
 62
     7
 48
0.000186
100
AcDbLine
 10
6.880918
 20
6.223885
 30
0.0
 11
6.881671
 21
6.231304
 31
0.0
210
0.0
220
0.0
230
1.0
  0
POLYLINE
  5
2C4
100
AcDbEntity
  8
0
370
    35
390
0
 62
     7
 48
0.03937
100
AcDb2dPolyline
 66
     1
 10
0.0
 20
0.0
 30
0.0
 71
     2
  0
VERTEX
  5
2C5
100
AcDbEntity
  8
0
370
     0
390
0
100
AcDbVertex
100
AcDb2dVertex
 10
6.897508
 20
6.294271
 30
0.0
 42
0.071186
  0
VERTEX
  5
2C6
100
AcDbEntity
  8
0
370
     0
390
0
100
AcDbVertex
100
AcDb2dVertex
 10
6.881708
 20
6.231301
 30
0.0
  0
SEQEND
  5
2C7
100
AcDbEntity
  8
0
370
     0
390
0
  0
POLYLINE
  5
2C8
100
AcDbEntity
  8
0
370
    35
390
0
 62
     7
 48
0.03937
100
AcDb2dPolyline
 66
     1
 10
0.0
 20
0.0
 30
0.0
 71
     2
  0
VERTEX
  5
2C9
100
AcDbEntity
  8
0
370
     0
390
0
100
AcDbVertex
100
AcDb2dVertex
 10
6.936423
 20
6.242662
 30
0.0
 42
0.044723
  0
VERTEX
  5
2CA
100
AcDbEntity
  8
0
370
     0
390
0
100
AcDbVertex
100
AcDb2dVertex
 10
6.880918
 20
6.223884
 30
0.0
  0
SEQEND
  5
2CB
100
AcDbEntity
  8
0
370
     0
390
0
  0
ELLIPSE
  5
2CC
100
AcDbEntity
  8
0
370
    35
390
0
 62
     7
 48
0.03937
100
AcDbEllipse
 10
7.042308
 20
6.137967
 30
0.0
 11
0.0749750043959444
 21
-0.2272575283392381
 31
0.0
210
0.0
220
0.0
230
1.0
 40
0.623314
 41
2.3052467791079714
 42
2.7007127787366652
  0
POLYLINE
  5
2CD
100
AcDbEntity
  8
0
370
    35
390
0
 62
     7
 48
0.03937
100
AcDb2dPolyline
 66
     1
 10
0.0
 20
0.0
 30
0.0
 71
     2
  0
VERTEX
  5
2CE
100
AcDbEntity
  8
0
370
     0
390
0
100
AcDbVertex
100
AcDb2dVertex
 10
7.188438
 20
6.003977
 30
0.0
 42
0.035659
  0
VERTEX
  5
2CF
100
AcDbEntity
  8
0
370
     0
390
0
100
AcDbVertex
100
AcDb2dVertex
 10
7.195665
 20
6.028531
 30
0.0
  0
SEQEND
  5
2D0
100
AcDbEntity
  8
0
370
     0
390
0
  0
SPLINE
  5
2D1
100
AcDbEntity
  8
0
370
    35
390
0
 62
     7
 48
0.03937
100
AcDbSpline
210
0.0
220
0.0
230
1.0
 70
     8
 71
     5
 72
    15
 73
     9
 74
     0
 42
0.0
 43
0.0
 40
0.0
 40
0.0
 40
0.0
 40
0.0
 40
0.0
 40
0.0
 40
6.5058983762829614
 40
6.5058983762829614
 40
6.5058983762829614
 40
10.748140987231956
 40
10.748140987231956
 40
10.748140987231956
 40
10.748140987231956
 40
10.748140987231956
 40
10.748140987231956
 10
6.8975424558960121
 20
6.2942567766505801
 30
0.0
 10
6.9067409176372934
 20
6.3160027815750004
 30
0.0
 10
6.9188873023888275
 20
6.3349208907097578
 30
0.0
 10
6.9338565433167405
 20
6.3500695975814869
 30
0.0
 10
6.9624477604433963
 20
6.367334446800708
 30
0.0
 10
6.9950309814268365
 20
6.3712302050032052
 30
0.0
 10
7.0082775749636905
 20
6.3706308919065044
 30
0.0
 10
7.0216568459593214
 20
6.3679797338840007
 30
0.0
 10
7.0349509565490376
 20
6.3634364276578887
 30
0.0
  0
ELLIPSE
  5
2D2
100
AcDbEntity
  8
0
370
    35
390
0
 62
     7
 48
0.03937
100
AcDbEllipse
 10
7.554526
 20
5.17562
 30
0.0
 11
-0.0753585832501495
 21
0.2305407549297161
 31
0.0
210
0.0
220
0.0
230
1.0
 40
0.608973
 41
6.2831401961152498
 42
9.4247328497050429
  0
ELLIPSE
  5
2D3
100
AcDbEntity
  8
0
370
    35
390
0
 62
     7
 48
0.03937
100
AcDbEllipse
 10
7.554526
 20
5.17562
 30
0.0
 11
-0.0753585832501495
 21
0.2305407549297161
 31
0.0
210
0.0
220
0.0
230
1.0
 40
0.608973
 41
3.1415475425254566
 42
4.7962269775339692
  0
ELLIPSE
  5
2D4
100
AcDbEntity
  8
0
370
    35
390
0
 62
     7
 48
0.03937
100
AcDbEllipse
 10
7.554526
 20
5.17562
 30
0.0
 11
-0.0753585832501495
 21
0.2305407549297161
 31
0.0
210
0.0
220
0.0
230
1.0
 40
0.608973
 41
4.7962269775339692
 42
6.2831401961152498
  0
POLYLINE
  5
2D5
100
AcDbEntity
  8
0
370
    35
390
0
 62
     7
 48
0.03937
100
AcDb2dPolyline
 66
     1
 10
0.0
 20
0.0
 30
0.0
 71
     2
  0
VERTEX
  5
2D6
100
AcDbEntity
  8
0
370
     0
390
0
100
AcDbVertex
100
AcDb2dVertex
 10
7.109475
 20
6.310775
 30
0.0
 42
0.0339
  0
VERTEX
  5
2D7
100
AcDbEntity
  8
0
370
     0
390
0
100
AcDbVertex
100
AcDb2dVertex
 10
7.103925
 20
6.280607
 30
0.0
  0
SEQEND
  5
2D8
100
AcDbEntity
  8
0
370
     0
390
0
  0
POLYLINE
  5
2D9
100
AcDbEntity
  8
0
370
    35
390
0
 62
     7
 48
0.03937
100
AcDb2dPolyline
 66
     1
 10
0.0
 20
0.0
 30
0.0
 71
     2
  0
VERTEX
  5
2DA
100
AcDbEntity
  8
0
370
     0
390
0
100
AcDbVertex
100
AcDb2dVertex
 10
7.103918
 20
6.280607
 30
0.0
 42
0.030765
  0
VERTEX
  5
2DB
100
AcDbEntity
  8
0
370
     0
390
0
100
AcDbVertex
100
AcDb2dVertex
 10
7.102161
 20
6.247579
 30
0.0
  0
SEQEND
  5
2DC
100
AcDbEntity
  8
0
370
     0
390
0
  0
POLYLINE
  5
2DD
100
AcDbEntity
  8
0
370
    35
390
0
 62
     7
 48
0.03937
100
AcDb2dPolyline
 66
     1
 10
0.0
 20
0.0
 30
0.0
 71
     2
  0
VERTEX
  5
2DE
100
AcDbEntity
  8
0
370
     0
390
0
100
AcDbVertex
100
AcDb2dVertex
 10
7.108447
 20
6.312004
 30
0.0
 42
0.066592
  0
VERTEX
  5
2DF
100
AcDbEntity
  8
0
370
     0
390
0
100
AcDbVertex
100
AcDb2dVertex
 10
7.100743
 20
6.247107
 30
0.0
  0
SEQEND
  5
2E0
100
AcDbEntity
  8
0
370
     0
390
0
  0
POLYLINE
  5
2E1
100
AcDbEntity
  8
0
370
    35
390
0
 62
     7
 48
0.03937
100
AcDb2dPolyline
 66
     1
 10
0.0
 20
0.0
 30
0.0
 71
     2
  0
VERTEX
  5
2E2
100
AcDbEntity
  8
0
370
     0
390
0
100
AcDbVertex
100
AcDb2dVertex
 10
7.061831
 20
6.3182
 30
0.0
 42
0.07051
  0
VERTEX
  5
2E3
100
AcDbEntity
  8
0
370
     0
390
0
100
AcDbVertex
100
AcDb2dVertex
 10
7.047686
 20
6.262212
 30
0.0
  0
SEQEND
  5
2E4
100
AcDbEntity
  8
0
370
     0
390
0
  0
POLYLINE
  5
2E5
100
AcDbEntity
  8
0
370
    35
390
0
 62
     7
 48
0.03937
100
AcDb2dPolyline
 66
     1
 10
0.0
 20
0.0
 30
0.0
 71
     2
  0
VERTEX
  5
2E6
100
AcDbEntity
  8
0
370
     0
390
0
100
AcDbVertex
100
AcDb2dVertex
 10
7.047653
 20
6.262215
 30
0.0
 42
0.030765
  0
VERTEX
  5
2E7
100
AcDbEntity
  8
0
370
     0
390
0
100
AcDbVertex
100
AcDb2dVertex
 10
7.045895
 20
6.229187
 30
0.0
  0
SEQEND
  5
2E8
100
AcDbEntity
  8
0
370
     0
390
0
  0
ELLIPSE
  5
2E9
100
AcDbEntity
  8
0
370
    35
390
0
 62
     7
 48
0.03937
100
AcDbEllipse
 10
7.188435
 20
6.177115
 30
0.0
 11
0.0618708928592236
 21
-0.2064657585759398
 31
0.0
210
0.0
220
0.0
230
1.0
 40
0.62977
 41
3.7927623994280064
 42
4.2777388494310822
  0
POLYLINE
  5
2EA
100
AcDbEntity
  8
0
370
    35
390
0
 62
     7
 48
0.03937
100
AcDb2dPolyline
 66
     1
 10
0.0
 20
0.0
 30
0.0
 71
     2
  0
VERTEX
  5
2EB
100
AcDbEntity
  8
0
370
     0
390
0
100
AcDbVertex
100
AcDb2dVertex
 10
7.005566
 20
6.299808
 30
0.0
 42
0.07051
  0
VERTEX
  5
2EC
100
AcDbEntity
  8
0
370
     0
390
0
100
AcDbVertex
100
AcDb2dVertex
 10
6.99142
 20
6.24382
 30
0.0
  0
SEQEND
  5
2ED
100
AcDbEntity
  8
0
370
     0
390
0
  0
POLYLINE
  5
2EE
100
AcDbEntity
  8
0
370
    35
390
0
 62
     7
 48
0.03937
100
AcDb2dPolyline
 66
     1
 10
0.0
 20
0.0
 30
0.0
 71
     2
  0
VERTEX
  5
2EF
100
AcDbEntity
  8
0
370
     0
390
0
100
AcDbVertex
100
AcDb2dVertex
 10
6.991387
 20
6.243823
 30
0.0
 42
0.030765
  0
VERTEX
  5
2F0
100
AcDbEntity
  8
0
370
     0
390
0
100
AcDbVertex
100
AcDb2dVertex
 10
6.98963
 20
6.210796
 30
0.0
  0
SEQEND
  5
2F1
100
AcDbEntity
  8
0
370
     0
390
0
  0
ELLIPSE
  5
2F2
100
AcDbEntity
  8
0
370
    35
390
0
 62
     7
 48
0.03937
100
AcDbEllipse
 10
7.13217
 20
6.158723
 30
0.0
 11
0.0618707880360717
 21
-0.2064656909353694
 31
0.0
210
0.0
220
0.0
230
1.0
 40
0.62977
 41
3.7927626629316271
 42
4.2777392855010481
  0
SPLINE
  5
2F3
100
AcDbEntity
  8
0
370
    35
390
0
 62
     7
 48
0.03937
100
AcDbSpline
210
0.0
220
0.0
230
1.0
 70
     8
 71
     5
 72
    15
 73
     9
 74
     0
 42
0.0
 43
0.0
 40
0.0
 40
0.0
 40
0.0
 40
0.0
 40
0.0
 40
0.0
 40
5.9139029734456381
 40
5.9139029734456381
 40
5.9139029734456381
 40
9.9495582471006294
 40
9.9495582471006294
 40
9.9495582471006294
 40
9.9495582471006294
 40
9.9495582471006294
 40
9.9495582471006294
 10
8.1966990766760599
 20
4.1013739665126545
 30
0.0
 10
8.1768844906382618
 20
4.1250464574998444
 30
0.0
 10
8.1596368558922698
 20
4.1525278299768331
 30
0.0
 10
8.1453429461305422
 20
4.1824349952697046
 30
0.0
 10
8.1265208860993408
 20
4.2353364348723632
 30
0.0
 10
8.1172269452958918
 20
4.290458852628972
 30
0.0
 10
8.1151089504741094
 20
4.3129436985882457
 30
0.0
 10
8.1147632969692527
 20
4.3352560667775997
 30
0.0
 10
8.1163179496328031
 20
4.3570346578603658
 30
0.0
  0
SPLINE
  5
2F4
100
AcDbEntity
  8
0
370
    35
390
0
 62
     7
 48
0.03937
100
AcDbSpline
210
0.0
220
0.0
230
1.0
 70
     8
 71
     5
 72
    18
 73
    12
 74
     0
 42
0.0
 43
0.0
 40
0.0
 40
0.0
 40
0.0
 40
0.0
 40
0.0
 40
0.0
 40
2.4313749016034998
 40
2.4313749016034998
 40
2.4313749016034998
 40
6.6024993757801322
 40
6.6024993757801322
 40
6.6024993757801322
 40
8.3385688620716518
 40
8.3385688620716518
 40
8.3385688620716518
 40
8.3385688620716518
 40
8.3385688620716518
 40
8.3385688620716518
 10
8.18754029319682
 20
4.4648779424088056
 30
0.0
 10
8.1805697954782577
 20
4.4620034646124962
 30
0.0
 10
8.1739004565813946
 20
4.4583824249319814
 30
0.0
 10
8.1675638944963698
 20
4.4540397224328299
 30
0.0
 10
8.1513647539686271
 20
4.4404109736901995
 30
0.0
 10
8.1379846224863996
 20
4.42193769588987
 30
0.0
 10
8.1309298213535488
 20
4.4086286282497325
 30
0.0
 10
8.1229771679062939
 20
4.3881682887012348
 30
0.0
 10
8.1178165284814696
 20
4.3659013637602149
 30
0.0
 10
8.1165339510381678
 20
4.3591973482939279
 30
0.0
 10
8.1154908117706501
 20
4.3523831988091537
 30
0.0
 10
8.1146816018879324
 20
4.3454661588571657
 30
0.0
  0
POLYLINE
  5
2F5
100
AcDbEntity
  8
0
370
    35
390
0
 62
     7
 48
0.03937
100
AcDb2dPolyline
 66
     1
 10
0.0
 20
0.0
 30
0.0
 71
     2
  0
VERTEX
  5
2F6
100
AcDbEntity
  8
0
370
     0
390
0
100
AcDbVertex
100
AcDb2dVertex
 10
8.114679
 20
4.345466
 30
0.0
 42
0.03076
  0
VERTEX
  5
2F7
100
AcDbEntity
  8
0
370
     0
390
0
100
AcDbVertex
100
AcDb2dVertex
 10
8.112922
 20
4.312444
 30
0.0
  0
SEQEND
  5
2F8
100
AcDbEntity
  8
0
370
     0
390
0
  0
ELLIPSE
  5
2F9
100
AcDbEntity
  8
0
370
    35
390
0
 62
     7
 48
0.03937
100
AcDbEllipse
 10
8.235204
 20
4.249918
 30
0.0
 11
0.0571338675878087
 21
-0.1812945584238979
 31
0.0
210
0.0
220
0.0
230
1.0
 40
0.586891
 41
5.392152421018543
 42
5.8474489871389741
  0
SPLINE
  5
2FA
100
AcDbEntity
  8
0
370
    35
390
0
 62
     7
 48
0.03937
100
AcDbSpline
210
0.0
220
0.0
230
1.0
 70
     8
 71
     5
 72
    21
 73
    15
 74
     0
 42
0.0
 43
0.0
 40
0.0
 40
0.0
 40
0.0
 40
0.0
 40
0.0
 40
0.0
 40
2.0613522221370792
 40
2.0613522221370792
 40
2.0613522221370792
 40
6.3215689725311766
 40
6.3215689725311766
 40
6.3215689725311766
 40
8.4742729549940421
 40
8.4742729549940421
 40
8.4742729549940421
 40
10.629464333270771
 40
10.629464333270771
 40
10.629464333270771
 40
10.629464333270771
 40
10.629464333270771
 40
10.629464333270771
 10
8.1883690250543406
 20
4.1098764157972605
 30
0.0
 10
8.18308355688165
 20
4.1155701343267852
 30
0.0
 10
8.177968765293917
 20
4.1216165907762532
 30
0.0
 10
8.1730380613627851
 20
4.1279876378041021
 30
0.0
 10
8.1585602226733887
 20
4.1483555199551612
 30
0.0
 10
8.145961558114454
 20
4.1713284311797718
 30
0.0
 10
8.1384200363867301
 20
4.187800434960236
 30
0.0
 10
8.1287377817135216
 20
4.2136375711728835
 30
0.0
 10
8.1217606542655716
 20
4.240219528320714
 30
0.0
 10
8.119727915267319
 20
4.2492004556092047
 30
0.0
 10
8.116286215606328
 20
4.2672673986855507
 30
0.0
 10
8.1141328754069679
 20
4.2854075707769104
 30
0.0
 10
8.1133857863376218
 20
4.2944834825198104
 30
0.0
 10
8.1129792172678243
 20
4.3035026747361274
 30
0.0
 10
8.1129192458820896
 20
4.3124437772215636
 30
0.0
  0
ELLIPSE
  5
2FB
100
AcDbEntity
  8
0
370
    35
390
0
 62
     7
 48
0.03937
100
AcDbEllipse
 10
8.235259
 20
4.24512
 30
0.0
 11
0.0575260947220939
 21
-0.1763119458114778
 31
0.0
210
0.0
220
0.0
230
1.0
 40
0.591463
 41
5.8364751958055745
 42
6.2755575008183841
  0
SPLINE
  5
2FC
100
AcDbEntity
  8
0
370
    35
390
0
 62
     7
 48
0.03937
100
AcDbSpline
210
0.0
220
0.0
230
1.0
 70
     8
 71
     5
 72
    24
 73
    18
 74
     0
 42
0.0
 43
0.0
 40
0.0
 40
0.0
 40
0.0
 40
0.0
 40
0.0
 40
0.0
 40
4.1852963442293127
 40
4.1852963442293127
 40
4.1852963442293127
 40
7.0897143599972798
 40
7.0897143599972798
 40
7.0897143599972798
 40
10.084164864287633
 40
10.084164864287633
 40
10.084164864287633
 40
11.596729809071885
 40
11.596729809071885
 40
11.596729809071885
 40
14.652045558913146
 40
14.652045558913146
 40
14.652045558913146
 40
14.652045558913146
 40
14.652045558913146
 40
14.652045558913146
 10
8.2991599574657435
 20
4.088499344483238
 30
0.0
 10
8.2871044281839215
 20
4.0927816870320823
 30
0.0
 10
8.2750483328018021
 20
4.0992712106438178
 30
0.0
 10
8.2632066378147755
 20
4.1078123606627743
 30
0.0
 10
8.2439913631828023
 20
4.1253400035104928
 30
0.0
 10
8.2268518700948441
 20
4.1469249429130812
 30
0.0
 10
8.2201922082842334
 20
4.1563938655366943
 30
0.0
 10
8.2075163711976344
 20
4.1766791341869487
 30
0.0
 10
8.1966042060821973
 20
4.1989974333010558
 30
0.0
 10
8.1915589515230582
 20
4.2107906659881174
 30
0.0
 10
8.184836945772803
 20
4.2289131216951841
 30
0.0
 10
8.1794376665494166
 20
4.2474532412251813
 30
0.0
 10
8.1777765552573545
 20
4.2537134559492875
 30
0.0
 10
8.1732226439823652
 20
4.2726945582991966
 30
0.0
 10
8.170067194204643
 20
4.2919274729524997
 30
0.0
 10
8.1686047256395469
 20
4.3048548309230164
 30
0.0
 10
8.1678230806680681
 20
4.3176874242167411
 30
0.0
 10
8.1677380619908124
 20
4.3303628142207407
 30
0.0
  0
SPLINE
  5
2FD
100
AcDbEntity
  8
0
370
    35
390
0
 62
     7
 48
0.03937
100
AcDbSpline
210
0.0
220
0.0
230
1.0
 70
     8
 71
     5
 72
    18
 73
    12
 74
     0
 42
0.0
 43
0.0
 40
0.0
 40
0.0
 40
0.0
 40
0.0
 40
0.0
 40
0.0
 40
4.3047573000288999
 40
4.3047573000288999
 40
4.3047573000288999
 40
7.2731390920064545
 40
7.2731390920064545
 40
7.2731390920064545
 40
7.2953984631742186
 40
7.2953984631742186
 40
7.2953984631742186
 40
7.2953984631742186
 40
7.2953984631742186
 40
7.2953984631742186
 10
8.2082265208724259
 20
4.4585198386469553
 30
0.0
 10
8.1986115854678658
 20
4.4480458409792298
 30
0.0
 10
8.1902256502505999
 20
4.4355565420607768
 30
0.0
 10
8.1833640978944491
 20
4.4214003631419274
 30
0.0
 10
8.1743578163016277
 20
4.3956261233322023
 30
0.0
 10
8.1695476155774003
 20
4.3672685398907882
 30
0.0
 10
8.1682675698451277
 20
4.3552945702246388
 30
0.0
 10
8.1676680023942598
 20
4.3430435274631636
 30
0.0
 10
8.1677363147254507
 20
4.3306398271883202
 30
0.0
 10
8.1677368601665279
 20
4.3305474978909793
 30
0.0
 10
8.1677374425909051
 20
4.3304551602281247
 30
0.0
 10
8.1677380619908124
 20
4.3303628142207407
 30
0.0
  0
POLYLINE
  5
2FE
100
AcDbEntity
  8
0
370
    35
390
0
 62
     7
 48
0.03937
100
AcDb2dPolyline
 66
     1
 10
0.0
 20
0.0
 30
0.0
 71
     2
  0
VERTEX
  5
2FF
100
AcDbEntity
  8
0
370
     0
390
0
100
AcDbVertex
100
AcDb2dVertex
 10
8.298357
 20
4.089808
 30
0.0
 42
0.057061
  0
VERTEX
  5
300
100
AcDbEntity
  8
0
370
     0
390
0
100
AcDbVertex
100
AcDb2dVertex
 10
8.317976
 20
4.084661
 30
0.0
  0
SEQEND
  5
301
100
AcDbEntity
  8
0
370
     0
390
0
  0
SPLINE
  5
302
100
AcDbEntity
  8
0
370
    35
390
0
 62
     7
 48
0.03937
100
AcDbSpline
210
0.0
220
0.0
230
1.0
 70
     8
 71
     5
 72
    15
 73
     9
 74
     0
 42
0.0
 43
0.0
 40
0.0
 40
0.0
 40
0.0
 40
0.0
 40
0.0
 40
0.0
 40
6.2551532411911541
 40
6.2551532411911541
 40
6.2551532411911541
 40
10.536713502274504
 40
10.536713502274504
 40
10.536713502274504
 40
10.536713502274504
 40
10.536713502274504
 40
10.536713502274504
 10
8.1463727123889971
 20
4.0761282498911395
 30
0.0
 10
8.1247834886250079
 20
4.1001826241478696
 30
0.0
 10
8.1059740058864911
 20
4.1287914771087717
 30
0.0
 10
8.090457959264894
 20
4.1602390126693312
 30
0.0
 10
8.0701527723503421
 20
4.2161697535324265
 30
0.0
 10
8.0605304036341003
 20
4.2746003507485009
 30
0.0
 10
8.0584845690935261
 20
4.2984723973549954
 30
0.0
 10
8.0584499427581626
 20
4.3221127685854421
 30
0.0
 10
8.0605800624193193
 20
4.345075653559074
 30
0.0
  0
POLYLINE
  5
303
100
AcDbEntity
  8
0
370
    35
390
0
 62
     7
 48
0.03937
100
AcDb2dPolyline
 66
     1
 10
0.0
 20
0.0
 30
0.0
 71
     2
  0
VERTEX
  5
304
100
AcDbEntity
  8
0
370
     0
390
0
100
AcDbVertex
100
AcDb2dVertex
 10
8.299161
 20
4.088503
 30
0.0
 42
0.053732
  0
VERTEX
  5
305
100
AcDbEntity
  8
0
370
     0
390
0
100
AcDbVertex
100
AcDb2dVertex
 10
8.317366
 20
4.084078
 30
0.0
  0
SEQEND
  5
306
100
AcDbEntity
  8
0
370
     0
390
0
  0
SPLINE
  5
307
100
AcDbEntity
  8
0
370
    35
390
0
 62
     7
 48
0.03937
100
AcDbSpline
210
0.0
220
0.0
230
1.0
 70
     8
 71
     5
 72
    15
 73
     9
 74
     0
 42
0.0
 43
0.0
 40
0.0
 40
0.0
 40
0.0
 40
0.0
 40
0.0
 40
0.0
 40
5.9139029998544643
 40
5.9139029998544643
 40
5.9139029998544643
 40
9.9495586084652388
 40
9.9495586084652388
 40
9.9495586084652388
 40
9.9495586084652388
 40
9.9495586084652388
 40
9.9495586084652388
 10
8.2529645613322504
 20
4.119765885742666
 30
0.0
 10
8.2331499771962626
 20
4.1434383742853971
 30
0.0
 10
8.2159023433696738
 20
4.1709197434976657
 30
0.0
 10
8.2016084334225514
 20
4.200826905497264
 30
0.0
 10
8.1827863716596863
 20
4.2537283433508399
 30
0.0
 10
8.1734924289988307
 20
4.3088507621637682
 30
0.0
 10
8.1713744334386629
 20
4.3313356106811511
 30
0.0
 10
8.1710287793470435
 20
4.3536479804779278
 30
0.0
 10
8.1725834320419199
 20
4.3754265737719571
 30
0.0
  0
ELLIPSE
  5
308
100
AcDbEntity
  8
0
370
    35
390
0
 62
     7
 48
0.03937
100
AcDbEllipse
 10
8.316708
 20
4.276211
 30
0.0
 11
0.0659142258306176
 21
-0.2095668653828655
 31
0.0
210
0.0
220
0.0
230
1.0
 40
0.62982
 41
3.4971605854711285
 42
4.0940880110340006
  0
POLYLINE
  5
309
100
AcDbEntity
  8
0
370
    35
390
0
 62
     7
 48
0.03937
100
AcDb2dPolyline
 66
     1
 10
0.0
 20
0.0
 30
0.0
 71
     2
  0
VERTEX
  5
30A
100
AcDbEntity
  8
0
370
     0
390
0
100
AcDbVertex
100
AcDb2dVertex
 10
8.170944
 20
4.363858
 30
0.0
 42
0.03076
  0
VERTEX
  5
30B
100
AcDbEntity
  8
0
370
     0
390
0
100
AcDbVertex
100
AcDb2dVertex
 10
8.169188
 20
4.330836
 30
0.0
  0
SEQEND
  5
30C
100
AcDbEntity
  8
0
370
     0
390
0
  0
ELLIPSE
  5
30D
100
AcDbEntity
  8
0
370
    35
390
0
 62
     7
 48
0.03937
100
AcDbEllipse
 10
8.291469
 20
4.26831
 30
0.0
 11
0.057133871244126
 21
-0.1812946252250942
 31
0.0
210
0.0
220
0.0
230
1.0
 40
0.586891
 41
5.3921526713958032
 42
5.847449162779121
  0
SPLINE
  5
30E
100
AcDbEntity
  8
0
370
    35
390
0
 62
     7
 48
0.03937
100
AcDbSpline
210
0.0
220
0.0
230
1.0
 70
     8
 71
     5
 72
    21
 73
    15
 74
     0
 42
0.0
 43
0.0
 40
0.0
 40
0.0
 40
0.0
 40
0.0
 40
0.0
 40
0.0
 40
2.0613519779516452
 40
2.0613519779516452
 40
2.0613519779516452
 40
6.3215690180818873
 40
6.3215690180818873
 40
6.3215690180818873
 40
8.4742730091728902
 40
8.4742730091728902
 40
8.4742730091728902
 40
10.62946443295877
 40
10.62946443295877
 40
10.62946443295877
 40
10.62946443295877
 40
10.62946443295877
 40
10.62946443295877
 10
8.2446345099025926
 20
4.1282683347022653
 30
0.0
 10
8.2393490447490851
 20
4.133962049944456
 30
0.0
 10
8.2342342552635248
 20
4.140008503413398
 30
0.0
 10
8.2293035520239979
 20
4.1463795487355446
 30
0.0
 10
8.2148257135403338
 20
4.1667474277431049
 30
0.0
 10
8.2022270470737482
 20
4.1897203381699901
 30
0.0
 10
8.1946855221263046
 20
4.2061923457457313
 30
0.0
 10
8.1850032643985191
 20
4.2320294890928034
 30
0.0
 10
8.178026136595788
 20
4.2586114480742294
 30
0.0
 10
8.1759933977653265
 20
4.2675923748397651
 30
0.0
 10
8.1725516982027049
 20
4.2856593177583342
 30
0.0
 10
8.1703983580378257
 20
4.3037994899350043
 30
0.0
 10
8.1696512689639409
 20
4.3128754018470072
 30
0.0
 10
8.1692446998799326
 20
4.3218945942602778
 30
0.0
 10
8.1691847284929668
 20
4.3308356969354307
 30
0.0
  0
SPLINE
  5
30F
100
AcDbEntity
  8
0
370
    35
390
0
 62
     7
 48
0.03937
100
AcDbSpline
210
0.0
220
0.0
230
1.0
 70
     8
 71
     5
 72
    24
 73
    18
 74
     0
 42
0.0
 43
0.0
 40
0.0
 40
0.0
 40
0.0
 40
0.0
 40
0.0
 40
0.0
 40
4.1852954703972962
 40
4.1852954703972962
 40
4.1852954703972962
 40
7.0897120984967579
 40
7.0897120984967579
 40
7.0897120984967579
 40
10.084161504796034
 40
10.084161504796034
 40
10.084161504796034
 40
11.596725750307215
 40
11.596725750307215
 40
11.596725750307215
 40
14.652039327460539
 40
14.652039327460539
 40
14.652039327460539
 40
14.652039327460539
 40
14.652039327460539
 40
14.652039327460539
 10
8.2428944748548698
 20
4.0701074247693718
 30
0.0
 10
8.2308389480910265
 20
4.0743897664249333
 30
0.0
 10
8.2187828562516305
 20
4.0808792884008387
 30
0.0
 10
8.2069411503219563
 20
4.0894204416796622
 30
0.0
 10
8.1877258523530543
 20
4.1069481130705574
 30
0.0
 10
8.1705863622376267
 20
4.1285330570035992
 30
0.0
 10
8.1639267087896723
 20
4.1380019696408796
 30
0.0
 10
8.1512508745640844
 20
4.1582872359173342
 30
0.0
 10
8.1403387060249521
 20
4.1806055463502876
 30
0.0
 10
8.1352934493169435
 20
4.1923987885789709
 30
0.0
 10
8.1285714440268162
 20
4.2105212534886318
 30
0.0
 10
8.1231721686286882
 20
4.2290613729527493
 30
0.0
 10
8.121511059048629
 20
4.2353215859719491
 30
0.0
 10
8.1169571537699241
 20
4.2543026777090072
 30
0.0
 10
8.1138017083680296
 20
4.2735355807276996
 30
0.0
 10
8.1123392419113767
 20
4.2864629294637755
 30
0.0
 10
8.1115575979963754
 20
4.2992955135168636
 30
0.0
 10
8.111472579379992
 20
4.3119708945068922
 30
0.0
  0
SPLINE
  5
310
100
AcDbEntity
  8
0
370
    35
390
0
 62
     7
 48
0.03937
100
AcDbSpline
210
0.0
220
0.0
230
1.0
 70
     8
 71
     5
 72
    21
 73
    15
 74
     0
 42
0.0
 43
0.0
 40
0.0
 40
0.0
 40
0.0
 40
0.0
 40
0.0
 40
0.0
 40
2.9098117978667291
 40
2.9098117978667291
 40
2.9098117978667291
 40
6.9105393739958991
 40
6.9105393739958991
 40
6.9105393739958991
 40
8.9676858412015328
 40
8.9676858412015328
 40
8.9676858412015328
 40
10.041578173343161
 40
10.041578173343161
 40
10.041578173343161
 40
10.041578173343161
 40
10.041578173343161
 40
10.041578173343161
 10
8.1873593909879556
 20
4.4649155622113899
 30
0.0
 10
8.1789589536712022
 20
4.4616024931625846
 30
0.0
 10
8.1709802027040705
 20
4.457212210567894
 30
0.0
 10
8.1634844374262538
 20
4.4517862801914889
 30
0.0
 10
8.1469905215889433
 20
4.4366414255009001
 30
0.0
 10
8.1337242810539117
 20
4.4163823028226297
 30
0.0
 10
8.1273575528181219
 20
4.403233941146639
 30
0.0
 10
8.1197230446326536
 20
4.3818570600107032
 30
0.0
 10
8.1150143963205306
 20
4.3586662763495143
 30
0.0
 10
8.113741149977292
 20
4.3505646641520297
 30
0.0
 10
8.112315460148892
 20
4.3380581733936214
 30
0.0
 10
8.1116420919228318
 20
4.3252758235146436
 30
0.0
 10
8.1114988758372064
 20
4.3208618470818037
 30
0.0
 10
8.111442696738516
 20
4.3164260818742219
 30
0.0
 10
8.111472579379992
 20
4.3119708945068922
 30
0.0
  0
SPLINE
  5
311
100
AcDbEntity
  8
0
370
    35
390
0
 62
     7
 48
0.03937
100
AcDbSpline
210
0.0
220
0.0
230
1.0
 70
     8
 71
     5
 72
    24
 73
    18
 74
     0
 42
0.0
 43
0.0
 40
0.0
 40
0.0
 40
0.0
 40
0.0
 40
0.0
 40
0.0
 40
3.8749255108205203
 40
3.8749255108205203
 40
3.8749255108205203
 40
5.2061475913627442
 40
5.2061475913627442
 40
5.2061475913627442
 40
9.3116292516386956
 40
9.3116292516386956
 40
9.3116292516386956
 40
10.694223778239397
 40
10.694223778239397
 40
10.694223778239397
 40
13.482268943450947
 40
13.482268943450947
 40
13.482268943450947
 40
13.482268943450947
 40
13.482268943450947
 40
13.482268943450947
 10
8.3385236986237654
 20
4.1146200653170109
 30
0.0
 10
8.3274399643027337
 20
4.1208185840297347
 30
0.0
 10
8.3165034119418095
 20
4.128795131155206
 30
0.0
 10
8.3059720505133772
 20
4.1383664075802287
 30
0.0
 10
8.2926371577794225
 20
4.1529275863402937
 30
0.0
 10
8.2805285969494804
 20
4.1694236070295672
 30
0.0
 10
8.2775130339559233
 20
4.1737639128255166
 30
0.0
 10
8.2655356816475543
 20
4.1919669321456272
 30
0.0
 10
8.2549577394056737
 20
4.2120757801836861
 30
0.0
 10
8.2479017243570105
 20
4.2281151577434999
 30
0.0
 10
8.2398740245128153
 20
4.2503033502326426
 30
0.0
 10
8.233830966197532
 20
4.2729989781933693
 30
0.0
 10
8.2324355830290923
 20
4.2787424842779593
 30
0.0
 10
8.2286107447283925
 20
4.2961418052987126
 30
0.0
 10
8.2259642877553762
 20
4.3137094310251065
 30
0.0
 10
8.224738786726066
 20
4.3254906673273714
 30
0.0
 10
8.2240811260802005
 20
4.3371881520461057
 30
0.0
 10
8.2240035446016755
 20
4.3487547339346033
 30
0.0
  0
ELLIPSE
  5
312
100
AcDbEntity
  8
0
370
    35
390
0
 62
     7
 48
0.03937
100
AcDbEllipse
 10
8.368095
 20
4.297086
 30
0.0
 11
0.061978003213519
 21
-0.2065448233730829
 31
0.0
210
0.0
220
0.0
230
1.0
 40
0.629832
 41
3.7770761283129617
 42
4.2772493887315663
  0
ELLIPSE
  5
313
100
AcDbEntity
  8
0
370
    35
390
0
 62
     7
 48
0.03937
100
AcDbEllipse
 10
8.233871
 20
4.244406
 30
0.0
 11
0.0574778902757839
 21
-0.1760663833191308
 31
0.0
210
0.0
220
0.0
230
1.0
 40
0.591866
 41
5.8550322430282487
 42
6.2834083223212156
  0
SPLINE
  5
314
100
AcDbEntity
  8
0
370
    35
390
0
 62
     7
 48
0.03937
100
AcDbSpline
210
0.0
220
0.0
230
1.0
 70
     8
 71
     5
 72
    15
 73
     9
 74
     0
 42
0.0
 43
0.0
 40
0.0
 40
0.0
 40
0.0
 40
0.0
 40
0.0
 40
0.0
 40
2.4264100398644102
 40
2.4264100398644102
 40
2.4264100398644102
 40
6.1782004189474256
 40
6.1782004189474256
 40
6.1782004189474256
 40
6.1782004189474256
 40
6.1782004189474256
 40
6.1782004189474256
 10
8.2913721359858936
 20
4.0683467121872194
 30
0.0
 10
8.2976645182607172
 20
4.0704035511825785
 30
0.0
 10
8.303678881303231
 20
4.0732578955136614
 30
0.0
 10
8.3093503491126235
 20
4.0768814991924112
 30
0.0
 10
8.3228255828211317
 20
4.087903888097479
 30
0.0
 10
8.3338121556762097
 20
4.1034228503549821
 30
0.0
 10
8.3394108717078623
 20
4.1143353526516835
 30
0.0
 10
8.3438348089259478
 20
4.1264256593755464
 30
0.0
 10
8.3470910745740721
 20
4.1393510899301553
 30
0.0
  0
SPLINE
  5
315
100
AcDbEntity
  8
0
370
    35
390
0
 62
     7
 48
0.03937
100
AcDbSpline
210
0.0
220
0.0
230
1.0
 70
     8
 71
     5
 72
    15
 73
     9
 74
     0
 42
0.0
 43
0.0
 40
0.0
 40
0.0
 40
0.0
 40
0.0
 40
0.0
 40
0.0
 40
5.9139027342137362
 40
5.9139027342137362
 40
5.9139027342137362
 40
9.9495566420308208
 40
9.9495566420308208
 40
9.9495566420308208
 40
9.9495566420308208
 40
9.9495566420308208
 40
9.9495566420308208
 10
8.3092300510768364
 20
4.1381577948258608
 30
0.0
 10
8.2894154570804233
 20
4.1618302941234271
 30
0.0
 10
8.2721678169025328
 20
4.1893116783857076
 30
0.0
 10
8.2578739046521807
 20
4.2192188554035086
 30
0.0
 10
8.2390518459612299
 20
4.2721203007055246
 30
0.0
 10
8.2297579084740367
 20
4.3272427137285794
 30
0.0
 10
8.2276399157208218
 20
4.3497275491954692
 30
0.0
 10
8.2272942626672929
 20
4.3720399096212432
 30
0.0
 10
8.2288489146204657
 20
4.3938184935182196
 30
0.0
  0
POLYLINE
  5
316
100
AcDbEntity
  8
0
370
    35
390
0
 62
     7
 48
0.03937
100
AcDb2dPolyline
 66
     1
 10
0.0
 20
0.0
 30
0.0
 71
     2
  0
VERTEX
  5
317
100
AcDbEntity
  8
0
370
     0
390
0
100
AcDbVertex
100
AcDb2dVertex
 10
8.241911
 20
4.43947
 30
0.0
 42
0.072515
  0
VERTEX
  5
318
100
AcDbEntity
  8
0
370
     0
390
0
100
AcDbVertex
100
AcDb2dVertex
 10
8.227245
 20
4.382247
 30
0.0
  0
SEQEND
  5
319
100
AcDbEntity
  8
0
370
     0
390
0
  0
POLYLINE
  5
31A
100
AcDbEntity
  8
0
370
    35
390
0
 62
     7
 48
0.03937
100
AcDb2dPolyline
 66
     1
 10
0.0
 20
0.0
 30
0.0
 71
     2
  0
VERTEX
  5
31B
100
AcDbEntity
  8
0
370
     0
390
0
100
AcDbVertex
100
AcDb2dVertex
 10
8.22721
 20
4.38225
 30
0.0
 42
0.03076
  0
VERTEX
  5
31C
100
AcDbEntity
  8
0
370
     0
390
0
100
AcDbVertex
100
AcDb2dVertex
 10
8.225453
 20
4.349228
 30
0.0
  0
SEQEND
  5
31D
100
AcDbEntity
  8
0
370
     0
390
0
  0
POLYLINE
  5
31E
100
AcDbEntity
  8
0
370
    35
390
0
 62
     7
 48
0.03937
100
AcDb2dPolyline
 66
     1
 10
0.0
 20
0.0
 30
0.0
 71
     2
  0
VERTEX
  5
31F
100
AcDbEntity
  8
0
370
     0
390
0
100
AcDbVertex
100
AcDb2dVertex
 10
8.300926
 20
4.146683
 30
0.0
 42
0.075533
  0
VERTEX
  5
320
100
AcDbEntity
  8
0
370
     0
390
0
100
AcDbVertex
100
AcDb2dVertex
 10
8.338971
 20
4.115618
 30
0.0
  0
SEQEND
  5
321
100
AcDbEntity
  8
0
370
     0
390
0
  0
SPLINE
  5
322
100
AcDbEntity
  8
0
370
    35
390
0
 62
     7
 48
0.03937
100
AcDbSpline
210
0.0
220
0.0
230
1.0
 70
     8
 71
     5
 72
    21
 73
    15
 74
     0
 42
0.0
 43
0.0
 40
0.0
 40
0.0
 40
0.0
 40
0.0
 40
0.0
 40
0.0
 40
2.0613522675644078
 40
2.0613522675644078
 40
2.0613522675644078
 40
6.3215679747685982
 40
6.3215679747685982
 40
6.3215679747685982
 40
8.4742712855704667
 40
8.4742712855704667
 40
8.4742712855704667
 40
10.629461522406025
 40
10.629461522406025
 40
10.629461522406025
 40
10.629461522406025
 40
10.629461522406025
 40
10.629461522406025
 10
8.3008999957995471
 20
4.1466602471398577
 30
0.0
 10
8.2956145178275058
 20
4.152353975738948
 30
0.0
 10
8.2904997197956654
 20
4.1584004407832866
 30
0.0
 10
8.285569014384107
 20
4.1647714916808694
 30
0.0
 10
8.2710911758439227
 20
4.1851393791464746
 30
0.0
 10
8.2584925122606876
 20
4.2081122963802198
 30
0.0
 10
8.2509509917664872
 20
4.2245843028624002
 30
0.0
 10
8.2412687392640738
 20
4.2504214414314259
 30
0.0
 10
8.2342916141456861
 20
4.2770033966547754
 30
0.0
 10
8.2322588760176281
 20
4.2859843222796323
 30
0.0
 10
8.228817178332978
 20
4.3040512594518532
 30
0.0
 10
8.2266638395830256
 20
4.3221914244906019
 30
0.0
 10
8.2259167511448652
 20
4.3312673314967114
 30
0.0
 10
8.2255101824591268
 20
4.3402865188995676
 30
0.0
 10
8.2254502111039258
 20
4.3492276166493244
 30
0.0
  0
SPLINE
  5
323
100
AcDbEntity
  8
0
370
    35
390
0
 62
     7
 48
0.03937
100
AcDbSpline
210
0.0
220
0.0
230
1.0
 70
     8
 71
     5
 72
    21
 73
    15
 74
     0
 42
0.0
 43
0.0
 40
0.0
 40
0.0
 40
0.0
 40
0.0
 40
0.0
 40
0.0
 40
1.9598920799870085
 40
1.9598920799870085
 40
1.9598920799870085
 40
5.9996306267335875
 40
5.9996306267335875
 40
5.9996306267335875
 40
8.0336424513926659
 40
8.0336424513926659
 40
8.0336424513926659
 40
10.068635715754013
 40
10.068635715754013
 40
10.068635715754013
 40
10.068635715754013
 40
10.068635715754013
 40
10.068635715754013
 10
8.3486769228133557
 20
4.1725578213495709
 30
0.0
 10
8.3438393819204038
 20
4.1783151450232072
 30
0.0
 10
8.3391690815242896
 20
4.1843639636816494
 30
0.0
 10
8.3346729338770427
 20
4.1906824876722473
 30
0.0
 10
8.3214600477471627
 20
4.2107969171290804
 30
0.0
 10
8.3099747328738189
 20
4.2331895456687887
 30
0.0
 10
8.3031632878848232
 20
4.2490596647205807
 30
0.0
 10
8.294464050109875
 20
4.2736826105898595
 30
0.0
 10
8.2882013243288544
 20
4.2988975946392971
 30
0.0
 10
8.2863748160440842
 20
4.3074146690300052
 30
0.0
 10
8.2832906045213726
 20
4.3244978719180081
 30
0.0
 10
8.2813609933464711
 20
4.341628090343538
 30
0.0
 10
8.2806913198361407
 20
4.3501920259448639
 30
0.0
 10
8.2803256539083137
 20
4.3587042092676755
 30
0.0
 10
8.2802690272125776
 20
4.3671466536484784
 30
0.0
  0
POLYLINE
  5
324
100
AcDbEntity
  8
0
370
    35
390
0
 62
     7
 48
0.03937
100
AcDb2dPolyline
 66
     1
 10
0.0
 20
0.0
 30
0.0
 71
     2
  0
VERTEX
  5
325
100
AcDbEntity
  8
0
370
     0
390
0
100
AcDbVertex
100
AcDb2dVertex
 10
8.281357
 20
4.393684
 30
0.0
 42
0.024325
  0
VERTEX
  5
326
100
AcDbEntity
  8
0
370
     0
390
0
100
AcDbVertex
100
AcDb2dVertex
 10
8.28027
 20
4.367147
 30
0.0
  0
SEQEND
  5
327
100
AcDbEntity
  8
0
370
     0
390
0
  0
SPLINE
  5
328
100
AcDbEntity
  8
0
370
    35
390
0
 62
     7
 48
0.03937
100
AcDbSpline
210
0.0
220
0.0
230
1.0
 70
     8
 71
     5
 72
    15
 73
     9
 74
     0
 42
0.0
 43
0.0
 40
0.0
 40
0.0
 40
0.0
 40
0.0
 40
0.0
 40
0.0
 40
6.4237186589461617
 40
6.4237186589461617
 40
6.4237186589461617
 40
8.0428590462902072
 40
8.0428590462902072
 40
8.0428590462902072
 40
8.0428590462902072
 40
8.0428590462902072
 40
8.0428590462902072
 10
8.3486022627205347
 20
4.1788841253145446
 30
0.0
 10
8.3291571813885614
 20
4.207274921378418
 30
0.0
 10
8.3129722567452209
 20
4.2393163271044525
 30
0.0
 10
8.3003982668038763
 20
4.273505264677584
 30
0.0
 10
8.2894577501333249
 20
4.3178162194710241
 30
0.0
 10
8.2851904937716867
 20
4.3623532467243864
 30
0.0
 10
8.2846079042234173
 20
4.371326240895903
 30
0.0
 10
8.2843115363291062
 20
4.3802553207208526
 30
0.0
 10
8.2843082040041285
 20
4.3891345500872863
 30
0.0
  0
POLYLINE
  5
329
100
AcDbEntity
  8
0
370
    35
390
0
 62
     7
 48
0.03937
100
AcDb2dPolyline
 66
     1
 10
0.0
 20
0.0
 30
0.0
 71
     2
  0
VERTEX
  5
32A
100
AcDbEntity
  8
0
370
     0
390
0
100
AcDbVertex
100
AcDb2dVertex
 10
8.282599
 20
4.391786
 30
0.0
 42
0.022021
  0
VERTEX
  5
32B
100
AcDbEntity
  8
0
370
     0
390
0
100
AcDbVertex
100
AcDb2dVertex
 10
8.281717
 20
4.36762
 30
0.0
  0
SEQEND
  5
32C
100
AcDbEntity
  8
0
370
     0
390
0
  0
SPLINE
  5
32D
100
AcDbEntity
  8
0
370
    35
390
0
 62
     7
 48
0.03937
100
AcDbSpline
210
0.0
220
0.0
230
1.0
 70
     8
 71
     5
 72
    18
 73
    12
 74
     0
 42
0.0
 43
0.0
 40
0.0
 40
0.0
 40
0.0
 40
0.0
 40
0.0
 40
0.0
 40
1.9385113231961211
 40
1.9385113231961211
 40
1.9385113231961211
 40
6.9448132107319545
 40
6.9448132107319545
 40
6.9448132107319545
 40
9.9610291145178067
 40
9.9610291145178067
 40
9.9610291145178067
 40
9.9610291145178067
 40
9.9610291145178067
 40
9.9610291145178067
 10
8.3486636762609781
 20
4.1747853373032147
 30
0.0
 10
8.3439159678959349
 20
4.1805533830982355
 30
0.0
 10
8.339334611686505
 20
4.1866016967099577
 30
0.0
 10
8.334926640825735
 20
4.1929087029916907
 30
0.0
 10
8.3197764069074136
 20
4.2163653434499233
 30
0.0
 10
8.306963490497731
 20
4.242819654276575
 30
0.0
 10
8.2992398460476693
 20
4.2629227371104275
 30
0.0
 10
8.2894428996321814
 20
4.2959867618906697
 30
0.0
 10
8.2839800934417234
 20
4.3297484329597076
 30
0.0
 10
8.2825624129075965
 20
4.3424402291489121
 30
0.0
 10
8.2817996243839183
 20
4.3551063573524891
 30
0.0
 10
8.2817156937149132
 20
4.367619536363228
 30
0.0
  0
SPLINE
  5
32E
100
AcDbEntity
  8
0
370
    35
390
0
 62
     7
 48
0.03937
100
AcDbSpline
210
0.0
220
0.0
230
1.0
 70
     8
 71
     5
 72
    15
 73
     9
 74
     0
 42
0.0
 43
0.0
 40
0.0
 40
0.0
 40
0.0
 40
0.0
 40
0.0
 40
0.0
 40
6.1921840877717296
 40
6.1921840877717296
 40
6.1921840877717296
 40
8.9240369019687531
 40
8.9240369019687531
 40
8.9240369019687531
 40
8.9240369019687531
 40
8.9240369019687531
 40
8.9240369019687531
 10
8.1286326187646818
 20
5.6505480753340143
 30
0.0
 10
8.1079067177617077
 20
5.6753656947577991
 30
0.0
 10
8.089997825913164
 20
5.7043498075065555
 30
0.0
 10
8.0753446084385043
 20
5.7359199642642924
 30
0.0
 10
8.0591622186050795
 20
5.7837163109147935
 30
0.0
 10
8.0507385691443059
 20
5.8330278610544335
 30
0.0
 10
8.0489147894374007
 20
5.8481860878511247
 30
0.0
 10
8.0478796763065823
 20
5.8633226215271801
 30
0.0
 10
8.0476717844844678
 20
5.8783361218780579
 30
0.0
  0
SPLINE
  5
32F
100
AcDbEntity
  8
0
370
    35
390
0
 62
     7
 48
0.03937
100
AcDbSpline
210
0.0
220
0.0
230
1.0
 70
     8
 71
     5
 72
    18
 73
    12
 74
     0
 42
0.0
 43
0.0
 40
0.0
 40
0.0
 40
0.0
 40
0.0
 40
0.0
 40
0.0
 40
5.4075351173898047
 40
5.4075351173898047
 40
5.4075351173898047
 40
7.5564343490032782
 40
7.5564343490032782
 40
7.5564343490032782
 40
10.704838226900218
 40
10.704838226900218
 40
10.704838226900218
 40
10.704838226900218
 40
10.704838226900218
 40
10.704838226900218
 10
8.0450403049585795
 20
5.863152208904177
 30
0.0
 10
8.0450530727392877
 20
5.8407501122286831
 30
0.0
 10
8.0472532633537721
 20
5.8178308184528564
 30
0.0
 10
8.0515297989588888
 20
5.7948451614769008
 30
0.0
 10
8.0602658155379299
 20
5.7633654608975968
 30
0.0
 10
8.0724010269801472
 20
5.7338931842666598
 30
0.0
 10
8.0761374112267799
 20
5.7256498095096502
 30
0.0
 10
8.0859824279380064
 20
5.7058612446687915
 30
0.0
 10
8.0974083051023058
 20
5.687417806503805
 30
0.0
 10
8.1047091114895036
 20
5.6770736062732201
 30
0.0
 10
8.1124348837825107
 20
5.6675029534311117
 30
0.0
 10
8.1204950997482186
 20
5.6588199312416183
 30
0.0
  0
ELLIPSE
  5
330
100
AcDbEntity
  8
0
370
    35
390
0
 62
     7
 48
0.03937
100
AcDbEllipse
 10
8.16734
 20
5.798834
 30
0.0
 11
0.0571296219743425
 21
-0.1812678944229025
 31
0.0
210
0.0
220
0.0
230
1.0
 40
0.586953
 41
5.3920547174793567
 42
5.8567355016163232
  0
ELLIPSE
  5
331
100
AcDbEntity
  8
0
370
    35
390
0
 62
     7
 48
0.03937
100
AcDbEllipse
 10
8.167352
 20
5.794235
 30
0.0
 11
0.0575491003283247
 21
-0.1764881717159516
 31
0.0
210
0.0
220
0.0
230
1.0
 40
0.591195
 41
5.846261802525186
 42
6.2762284384367479
  0
POLYLINE
  5
332
100
AcDbEntity
  8
0
370
    35
390
0
 62
     7
 48
0.03937
100
AcDb2dPolyline
 66
     1
 10
0.0
 20
0.0
 30
0.0
 71
     2
  0
VERTEX
  5
333
100
AcDbEntity
  8
0
370
     0
390
0
100
AcDbVertex
100
AcDb2dVertex
 10
7.992417
 20
5.890705
 30
0.0
 42
0.023817
  0
VERTEX
  5
334
100
AcDbEntity
  8
0
370
     0
390
0
100
AcDbVertex
100
AcDb2dVertex
 10
7.991408
 20
5.859944
 30
0.0
  0
SEQEND
  5
335
100
AcDbEntity
  8
0
370
     0
390
0
  0
POLYLINE
  5
336
100
AcDbEntity
  8
0
370
    35
390
0
 62
     7
 48
0.03937
100
AcDb2dPolyline
 66
     1
 10
0.0
 20
0.0
 30
0.0
 71
     2
  0
VERTEX
  5
337
100
AcDbEntity
  8
0
370
     0
390
0
100
AcDbVertex
100
AcDb2dVertex
 10
8.230164
 20
5.637853
 30
0.0
 42
0.053722
  0
VERTEX
  5
338
100
AcDbEntity
  8
0
370
     0
390
0
100
AcDbVertex
100
AcDb2dVertex
 10
8.248548
 20
5.633146
 30
0.0
  0
SEQEND
  5
339
100
AcDbEntity
  8
0
370
     0
390
0
  0
SPLINE
  5
33A
100
AcDbEntity
  8
0
370
    35
390
0
 62
     7
 48
0.03937
100
AcDbSpline
210
0.0
220
0.0
230
1.0
 70
     8
 71
     5
 72
    21
 73
    15
 74
     0
 42
0.0
 43
0.0
 40
0.0
 40
0.0
 40
0.0
 40
0.0
 40
0.0
 40
0.0
 40
5.9800666987353317
 40
5.9800666987353317
 40
5.9800666987353317
 40
10.394253052993237
 40
10.394253052993237
 40
10.394253052993237
 40
11.821716426645287
 40
11.821716426645287
 40
11.821716426645287
 40
14.517243078162705
 40
14.517243078162705
 40
14.517243078162705
 40
14.517243078162705
 40
14.517243078162705
 40
14.517243078162705
 10
8.0998828371275344
 20
5.8775351474808533
 30
0.0
 10
8.1002012479519525
 20
5.8526925755040011
 30
0.0
 10
8.1031816458667567
 20
5.8272789090846198
 30
0.0
 10
8.1086706813697145
 20
5.8019882654757922
 30
0.0
 10
8.1222208190085077
 20
5.7593603727229361
 30
0.0
 10
8.1420435356701883
 20
5.7209482283713964
 30
0.0
 10
8.1515836902479144
 20
5.7054748478167907
 30
0.0
 10
8.1655251277020007
 20
5.6867560641706572
 30
0.0
 10
8.1806624484682278
 20
5.6710422589282405
 30
0.0
 10
8.1844293663285264
 20
5.6673882692658299
 30
0.0
 10
8.1954613247049668
 20
5.6574162955898926
 30
0.0
 10
8.206967551144297
 20
5.6491222409472313
 30
0.0
 10
8.2146409069729014
 20
5.6444877597667888
 30
0.0
 10
8.2223982900195178
 20
5.6407127693954564
 30
0.0
 10
8.2301622471448539
 20
5.6378488533171955
 30
0.0
  0
POLYLINE
  5
33B
100
AcDbEntity
  8
0
370
    35
390
0
 62
     7
 48
0.03937
100
AcDb2dPolyline
 66
     1
 10
0.0
 20
0.0
 30
0.0
 71
     2
  0
VERTEX
  5
33C
100
AcDbEntity
  8
0
370
     0
390
0
100
AcDbVertex
100
AcDb2dVertex
 10
8.048444
 20
5.905975
 30
0.0
 42
0.021265
  0
VERTEX
  5
33D
100
AcDbEntity
  8
0
370
     0
390
0
100
AcDbVertex
100
AcDb2dVertex
 10
8.047673
 20
5.878336
 30
0.0
  0
SEQEND
  5
33E
100
AcDbEntity
  8
0
370
     0
390
0
  0
POLYLINE
  5
33F
100
AcDbEntity
  8
0
370
    35
390
0
 62
     7
 48
0.03937
100
AcDb2dPolyline
 66
     1
 10
0.0
 20
0.0
 30
0.0
 71
     2
  0
VERTEX
  5
340
100
AcDbEntity
  8
0
370
     0
390
0
100
AcDbVertex
100
AcDb2dVertex
 10
8.046806
 20
5.894402
 30
0.0
 42
0.029225
  0
VERTEX
  5
341
100
AcDbEntity
  8
0
370
     0
390
0
100
AcDbVertex
100
AcDb2dVertex
 10
8.045043
 20
5.863152
 30
0.0
  0
SEQEND
  5
342
100
AcDbEntity
  8
0
370
     0
390
0
  0
SPLINE
  5
343
100
AcDbEntity
  8
0
370
    35
390
0
 62
     7
 48
0.03937
100
AcDbSpline
210
0.0
220
0.0
230
1.0
 70
     8
 71
     5
 72
    15
 73
     9
 74
     0
 42
0.0
 43
0.0
 40
0.0
 40
0.0
 40
0.0
 40
0.0
 40
0.0
 40
0.0
 40
4.3110023984756882
 40
4.3110023984756882
 40
4.3110023984756882
 40
7.0495711025229904
 40
7.0495711025229904
 40
7.0495711025229904
 40
7.0495711025229904
 40
7.0495711025229904
 40
7.0495711025229904
 10
8.0468084258426238
 20
5.8944018330958308
 30
0.0
 10
8.0488269665719692
 20
5.9116593806211757
 30
0.0
 10
8.0523104526940514
 20
5.9283522659871002
 30
0.0
 10
8.0573146587944517
 20
5.9440322557233012
 30
0.0
 10
8.0678482205254305
 20
5.9674237711257367
 30
0.0
 10
8.0821551779189793
 20
5.9865197700939952
 30
0.0
 10
8.0882911504689918
 20
5.993250059850511
 30
0.0
 10
8.0949829723852478
 20
5.9991653049523066
 30
0.0
 10
8.1021288778959857
 20
6.0041763751695081
 30
0.0
  0
SPLINE
  5
344
100
AcDbEntity
  8
0
370
    35
390
0
 62
     7
 48
0.03937
100
AcDbSpline
210
0.0
220
0.0
230
1.0
 70
     8
 71
     5
 72
    15
 73
     9
 74
     0
 42
0.0
 43
0.0
 40
0.0
 40
0.0
 40
0.0
 40
0.0
 40
0.0
 40
0.0
 40
6.3485147934569968
 40
6.3485147934569968
 40
6.3485147934569968
 40
9.1599956280490424
 40
9.1599956280490424
 40
9.1599956280490424
 40
9.1599956280490424
 40
9.1599956280490424
 40
9.1599956280490424
 10
8.0763671163370923
 20
5.62747713878273
 30
0.0
 10
8.0546811935033187
 20
5.6522535082950682
 30
0.0
 10
8.0358937416684064
 20
5.6816120087275781
 30
0.0
 10
8.02051665686629
 20
5.7137923036579785
 30
0.0
 10
8.0035020880060781
 20
5.7627138035030834
 30
0.0
 10
7.9946345749534782
 20
5.8133103269408091
 30
0.0
 10
7.9927103522578937
 20
5.8289116636907616
 30
0.0
 10
7.9916202533253475
 20
5.8444930884415198
 30
0.0
 10
7.991406301873595
 20
5.8599442021641943
 30
0.0
  0
SPLINE
  5
345
100
AcDbEntity
  8
0
370
    35
390
0
 62
     7
 48
0.03937
100
AcDbSpline
210
0.0
220
0.0
230
1.0
 70
     8
 71
     5
 72
    18
 73
    12
 74
     0
 42
0.0
 43
0.0
 40
0.0
 40
0.0
 40
0.0
 40
0.0
 40
0.0
 40
0.0
 40
4.5276814741520139
 40
4.5276814741520139
 40
4.5276814741520139
 40
7.1372993430049512
 40
7.1372993430049512
 40
7.1372993430049512
 40
8.8029616875445047
 40
8.8029616875445047
 40
8.8029616875445047
 40
8.8029616875445047
 40
8.8029616875445047
 40
8.8029616875445047
 10
8.0436173545166607
 20
5.8591432277669879
 30
0.0
 10
8.0433762764802026
 20
5.8779522575972543
 30
0.0
 10
8.0446611701678528
 20
5.8964339052549768
 30
0.0
 10
8.0475448369489584
 20
5.9144253065886119
 30
0.0
 10
8.054784010167781
 20
5.9411842544752549
 30
0.0
 10
8.0659874260894888
 20
5.9642471455147703
 30
0.0
 10
8.0706147641609842
 20
5.9721444256294909
 30
0.0
 10
8.0790418475554961
 20
5.9840814529392086
 30
0.0
 10
8.0888426597532792
 20
5.9942283967855037
 30
0.0
 10
8.092873574958336
 20
5.997896850646816
 30
0.0
 10
8.0970787654409691
 20
6.001234577744742
 30
0.0
 10
8.1014479444068623
 20
6.0042348114698383
 30
0.0
  0
SPLINE
  5
346
100
AcDbEntity
  8
0
370
    35
390
0
 62
     7
 48
0.03937
100
AcDbSpline
210
0.0
220
0.0
230
1.0
 70
     8
 71
     5
 72
    15
 73
     9
 74
     0
 42
0.0
 43
0.0
 40
0.0
 40
0.0
 40
0.0
 40
0.0
 40
0.0
 40
0.0
 40
4.6735988605990606
 40
4.6735988605990606
 40
4.6735988605990606
 40
6.5807235185896857
 40
6.5807235185896857
 40
6.5807235185896857
 40
6.5807235185896857
 40
6.5807235185896857
 40
6.5807235185896857
 10
8.0998828371275344
 20
5.8775351474808533
 30
0.0
 10
8.0996339896778746
 20
5.8969503516877264
 30
0.0
 10
8.1010110563122222
 20
5.916016730378387
 30
0.0
 10
8.1040949160652751
 20
5.9345464530434242
 30
0.0
 10
8.1110015272612372
 20
5.9590617959992702
 30
0.0
 10
8.1212637595172037
 20
5.9803593529303942
 30
0.0
 10
8.124506394630556
 20
5.9862216084415607
 30
0.0
 10
8.1280343648283999
 20
5.9917904728278861
 30
0.0
 10
8.1318417945794188
 20
5.9970303159011973
 30
0.0
  0
SPLINE
  5
347
100
AcDbEntity
  8
0
370
    35
390
0
 62
     7
 48
0.03937
100
AcDbSpline
210
0.0
220
0.0
230
1.0
 70
     8
 71
     5
 72
    15
 73
     9
 74
     0
 42
0.0
 43
0.0
 40
0.0
 40
0.0
 40
0.0
 40
0.0
 40
0.0
 40
0.0
 40
6.192182784139626
 40
6.192182784139626
 40
6.192182784139626
 40
8.9240347929664559
 40
8.9240347929664559
 40
8.9240347929664559
 40
8.9240347929664559
 40
8.9240347929664559
 40
8.9240347929664559
 10
8.1848980990068121
 20
5.6689399990441078
 30
0.0
 10
8.1641721983768427
 20
5.693757618452242
 30
0.0
 10
8.1462633050051156
 20
5.7227417320386857
 30
0.0
 10
8.1316100856860984
 20
5.7543118910424829
 30
0.0
 10
8.1154276967979335
 20
5.8021082407579216
 30
0.0
 10
8.107004050021855
 20
5.8514197898585358
 30
0.0
 10
8.105180271270541
 20
5.8665780148002336
 30
0.0
 10
8.1041451588520026
 20
5.8817145456685793
 30
0.0
 10
8.1039372670953416
 20
5.896728041591925
 30
0.0
  0
SPLINE
  5
348
100
AcDbEntity
  8
0
370
    35
390
0
 62
     7
 48
0.03937
100
AcDbSpline
210
0.0
220
0.0
230
1.0
 70
     8
 71
     5
 72
    18
 73
    12
 74
     0
 42
0.0
 43
0.0
 40
0.0
 40
0.0
 40
0.0
 40
0.0
 40
0.0
 40
0.0
 40
5.4075311226597815
 40
5.4075311226597815
 40
5.4075311226597815
 40
7.5564268475595453
 40
7.5564268475595453
 40
7.5564268475595453
 40
10.704828204550338
 40
10.704828204550338
 40
10.704828204550338
 40
10.704828204550338
 40
10.704828204550338
 40
10.704828204550338
 10
8.1013057875694532
 20
5.8815441286180414
 30
0.0
 10
8.1013185553402831
 20
5.8591420484879668
 30
0.0
 10
8.1035187435394338
 20
5.8362227689190016
 30
0.0
 10
8.1077952754968052
 20
5.8132371082508456
 30
0.0
 10
8.1165312951198754
 20
5.7817574027871652
 30
0.0
 10
8.1286664935739754
 20
5.7522851504242567
 30
0.0
 10
8.1324028735803253
 20
5.7440417811058557
 30
0.0
 10
8.1422478840159709
 20
5.7242532182463677
 30
0.0
 10
8.1536737695483748
 20
5.705809756306655
 30
0.0
 10
8.1609745872598172
 20
5.695465537513452
 30
0.0
 10
8.1687003681373049
 20
5.6858948744036226
 30
0.0
 10
8.1767605852985508
 20
5.6772118503704574
 30
0.0
  0
ELLIPSE
  5
349
100
AcDbEntity
  8
0
370
    35
390
0
 62
     7
 48
0.03937
100
AcDbEllipse
 10
8.223606
 20
5.817226
 30
0.0
 11
0.057129525052094
 21
-0.1812682983047948
 31
0.0
210
0.0
220
0.0
230
1.0
 40
0.586952
 41
5.3920562380975277
 42
5.8567364843478513
  0
POLYLINE
  5
34A
100
AcDbEntity
  8
0
370
    35
390
0
 62
     7
 48
0.03937
100
AcDb2dPolyline
 66
     1
 10
0.0
 20
0.0
 30
0.0
 71
     2
  0
VERTEX
  5
34B
100
AcDbEntity
  8
0
370
     0
390
0
100
AcDbVertex
100
AcDb2dVertex
 10
8.23161
 20
5.638325
 30
0.0
 42
0.050186
  0
VERTEX
  5
34C
100
AcDbEntity
  8
0
370
     0
390
0
100
AcDbVertex
100
AcDb2dVertex
 10
8.248883
 20
5.633783
 30
0.0
  0
SEQEND
  5
34D
100
AcDbEntity
  8
0
370
     0
390
0
  0
POLYLINE
  5
34E
100
AcDbEntity
  8
0
370
    35
390
0
 62
     7
 48
0.03937
100
AcDb2dPolyline
 66
     1
 10
0.0
 20
0.0
 30
0.0
 71
     2
  0
VERTEX
  5
34F
100
AcDbEntity
  8
0
370
     0
390
0
100
AcDbVertex
100
AcDb2dVertex
 10
8.223499
 20
5.61728
 30
0.0
 42
0.102767
  0
VERTEX
  5
350
100
AcDbEntity
  8
0
370
     0
390
0
100
AcDbVertex
100
AcDb2dVertex
 10
8.247481
 20
5.631195
 30
0.0
  0
SEQEND
  5
351
100
AcDbEntity
  8
0
370
     0
390
0
  0
ELLIPSE
  5
352
100
AcDbEntity
  8
0
370
    35
390
0
 62
     7
 48
0.03937
100
AcDbEllipse
 10
8.166018
 20
5.793251
 30
0.0
 11
0.057464816769356
 21
-0.1759673865680025
 31
0.0
210
0.0
220
0.0
230
1.0
 40
0.592018
 41
5.8453770153292544
 42
6.2833212823258506
  0
SPLINE
  5
353
100
AcDbEntity
  8
0
370
    35
390
0
 62
     7
 48
0.03937
100
AcDbSpline
210
0.0
220
0.0
230
1.0
 70
     8
 71
     5
 72
    21
 73
    15
 74
     0
 42
0.0
 43
0.0
 40
0.0
 40
0.0
 40
0.0
 40
0.0
 40
0.0
 40
0.0
 40
5.9800684321737299
 40
5.9800684321737299
 40
5.9800684321737299
 40
10.39425253003326
 40
10.39425253003326
 40
10.39425253003326
 40
11.821714880546015
 40
11.821714880546015
 40
11.821714880546015
 40
14.517238914010619
 40
14.517238914010619
 40
14.517238914010619
 40
14.517238914010619
 40
14.517238914010619
 40
14.517238914010619
 10
8.0436173545166607
 20
5.859143227766987
 30
0.0
 10
8.0439357654238659
 20
5.8343006485893438
 30
0.0
 10
8.0469161661061772
 20
5.8088869729828323
 30
0.0
 10
8.0524052057419802
 20
5.7835963173491693
 30
0.0
 10
8.0659553484435058
 20
5.7409684206518943
 30
0.0
 10
8.0857780696744737
 20
5.7025562773872354
 30
0.0
 10
8.0953182277982805
 20
5.6870828903213244
 30
0.0
 10
8.1092596810217206
 20
5.6683640970578946
 30
0.0
 10
8.1243970045731615
 20
5.6526502990474334
 30
0.0
 10
8.1281639215458856
 20
5.6489963126913674
 30
0.0
 10
8.1391958728391298
 20
5.6390243516832088
 30
0.0
 10
8.150702090609677
 20
5.6307303077106337
 30
0.0
 10
8.1583754394252885
 20
5.6260958327194519
 30
0.0
 10
8.1661328149501244
 20
5.6223208469000516
 30
0.0
 10
8.1738967645340335
 20
5.619456933603348
 30
0.0
  0
SPLINE
  5
354
100
AcDbEntity
  8
0
370
    35
390
0
 62
     7
 48
0.03937
100
AcDbSpline
210
0.0
220
0.0
230
1.0
 70
     8
 71
     5
 72
    21
 73
    15
 74
     0
 42
0.0
 43
0.0
 40
0.0
 40
0.0
 40
0.0
 40
0.0
 40
0.0
 40
0.0
 40
5.2252976374358298
 40
5.2252976374358298
 40
5.2252976374358298
 40
7.8190175115913885
 40
7.8190175115913885
 40
7.8190175115913885
 40
11.627046617208741
 40
11.627046617208741
 40
11.627046617208741
 40
12.801794832024251
 40
12.801794832024251
 40
12.801794832024251
 40
12.801794832024251
 40
12.801794832024251
 40
12.801794832024251
 10
8.1561483197384081
 20
5.8959270671947186
 30
0.0
 10
8.1564265426099514
 20
5.8742199794281662
 30
0.0
 10
8.1587371974265732
 20
5.8520768566271846
 30
0.0
 10
8.1629800265789125
 20
5.8298831677536294
 30
0.0
 10
8.1720955294927027
 20
5.7973134407513038
 30
0.0
 10
8.1848452376942316
 20
5.7669194379993947
 30
0.0
 10
8.1894923799733732
 20
5.7570364716872549
 30
0.0
 10
8.201867391498018
 20
5.7334839311612669
 30
0.0
 10
8.216479347054408
 20
5.7121024998943941
 30
0.0
 10
8.2258401889304675
 20
5.7004571539588067
 30
0.0
 10
8.2387380266508519
 20
5.6868991239811191
 30
0.0
 10
8.2523332064190882
 20
5.6757708150157162
 30
0.0
 10
8.2555796538547135
 20
5.6732825548862085
 30
0.0
 10
8.2588539039267932
 20
5.6709427048915151
 30
0.0
 10
8.262154601357155
 20
5.6687538337823016
 30
0.0
  0
POLYLINE
  5
355
100
AcDbEntity
  8
0
370
    35
390
0
 62
     7
 48
0.03937
100
AcDb2dPolyline
 66
     1
 10
0.0
 20
0.0
 30
0.0
 71
     2
  0
VERTEX
  5
356
100
AcDbEntity
  8
0
370
     0
390
0
100
AcDbVertex
100
AcDb2dVertex
 10
8.10471
 20
5.924367
 30
0.0
 42
0.021265
  0
VERTEX
  5
357
100
AcDbEntity
  8
0
370
     0
390
0
100
AcDbVertex
100
AcDb2dVertex
 10
8.103938
 20
5.896728
 30
0.0
  0
SEQEND
  5
358
100
AcDbEntity
  8
0
370
     0
390
0
  0
POLYLINE
  5
359
100
AcDbEntity
  8
0
370
    35
390
0
 62
     7
 48
0.03937
100
AcDb2dPolyline
 66
     1
 10
0.0
 20
0.0
 30
0.0
 71
     2
  0
VERTEX
  5
35A
100
AcDbEntity
  8
0
370
     0
390
0
100
AcDbVertex
100
AcDb2dVertex
 10
8.103071
 20
5.912794
 30
0.0
 42
0.029225
  0
VERTEX
  5
35B
100
AcDbEntity
  8
0
370
     0
390
0
100
AcDbVertex
100
AcDb2dVertex
 10
8.101308
 20
5.881544
 30
0.0
  0
SEQEND
  5
35C
100
AcDbEntity
  8
0
370
     0
390
0
  0
ELLIPSE
  5
35D
100
AcDbEntity
  8
0
370
    35
390
0
 62
     7
 48
0.03937
100
AcDbEllipse
 10
8.248488
 20
5.82547
 30
0.0
 11
0.0655069046092438
 21
-0.2092513576556279
 31
0.0
210
0.0
220
0.0
230
1.0
 40
0.629882
 41
3.5857178546717843
 42
4.0958670333189078
  0
POLYLINE
  5
35E
100
AcDbEntity
  8
0
370
    35
390
0
 62
     7
 48
0.03937
100
AcDb2dPolyline
 66
     1
 10
0.0
 20
0.0
 30
0.0
 71
     2
  0
VERTEX
  5
35F
100
AcDbEntity
  8
0
370
     0
390
0
100
AcDbVertex
100
AcDb2dVertex
 10
8.172156
 20
5.974039
 30
0.0
 42
0.014223
  0
VERTEX
  5
360
100
AcDbEntity
  8
0
370
     0
390
0
100
AcDbVertex
100
AcDb2dVertex
 10
8.163663
 20
5.97983
 30
0.0
  0
SEQEND
  5
361
100
AcDbEntity
  8
0
370
     0
390
0
  0
ELLIPSE
  5
362
100
AcDbEntity
  8
0
370
    35
390
0
 62
     7
 48
0.03937
100
AcDbEllipse
 10
8.299976
 20
5.846161
 30
0.0
 11
0.0617422130561308
 21
-0.2063678489810671
 31
0.0
210
0.0
220
0.0
230
1.0
 40
0.629592
 41
3.8549217288552708
 42
4.2869450297044853
  0
SPLINE
  5
363
100
AcDbEntity
  8
0
370
    35
390
0
 62
     7
 48
0.03937
100
AcDbSpline
210
0.0
220
0.0
230
1.0
 70
     8
 71
     5
 72
    15
 73
     9
 74
     0
 42
0.0
 43
0.0
 40
0.0
 40
0.0
 40
0.0
 40
0.0
 40
0.0
 40
0.0
 40
6.1921836976230269
 40
6.1921836976230269
 40
6.1921836976230269
 40
8.9240362654096153
 40
8.9240362654096153
 40
8.9240362654096153
 40
8.9240362654096153
 40
8.9240362654096153
 40
8.9240362654096153
 10
8.241163581213339
 20
5.687331919204607
 30
0.0
 10
8.2204376810802167
 20
5.7121495389267931
 30
0.0
 10
8.2025287896715859
 20
5.7411336518865506
 30
0.0
 10
8.1878755723251864
 20
5.7727038088403253
 30
0.0
 10
8.1716931829955008
 20
5.8205001551197162
 30
0.0
 10
8.1632695340494301
 20
5.8698117037783204
 30
0.0
 10
8.1614457545176506
 20
5.8849699296961298
 30
0.0
 10
8.160410641510774
 20
5.9001064623044632
 30
0.0
 10
8.1602027497062153
 20
5.9151199613057903
 30
0.0
  0
SPLINE
  5
364
100
AcDbEntity
  8
0
370
    35
390
0
 62
     7
 48
0.03937
100
AcDbSpline
210
0.0
220
0.0
230
1.0
 70
     8
 71
     5
 72
    18
 73
    12
 74
     0
 42
0.0
 43
0.0
 40
0.0
 40
0.0
 40
0.0
 40
0.0
 40
0.0
 40
0.0
 40
5.4075305733132337
 40
5.4075305733132337
 40
5.4075305733132337
 40
7.5564265088684657
 40
7.5564265088684657
 40
7.5564265088684657
 40
10.704828875581809
 40
10.704828875581809
 40
10.704828875581809
 40
10.704828875581809
 40
10.704828875581809
 40
10.704828875581809
 10
8.1575712701803251
 20
5.8999360483319077
 30
0.0
 10
8.1575840379478564
 20
5.8775339704816929
 30
0.0
 10
8.1597842260185516
 20
5.8546146966527131
 30
0.0
 10
8.1640607567833783
 20
5.8316290473609369
 30
0.0
 10
8.172796769788869
 20
5.8001493562443933
 30
0.0
 10
8.1849319625820609
 20
5.7706771069206555
 30
0.0
 10
8.1886683417290094
 20
5.7624337364949607
 30
0.0
 10
8.1985133516895861
 20
5.7426451672666943
 30
0.0
 10
8.2099392411095558
 20
5.7242016932773234
 30
0.0
 10
8.2172400630835156
 20
5.7138574664274522
 30
0.0
 10
8.2249658481154491
 20
5.7042867974554188
 30
0.0
 10
8.2330260683767289
 20
5.695603769851961
 30
0.0
  0
POLYLINE
  5
365
100
AcDbEntity
  8
0
370
    35
390
0
 62
     7
 48
0.03937
100
AcDb2dPolyline
 66
     1
 10
0.0
 20
0.0
 30
0.0
 71
     2
  0
VERTEX
  5
366
100
AcDbEntity
  8
0
370
     0
390
0
100
AcDbVertex
100
AcDb2dVertex
 10
8.233038
 20
5.695614
 30
0.0
 42
0.056669
  0
VERTEX
  5
367
100
AcDbEntity
  8
0
370
     0
390
0
100
AcDbVertex
100
AcDb2dVertex
 10
8.262464
 20
5.66997
 30
0.0
  0
SEQEND
  5
368
100
AcDbEntity
  8
0
370
     0
390
0
  0
SPLINE
  5
369
100
AcDbEntity
  8
0
370
    35
390
0
 62
     7
 48
0.03937
100
AcDbSpline
210
0.0
220
0.0
230
1.0
 70
     8
 71
     5
 72
    15
 73
     9
 74
     0
 42
0.0
 43
0.0
 40
0.0
 40
0.0
 40
0.0
 40
0.0
 40
0.0
 40
0.0
 40
6.1428899138565063
 40
6.1428899138565063
 40
6.1428899138565063
 40
8.7285286738013959
 40
8.7285286738013959
 40
8.7285286738013959
 40
8.7285286738013959
 40
8.7285286738013959
 40
8.7285286738013959
 10
8.2124138023492819
 20
5.914318986908583
 30
0.0
 10
8.2127408827490118
 20
5.8888000098654656
 30
0.0
 10
8.215876881924487
 20
5.8626784153005298
 30
0.0
 10
8.2216539171255345
 20
5.8367434579627213
 30
0.0
 10
8.2332701373262243
 20
5.8010995721343663
 30
0.0
 10
8.2493130206808445
 20
5.7684413557960914
 30
0.0
 10
8.2544680578783893
 20
5.759017134389131
 30
0.0
 10
8.2599842164779673
 20
5.7499669711126291
 30
0.0
 10
8.2658286699789265
 20
5.7413553044798737
 30
0.0
  0
POLYLINE
  5
36A
100
AcDbEntity
  8
0
370
    35
390
0
 62
     7
 48
0.03937
100
AcDb2dPolyline
 66
     1
 10
0.0
 20
0.0
 30
0.0
 71
     2
  0
VERTEX
  5
36B
100
AcDbEntity
  8
0
370
     0
390
0
100
AcDbVertex
100
AcDb2dVertex
 10
8.160975
 20
5.942759
 30
0.0
 42
0.021265
  0
VERTEX
  5
36C
100
AcDbEntity
  8
0
370
     0
390
0
100
AcDbVertex
100
AcDb2dVertex
 10
8.160204
 20
5.91512
 30
0.0
  0
SEQEND
  5
36D
100
AcDbEntity
  8
0
370
     0
390
0
  0
POLYLINE
  5
36E
100
AcDbEntity
  8
0
370
    35
390
0
 62
     7
 48
0.03937
100
AcDb2dPolyline
 66
     1
 10
0.0
 20
0.0
 30
0.0
 71
     2
  0
VERTEX
  5
36F
100
AcDbEntity
  8
0
370
     0
390
0
100
AcDbVertex
100
AcDb2dVertex
 10
8.159337
 20
5.931186
 30
0.0
 42
0.029225
  0
VERTEX
  5
370
100
AcDbEntity
  8
0
370
     0
390
0
100
AcDbVertex
100
AcDb2dVertex
 10
8.157574
 20
5.899936
 30
0.0
  0
SEQEND
  5
371
100
AcDbEntity
  8
0
370
     0
390
0
  0
POLYLINE
  5
372
100
AcDbEntity
  8
0
370
    35
390
0
 62
     7
 48
0.03937
100
AcDb2dPolyline
 66
     1
 10
0.0
 20
0.0
 30
0.0
 71
     2
  0
VERTEX
  5
373
100
AcDbEntity
  8
0
370
     0
390
0
100
AcDbVertex
100
AcDb2dVertex
 10
8.169289
 20
5.976069
 30
0.0
 42
0.053618
  0
VERTEX
  5
374
100
AcDbEntity
  8
0
370
     0
390
0
100
AcDbVertex
100
AcDb2dVertex
 10
8.159353
 20
5.931184
 30
0.0
  0
SEQEND
  5
375
100
AcDbEntity
  8
0
370
     0
390
0
  0
LINE
  5
376
100
AcDbEntity
  8
0
370
    35
390
0
 62
     7
 48
0.000063
100
AcDbLine
 10
8.212414
 20
5.914319
 30
0.0
 11
8.212392
 21
5.916844
 31
0.0
210
0.0
220
0.0
230
1.0
  0
SPLINE
  5
377
100
AcDbEntity
  8
0
370
    35
390
0
 62
     7
 48
0.03937
100
AcDbSpline
210
0.0
220
0.0
230
1.0
 70
     8
 71
     5
 72
    12
 73
     6
 74
     0
 42
0.0
 43
0.0
 40
0.0
 40
0.0
 40
0.0
 40
0.0
 40
0.0
 40
0.0
 40
5.7920420066384173
 40
5.7920420066384173
 40
5.7920420066384173
 40
5.7920420066384173
 40
5.7920420066384173
 40
5.7920420066384173
 10
8.2647540468037999
 20
5.7536685329734825
 30
0.0
 10
8.2493356007344243
 20
5.7813227439208257
 30
0.0
 10
8.2367155291601311
 20
5.8113275440724061
 30
0.0
 10
8.2271030470127418
 20
5.8427379980765037
 30
0.0
 10
8.2207037639275846
 20
5.8748783856019449
 30
0.0
 10
8.2178476242785052
 20
5.9069226901818208
 30
0.0
  0
SPLINE
  5
378
100
AcDbEntity
  8
0
370
    35
390
0
 62
     7
 48
0.03937
100
AcDbSpline
210
0.0
220
0.0
230
1.0
 70
     8
 71
     5
 72
    15
 73
     9
 74
     0
 42
0.0
 43
0.0
 40
0.0
 40
0.0
 40
0.0
 40
0.0
 40
0.0
 40
0.0
 40
6.0133986435439395
 40
6.0133986435439395
 40
6.0133986435439395
 40
8.5483515423975387
 40
8.5483515423975387
 40
8.5483515423975387
 40
8.5483515423975387
 40
8.5483515423975387
 40
8.5483515423975387
 10
8.2138682785912422
 20
5.9142255569037117
 30
0.0
 10
8.2142372912568877
 20
5.8892309874532405
 30
0.0
 10
8.2172971586068471
 20
5.8636225823145711
 30
0.0
 10
8.2229060026919676
 20
5.838217263230268
 30
0.0
 10
8.2341235043530201
 20
5.8032894110675084
 30
0.0
 10
8.2496277607914994
 20
5.7711184758275804
 30
0.0
 10
8.2546143290610416
 20
5.7618131612414478
 30
0.0
 10
8.2599508618148434
 20
5.7528591060939513
 30
0.0
 10
8.265607105139253
 20
5.7443168704152372
 30
0.0
  0
ELLIPSE
  5
379
100
AcDbEntity
  8
0
370
    35
390
0
 62
     7
 48
0.03937
100
AcDbEllipse
 10
7.111962
 20
6.143501
 30
0.0
 11
0.0575284796433532
 21
-0.1763410903597598
 31
0.0
210
0.0
220
0.0
230
1.0
 40
0.591422
 41
5.8365315277802088
 42
6.2585896744894107
  0
SPLINE
  5
37A
100
AcDbEntity
  8
0
370
    35
390
0
 62
     7
 48
0.03937
100
AcDbSpline
210
0.0
220
0.0
230
1.0
 70
     8
 71
     5
 72
    15
 73
     9
 74
     0
 42
0.0
 43
0.0
 40
0.0
 40
0.0
 40
0.0
 40
0.0
 40
0.0
 40
0.0
 40
5.9676609214341099
 40
5.9676609214341099
 40
5.9676609214341099
 40
10.046462640331542
 40
10.046462640331542
 40
10.046462640331542
 40
10.046462640331542
 40
10.046462640331542
 40
10.046462640331542
 10
7.0187732629485335
 20
5.9794028349193757
 30
0.0
 10
6.9986093434391865
 20
6.0030360072236189
 30
0.0
 10
6.9810370739010876
 20
6.0306203772052234
 30
0.0
 10
6.9664670629473928
 20
6.0607151865691957
 30
0.0
 10
6.9472535578749142
 20
6.1140502779876247
 30
0.0
 10
6.9377374712435147
 20
6.1697006993879793
 30
0.0
 10
6.935558764009258
 20
6.1924296781538315
 30
0.0
 10
6.9351890976818034
 20
6.2149863326866779
 30
0.0
 10
6.9367606001209028
 20
6.2369977012917861
 30
0.0
  0
SPLINE
  5
37B
100
AcDbEntity
  8
0
370
    35
390
0
 62
     7
 48
0.03937
100
AcDbSpline
210
0.0
220
0.0
230
1.0
 70
     8
 71
     5
 72
    18
 73
    12
 74
     0
 42
0.0
 43
0.0
 40
0.0
 40
0.0
 40
0.0
 40
0.0
 40
0.0
 40
0.0
 40
2.5477947685515687
 40
2.5477947685515687
 40
2.5477947685515687
 40
6.9148257783071756
 40
6.9148257783071756
 40
6.9148257783071756
 40
8.7327534737250936
 40
8.7327534737250936
 40
8.7327534737250936
 40
8.7327534737250936
 40
8.7327534737250936
 40
8.7327534737250936
 10
7.0136448703920573
 20
6.3469484384181643
 30
0.0
 10
7.0061472352898901
 20
6.3444434732627366
 30
0.0
 10
6.9989500402984275
 20
6.3411011797919077
 30
0.0
 10
6.9921113897943741
 20
6.3369491846199324
 30
0.0
 10
6.9746466542083159
 20
6.323653445685685
 30
0.0
 10
6.9601798057510136
 20
6.3049399708788121
 30
0.0
 10
6.9525410619450687
 20
6.2912571340665906
 30
0.0
 10
6.943952999921768
 20
6.2700139171994325
 30
0.0
 10
6.9384341015396149
 20
6.2467710827429563
 30
0.0
 10
6.9370685594617383
 20
6.2397619924627188
 30
0.0
 10
6.9359657863006694
 20
6.2326310743526001
 30
0.0
 10
6.9351195133409442
 20
6.2253874055605714
 30
0.0
  0
POLYLINE
  5
37C
100
AcDbEntity
  8
0
370
    35
390
0
 62
     7
 48
0.03937
100
AcDb2dPolyline
 66
     1
 10
0.0
 20
0.0
 30
0.0
 71
     2
  0
VERTEX
  5
37D
100
AcDbEntity
  8
0
370
     0
390
0
100
AcDbVertex
100
AcDb2dVertex
 10
6.935119
 20
6.225387
 30
0.0
 42
0.01186
  0
VERTEX
  5
37E
100
AcDbEntity
  8
0
370
     0
390
0
100
AcDbVertex
100
AcDb2dVertex
 10
6.933999
 20
6.213287
 30
0.0
  0
SEQEND
  5
37F
100
AcDbEntity
  8
0
370
     0
390
0
  0
LINE
  5
380
100
AcDbEntity
  8
0
370
    35
390
0
 62
     7
 48
0.000108
100
AcDbLine
 10
7.175868
 20
5.986851
 30
0.0
 11
7.179981
 21
5.985493
 31
0.0
210
0.0
220
0.0
230
1.0
  0
SPLINE
  5
381
100
AcDbEntity
  8
0
370
    35
390
0
 62
     7
 48
0.03937
100
AcDbSpline
210
0.0
220
0.0
230
1.0
 70
     8
 71
     5
 72
    15
 73
     9
 74
     0
 42
0.0
 43
0.0
 40
0.0
 40
0.0
 40
0.0
 40
0.0
 40
0.0
 40
0.0
 40
5.9138614604817157
 40
5.9138614604817157
 40
5.9138614604817157
 40
9.949491445274905
 40
9.949491445274905
 40
9.949491445274905
 40
9.949491445274905
 40
9.949491445274905
 40
9.949491445274905
 10
7.0734069721417141
 20
5.9997256977798825
 30
0.0
 10
7.0535925260821228
 20
6.0233980232586157
 30
0.0
 10
7.0363449953343737
 20
6.0508791769333419
 30
0.0
 10
7.0220511456931636
 20
6.080786098713391
 30
0.0
 10
7.0032291035157135
 20
6.1336871277272023
 30
0.0
 10
6.9939350363132027
 20
6.1888091525697382
 30
0.0
 10
6.9918169641872403
 20
6.2112938564939491
 30
0.0
 10
6.9914712058147614
 20
6.233606098174576
 30
0.0
 10
6.9930257233892759
 20
6.2553845878786083
 30
0.0
  0
ELLIPSE
  5
382
100
AcDbEntity
  8
0
370
    35
390
0
 62
     7
 48
0.03937
100
AcDbEllipse
 10
7.139068
 20
6.153701
 30
0.0
 11
0.0682899202519368
 21
-0.2119205506089771
 31
0.0
210
0.0
220
0.0
230
1.0
 40
0.627435
 41
3.3629815839480797
 42
3.7709614470191823
  0
ELLIPSE
  5
383
100
AcDbEntity
  8
0
370
    35
390
0
 62
     7
 48
0.03937
100
AcDbEllipse
 10
7.111912
 20
6.14827
 30
0.0
 11
0.0571338145085229
 21
-0.1812947275467313
 31
0.0
210
0.0
220
0.0
230
1.0
 40
0.586891
 41
5.3921530141520302
 42
5.8474493854759908
  0
SPLINE
  5
384
100
AcDbEntity
  8
0
370
    35
390
0
 62
     7
 48
0.03937
100
AcDbSpline
210
0.0
220
0.0
230
1.0
 70
     8
 71
     5
 72
    21
 73
    15
 74
     0
 42
0.0
 43
0.0
 40
0.0
 40
0.0
 40
0.0
 40
0.0
 40
0.0
 40
0.0
 40
2.0613517717673622
 40
2.0613517717673622
 40
2.0613517717673622
 40
6.3215680995328105
 40
6.3215680995328105
 40
6.3215680995328105
 40
8.474271562583521
 40
8.474271562583521
 40
8.474271562583521
 40
10.629462179728367
 40
10.629462179728367
 40
10.629462179728367
 40
10.629462179728367
 40
10.629462179728367
 40
10.629462179728367
 10
7.0650769223904595
 20
6.0082281459719962
 30
0.0
 10
7.0597914532456176
 20
6.0139218660375944
 30
0.0
 10
7.0546766615934651
 20
6.0199683233117112
 30
0.0
 10
7.0497459588176943
 20
6.0263393697229191
 30
0.0
 10
7.0352681235727141
 20
6.0467072485771016
 30
0.0
 10
7.022669458692536
 20
6.0696801606868345
 30
0.0
 10
7.0151279335656325
 20
6.0861521713898368
 30
0.0
 10
7.0054456766100328
 20
6.1119893193695383
 30
0.0
 10
6.9984685510716158
 20
6.1385712765795235
 30
0.0
 10
6.9964358132083158
 20
6.1475522013244817
 30
0.0
 10
6.9929941154675426
 20
6.1656191391923603
 30
0.0
 10
6.9908407765448111
 20
6.183759305875701
 30
0.0
 10
6.9900936879694253
 20
6.1928352143760472
 30
0.0
 10
6.9896871191703989
 20
6.2018544033808114
 30
0.0
 10
6.9896271478066385
 20
6.2107955027087653
 30
0.0
  0
SPLINE
  5
385
100
AcDbEntity
  8
0
370
    35
390
0
 62
     7
 48
0.03937
100
AcDbSpline
210
0.0
220
0.0
230
1.0
 70
     8
 71
     5
 72
    24
 73
    18
 74
     0
 42
0.0
 43
0.0
 40
0.0
 40
0.0
 40
0.0
 40
0.0
 40
0.0
 40
0.0
 40
4.185295211098496
 40
4.185295211098496
 40
4.185295211098496
 40
7.0897117707232802
 40
7.0897117707232802
 40
7.0897117707232802
 40
10.084161125676193
 40
10.084161125676193
 40
10.084161125676193
 40
11.596725341977297
 40
11.596725341977297
 40
11.596725341977297
 40
14.652038857439758
 40
14.652038857439758
 40
14.652038857439758
 40
14.652038857439758
 40
14.652038857439758
 40
14.652038857439758
 10
7.1196023767795031
 20
5.968459150256602
 30
0.0
 10
7.1075468507628212
 20
5.9727414916467367
 30
0.0
 10
7.0954907581033702
 20
5.9792310133272109
 30
0.0
 10
7.0836490527547449
 20
5.9877721665888561
 30
0.0
 10
7.0644337566265127
 20
6.0052998359198853
 30
0.0
 10
7.0472942660321012
 20
6.0268847803735017
 30
0.0
 10
7.0406346113695593
 20
6.0363536948875316
 30
0.0
 10
7.0279587766536054
 20
6.0566389623514549
 30
0.0
 10
7.017046608186849
 20
6.0789572727507561
 30
0.0
 10
7.0120013515337938
 20
6.0907505147125365
 30
0.0
 10
7.0052793461763212
 20
6.1088729793971339
 30
0.0
 10
6.9998800706190325
 20
6.127413098967283
 30
0.0
 10
6.9982189609769403
 20
6.1336733120840146
 30
0.0
 10
6.9936650555853825
 20
6.1526544039611011
 30
0.0
 10
6.9905096102002933
 20
6.1718873068881086
 30
0.0
 10
6.9890471438111232
 20
6.1848146554473926
 30
0.0
 10
6.9882654999193292
 20
6.1976472392624986
 30
0.0
 10
6.9881804813045987
 20
6.2103226199941135
 30
0.0
  0
ELLIPSE
  5
386
100
AcDbEntity
  8
0
370
    35
390
0
 62
     7
 48
0.03937
100
AcDbEllipse
 10
7.138041
 20
6.152603
 30
0.0
 11
0.0688202845419038
 21
-0.2125115766465885
 31
0.0
210
0.0
220
0.0
230
1.0
 40
0.626664
 41
3.3561734600077773
 42
3.7690048201846569
  0
SPLINE
  5
387
100
AcDbEntity
  8
0
370
    35
390
0
 62
     7
 48
0.03937
100
AcDbSpline
210
0.0
220
0.0
230
1.0
 70
     8
 71
     5
 72
    24
 73
    18
 74
     0
 42
0.0
 43
0.0
 40
0.0
 40
0.0
 40
0.0
 40
0.0
 40
0.0
 40
0.0
 40
4.1852959372249634
 40
4.1852959372249634
 40
4.1852959372249634
 40
7.0897132549662922
 40
7.0897132549662922
 40
7.0897132549662922
 40
10.084163315920428
 40
10.084163315920428
 40
10.084163315920428
 40
11.596727969947723
 40
11.596727969947723
 40
11.596727969947723
 40
14.652042755117957
 40
14.652042755117957
 40
14.652042755117957
 40
14.652042755117957
 40
14.652042755117957
 40
14.652042755117957
 10
7.175867859390376
 20
5.9868510699704682
 30
0.0
 10
7.1638123312898472
 20
5.9911334121080211
 30
0.0
 10
7.151756237631103
 20
5.9976229348348005
 30
0.0
 10
7.1399145380343123
 20
6.0061640858544001
 30
0.0
 10
7.1206992536210167
 20
6.0236917401569716
 30
0.0
 10
7.103559762182015
 20
6.0452766803881923
 30
0.0
 10
7.0969001036812545
 20
6.0547455988794088
 30
0.0
 10
7.0842242678706855
 20
6.0750308659738437
 30
0.0
 10
7.0733121007893685
 20
6.0973491707588439
 30
0.0
 10
7.0682668449213102
 20
6.1091424085498511
 30
0.0
 10
7.0615448390842657
 20
6.1272648694272114
 30
0.0
 10
7.0561455615154456
 20
6.1458049894869546
 30
0.0
 10
7.0544844509941358
 20
6.1520652035655434
 30
0.0
 10
7.0499305424857042
 20
6.1710463011721544
 30
0.0
 10
7.0467750946929675
 20
6.1902792106732978
 30
0.0
 10
7.045312627082903
 20
6.2032065645107384
 30
0.0
 10
7.0445309825646643
 20
6.216039153706169
 30
0.0
 10
7.0444459639155257
 20
6.2287145397079966
 30
0.0
  0
POLYLINE
  5
388
100
AcDbEntity
  8
0
370
    35
390
0
 62
     7
 48
0.03937
100
AcDb2dPolyline
 66
     1
 10
0.0
 20
0.0
 30
0.0
 71
     2
  0
VERTEX
  5
389
100
AcDbEntity
  8
0
370
     0
390
0
100
AcDbVertex
100
AcDb2dVertex
 10
7.074202
 20
6.343296
 30
0.0
 42
0.049644
  0
VERTEX
  5
38A
100
AcDbEntity
  8
0
370
     0
390
0
100
AcDbVertex
100
AcDb2dVertex
 10
7.06042
 20
6.317713
 30
0.0
  0
SEQEND
  5
38B
100
AcDbEntity
  8
0
370
     0
390
0
  0
POLYLINE
  5
38C
100
AcDbEntity
  8
0
370
    35
390
0
 62
     7
 48
0.03937
100
AcDb2dPolyline
 66
     1
 10
0.0
 20
0.0
 30
0.0
 71
     2
  0
VERTEX
  5
38D
100
AcDbEntity
  8
0
370
     0
390
0
100
AcDbVertex
100
AcDb2dVertex
 10
7.175063
 20
5.988154
 30
0.0
 42
0.014482
  0
VERTEX
  5
38E
100
AcDbEntity
  8
0
370
     0
390
0
100
AcDbVertex
100
AcDb2dVertex
 10
7.180411
 20
5.986282
 30
0.0
  0
SEQEND
  5
38F
100
AcDbEntity
  8
0
370
     0
390
0
  0
LINE
  5
390
100
AcDbEntity
  8
0
370
    35
390
0
 62
     7
 48
0.00019
100
AcDbLine
 10
6.880918
 20
6.223885
 30
0.0
 11
6.88169
 21
6.231465
 31
0.0
210
0.0
220
0.0
230
1.0
  0
ELLIPSE
  5
391
100
AcDbEntity
  8
0
370
    35
390
0
 62
     7
 48
0.03937
100
AcDbEllipse
 10
7.110572
 20
6.142798
 30
0.0
 11
0.0574817759259553
 21
-0.1761079449113928
 31
0.0
210
0.0
220
0.0
230
1.0
 40
0.591806
 41
5.8551093204706657
 42
6.271692070762521
  0
SPLINE
  5
392
100
AcDbEntity
  8
0
370
    35
390
0
 62
     7
 48
0.03937
100
AcDbSpline
210
0.0
220
0.0
230
1.0
 70
     8
 71
     5
 72
    15
 73
     9
 74
     0
 42
0.0
 43
0.0
 40
0.0
 40
0.0
 40
0.0
 40
0.0
 40
0.0
 40
0.0
 40
5.9138614103570486
 40
5.9138614103570486
 40
5.9138614103570486
 40
9.9494901677331384
 40
9.9494901677331384
 40
9.9494901677331384
 40
9.9494901677331384
 40
9.9494901677331384
 40
9.9494901677331384
 10
7.1296724653275776
 20
6.018117603924737
 30
0.0
 10
7.109858009830738
 20
6.0417899376218687
 30
0.0
 10
7.0926104727405423
 20
6.0692711027304513
 30
0.0
 10
7.0783166207392645
 20
6.0991780358458021
 30
0.0
 10
7.0594945804725535
 20
6.1520790712134792
 30
0.0
 10
7.0502005169446322
 20
6.2072010929979378
 30
0.0
 10
7.0480824465859122
 20
6.2296857882839456
 30
0.0
 10
7.0477366890468378
 20
6.2519980233835355
 30
0.0
 10
7.0492912057941295
 20
6.273776505963454
 30
0.0
  0
POLYLINE
  5
393
100
AcDbEntity
  8
0
370
    35
390
0
 62
     7
 48
0.03937
100
AcDb2dPolyline
 66
     1
 10
0.0
 20
0.0
 30
0.0
 71
     2
  0
VERTEX
  5
394
100
AcDbEntity
  8
0
370
     0
390
0
100
AcDbVertex
100
AcDb2dVertex
 10
7.074972
 20
6.342764
 30
0.0
 42
0.047314
  0
VERTEX
  5
395
100
AcDbEntity
  8
0
370
     0
390
0
100
AcDbVertex
100
AcDb2dVertex
 10
7.061865
 20
6.318186
 30
0.0
  0
SEQEND
  5
396
100
AcDbEntity
  8
0
370
     0
390
0
  0
ELLIPSE
  5
397
100
AcDbEntity
  8
0
370
    35
390
0
 62
     7
 48
0.03937
100
AcDbEllipse
 10
7.168177
 20
6.166661
 30
0.0
 11
0.0571339222893787
 21
-0.1812941483905841
 31
0.0
210
0.0
220
0.0
230
1.0
 40
0.586891
 41
5.3921509438568593
 42
5.8474479708676332
  0
SPLINE
  5
398
100
AcDbEntity
  8
0
370
    35
390
0
 62
     7
 48
0.03937
100
AcDbSpline
210
0.0
220
0.0
230
1.0
 70
     8
 71
     5
 72
    21
 73
    15
 74
     0
 42
0.0
 43
0.0
 40
0.0
 40
0.0
 40
0.0
 40
0.0
 40
0.0
 40
0.0
 40
2.0613525310093674
 40
2.0613525310093674
 40
2.0613525310093674
 40
6.3215684320622412
 40
6.3215684320622412
 40
6.3215684320622412
 40
8.474272127135297
 40
8.474272127135297
 40
8.474272127135297
 40
10.629462989451197
 40
10.629462989451197
 40
10.629462989451197
 40
10.629462989451197
 40
10.629462989451197
 40
10.629462989451197
 10
7.1213424093748747
 20
6.0266200568331119
 30
0.0
 10
7.1160569335427502
 20
6.0323137830701032
 30
0.0
 10
7.1109421365341747
 20
6.0383602464889101
 30
0.0
 10
7.1060114305907689
 20
6.0447312974940219
 30
0.0
 10
7.0915335901611307
 20
6.0650991870992508
 30
0.0
 10
7.0789349282442373
 20
6.0880721024909725
 30
0.0
 10
7.0713934117206501
 20
6.1045441022152866
 30
0.0
 10
7.0617111625961089
 20
6.1303812294841222
 30
0.0
 10
7.054734036829247
 20
6.1569631839218779
 30
0.0
 10
7.0527012980106205
 20
6.165944111549126
 30
0.0
 10
7.0492595991197238
 20
6.184011052898768
 30
0.0
 10
7.0471062595025211
 20
6.2021512222926924
 30
0.0
 10
7.0463591706958999
 20
6.2112271320032901
 30
0.0
 10
7.0459526017908196
 20
6.2202463220741784
 30
0.0
 10
7.0458926304177441
 20
6.229187422422708
 30
0.0
  0
ELLIPSE
  5
399
100
AcDbEntity
  8
0
370
    35
390
0
 62
     7
 48
0.03937
100
AcDbEllipse
 10
7.082776
 20
6.132533
 30
0.0
 11
0.0700584775604178
 21
-0.2141148091504896
 31
0.0
210
0.0
220
0.0
230
1.0
 40
0.624348
 41
2.7574608231030422
 42
3.1414120862327692
  0
SPLINE
  5
39A
100
AcDbEntity
  8
0
370
    35
390
0
 62
     7
 48
0.03937
100
AcDbSpline
210
0.0
220
0.0
230
1.0
 70
     8
 71
     5
 72
    18
 73
    12
 74
     0
 42
0.0
 43
0.0
 40
0.0
 40
0.0
 40
0.0
 40
0.0
 40
0.0
 40
0.0
 40
2.3043728354754314
 40
2.3043728354754314
 40
2.3043728354754314
 40
6.2331079946146808
 40
6.2331079946146808
 40
6.2331079946146808
 40
7.8622580361737722
 40
7.8622580361737722
 40
7.8622580361737722
 40
7.8622580361737722
 40
7.8622580361737722
 40
7.8622580361737722
 10
7.0127419913566378
 20
6.3466552666727658
 30
0.0
 10
7.0059407104243778
 20
6.3444320802237444
 30
0.0
 10
6.9993808000947721
 20
6.3415211196561581
 30
0.0
 10
6.9931198571942783
 20
6.3379474794384763
 30
0.0
 10
6.9770637659383707
 20
6.3266141665199322
 30
0.0
 10
6.963403685425992
 20
6.3108405875158242
 30
0.0
 10
6.9559001706898718
 20
6.2992941919619323
 30
0.0
 10
6.947043595053886
 20
6.2811063764648098
 30
0.0
 10
6.9407140490569414
 20
6.2610757350287694
 30
0.0
 10
6.9390731648240545
 20
6.2550616199270603
 30
0.0
 10
6.9376439950526008
 20
6.2489202529459842
 30
0.0
 10
6.9364236774820291
 20
6.2426608123572294
 30
0.0
  0
SPLINE
  5
39B
100
AcDbEntity
  8
0
370
    35
390
0
 62
     7
 48
0.03937
100
AcDbSpline
210
0.0
220
0.0
230
1.0
 70
     8
 71
     5
 72
    24
 73
    18
 74
     0
 42
0.0
 43
0.0
 40
0.0
 40
0.0
 40
0.0
 40
0.0
 40
0.0
 40
0.0
 40
2.3145015748058739
 40
2.3145015748058739
 40
2.3145015748058739
 40
4.6952197783627936
 40
4.6952197783627936
 40
4.6952197783627936
 40
8.3630467484557744
 40
8.3630467484557744
 40
8.3630467484557744
 40
10.816669264633697
 40
10.816669264633697
 40
10.816669264633697
 40
12.060487440926389
 40
12.060487440926389
 40
12.060487440926389
 40
12.060487440926389
 40
12.060487440926389
 40
12.060487440926389
 10
7.1952363331648233
 20
6.0266194930242722
 30
0.0
 10
7.1888549803032991
 20
6.0317818686121214
 30
0.0
 10
7.1826164952683973
 20
6.0374934717682915
 30
0.0
 10
7.1765521097367087
 20
6.0437171255830302
 30
0.0
 10
7.1647459364928627
 20
6.057173925080682
 30
0.0
 10
7.1539280740091069
 20
6.0722310133814403
 30
0.0
 10
7.1487372850670896
 20
6.0801906188410566
 30
0.0
 10
7.1361342550512461
 20
6.1014871839003471
 30
0.0
 10
7.1254277694060155
 20
6.1248419807802064
 30
0.0
 10
7.1197541040935439
 20
6.1395309490751115
 30
0.0
 10
7.1117312472465892
 20
6.1645707592547847
 30
0.0
 10
7.1061996058529884
 20
6.190125129564187
 30
0.0
 10
7.1043810920030763
 20
6.2004618921588133
 30
0.0
 10
7.1022803715112124
 20
6.2160380501046797
 30
0.0
 10
7.1011604138572855
 20
6.2315518699732255
 30
0.0
 10
7.1008961206870245
 20
6.2367601107254877
 30
0.0
 10
7.1007460576056367
 20
6.2419463117441749
 30
0.0
 10
7.1007114465263186
 20
6.2471064594218371
 30
0.0
  0
SPLINE
  5
39C
100
AcDbEntity
  8
0
370
    35
390
0
 62
     7
 48
0.03937
100
AcDbSpline
210
0.0
220
0.0
230
1.0
 70
     8
 71
     5
 72
    15
 73
     9
 74
     0
 42
0.0
 43
0.0
 40
0.0
 40
0.0
 40
0.0
 40
0.0
 40
0.0
 40
0.0
 40
5.9138613139416449
 40
5.9138613139416449
 40
5.9138613139416449
 40
9.9494902667503631
 40
9.9494902667503631
 40
9.9494902667503631
 40
9.9494902667503631
 40
9.9494902667503631
 40
9.9494902667503631
 10
7.1859379432601784
 20
6.036509532677762
 30
0.0
 10
7.1661234901532991
 20
6.0601818646725381
 30
0.0
 10
7.1488759547735317
 20
6.0876630261125619
 30
0.0
 10
7.1345821038933588
 20
6.117569954651227
 30
0.0
 10
7.1157600641099865
 20
6.1704709860784801
 30
0.0
 10
7.1064660001930893
 20
6.2255930068200236
 30
0.0
 10
7.1043479294530387
 20
6.2480777042114779
 30
0.0
 10
7.1040021713614427
 20
6.270389939874601
 30
0.0
 10
7.1055566884476029
 20
6.2921684242869613
 30
0.0
  0
POLYLINE
  5
39D
100
AcDbEntity
  8
0
370
    35
390
0
 62
     7
 48
0.03937
100
AcDb2dPolyline
 66
     1
 10
0.0
 20
0.0
 30
0.0
 71
     2
  0
VERTEX
  5
39E
100
AcDbEntity
  8
0
370
     0
390
0
100
AcDbVertex
100
AcDb2dVertex
 10
7.17761
 20
6.045014
 30
0.0
 42
0.033338
  0
VERTEX
  5
39F
100
AcDbEntity
  8
0
370
     0
390
0
100
AcDbVertex
100
AcDb2dVertex
 10
7.195552
 20
6.028011
 30
0.0
  0
SEQEND
  5
3A0
100
AcDbEntity
  8
0
370
     0
390
0
  0
SPLINE
  5
3A1
100
AcDbEntity
  8
0
370
    35
390
0
 62
     7
 48
0.03937
100
AcDbSpline
210
0.0
220
0.0
230
1.0
 70
     8
 71
     5
 72
    21
 73
    15
 74
     0
 42
0.0
 43
0.0
 40
0.0
 40
0.0
 40
0.0
 40
0.0
 40
0.0
 40
0.0
 40
2.0613512146749216
 40
2.0613512146749216
 40
2.0613512146749216
 40
6.321567256818577
 40
6.321567256818577
 40
6.321567256818577
 40
8.4742702942186057
 40
8.4742702942186057
 40
8.4742702942186057
 40
10.629460346484739
 40
10.629460346484739
 40
10.629460346484739
 40
10.629460346484739
 40
10.629460346484739
 40
10.629460346484739
 10
7.1776078909349605
 20
6.0450119826049846
 30
0.0
 10
7.1723224235368832
 20
6.0507057002220694
 30
0.0
 10
7.1672076327484575
 20
6.056752155510968
 30
0.0
 10
7.1622769295082076
 20
6.0631232014191747
 30
0.0
 10
7.1477990916873173
 20
6.0834910807589946
 30
0.0
 10
7.1352004239481017
 20
6.1064639959128133
 30
0.0
 10
7.1276588954142568
 20
6.122936013540178
 30
0.0
 10
7.1179766363124495
 20
6.1487731724095269
 30
0.0
 10
7.1109995122441427
 20
6.1753551315404511
 30
0.0
 10
7.1089667753043262
 20
6.1843360548053159
 30
0.0
 10
7.1055250791162274
 20
6.2024029894584753
 30
0.0
 10
7.1033717412027979
 20
6.2205431523349475
 30
0.0
 10
7.1026246529927146
 20
6.2296190585160316
 30
0.0
 10
7.1022180843784382
 20
6.2386382451506277
 30
0.0
 10
7.102158113028568
 20
6.2475793421365573
 30
0.0
  0
POLYLINE
  5
3A2
100
AcDbEntity
  8
0
370
    35
390
0
 62
     7
 48
0.03937
100
AcDb2dPolyline
 66
     1
 10
0.0
 20
0.0
 30
0.0
 71
     2
  0
VERTEX
  5
3A3
100
AcDbEntity
  8
0
370
     0
390
0
100
AcDbVertex
100
AcDb2dVertex
 10
7.159412
 20
6.229318
 30
0.0
 42
0.085049
  0
VERTEX
  5
3A4
100
AcDbEntity
  8
0
370
     0
390
0
100
AcDbVertex
100
AcDb2dVertex
 10
7.192116
 20
6.121875
 30
0.0
  0
SEQEND
  5
3A5
100
AcDbEntity
  8
0
370
     0
390
0
  0
POLYLINE
  5
3A6
100
AcDbEntity
  8
0
370
    35
390
0
 62
     7
 48
0.03937
100
AcDb2dPolyline
 66
     1
 10
0.0
 20
0.0
 30
0.0
 71
     2
  0
VERTEX
  5
3A7
100
AcDbEntity
  8
0
370
     0
390
0
100
AcDbVertex
100
AcDb2dVertex
 10
7.172324
 20
6.197656
 30
0.0
 42
0.027036
  0
VERTEX
  5
3A8
100
AcDbEntity
  8
0
370
     0
390
0
100
AcDbVertex
100
AcDb2dVertex
 10
7.184922
 20
6.156522
 30
0.0
  0
SEQEND
  5
3A9
100
AcDbEntity
  8
0
370
     0
390
0
  0
POLYLINE
  5
3AA
100
AcDbEntity
  8
0
370
    35
390
0
 62
     7
 48
0.03937
100
AcDb2dPolyline
 66
     1
 10
0.0
 20
0.0
 30
0.0
 71
     2
  0
VERTEX
  5
3AB
100
AcDbEntity
  8
0
370
     0
390
0
100
AcDbVertex
100
AcDb2dVertex
 10
7.161568
 20
6.224506
 30
0.0
 42
0.076903
  0
VERTEX
  5
3AC
100
AcDbEntity
  8
0
370
     0
390
0
100
AcDbVertex
100
AcDb2dVertex
 10
7.19124
 20
6.127047
 30
0.0
  0
SEQEND
  5
3AD
100
AcDbEntity
  8
0
370
     0
390
0
  0
LINE
  5
3AE
100
AcDbEntity
  8
0
370
    35
390
0
 62
     7
 48
0.03937
100
AcDbLine
 10
7.987078
 20
7.103228
 30
0.0
 11
7.072764
 21
6.80436
 31
0.0
210
0.0
220
0.0
230
1.0
  0
LINE
  5
3AF
100
AcDbEntity
  8
0
370
    35
390
0
 62
     7
 48
0.03937
100
AcDbLine
 10
9.042033
 20
3.875636
 30
0.0
 11
8.127719
 21
3.576768
 31
0.0
210
0.0
220
0.0
230
1.0
  0
LINE
  5
3B0
100
AcDbEntity
  8
0
370
    35
390
0
 62
     7
 48
0.001202
100
AcDbLine
 10
7.808214
 20
4.554265
 30
0.0
 11
7.762498
 21
4.539322
 31
0.0
210
0.0
220
0.0
230
1.0
  0
LINE
  5
3B1
100
AcDbEntity
  8
0
370
    35
390
0
 62
     7
 48
0.001202
100
AcDbLine
 10
7.392269
 20
5.826862
 30
0.0
 11
7.346553
 21
5.811918
 31
0.0
210
0.0
220
0.0
230
1.0
  0
INSERT
  5
576
100
AcDbEntity
  8
0
370
     0
390
0
100
AcDbBlockReference
  2
BLOCK1
 10
0.0
 20
0.0
 30
0.0
210
0.0
220
0.0
230
1.0
  0
INSERT
  5
577
100
AcDbEntity
  8
0
370
     0
390
0
100
AcDbBlockReference
  2
BLOCK2
 10
0.0
 20
0.0
 30
0.0
210
0.0
220
0.0
230
1.0
  0
INSERT
  5
578
100
AcDbEntity
  8
0
370
     0
390
0
100
AcDbBlockReference
  2
BLOCK3
 10
0.0
 20
0.0
 30
0.0
210
0.0
220
0.0
230
1.0
  0
INSERT
  5
579
100
AcDbEntity
  8
0
370
     0
390
0
100
AcDbBlockReference
  2
BLOCK4
 10
0.0
 20
0.0
 30
0.0
210
0.0
220
0.0
230
1.0
  0
INSERT
  5
57A
100
AcDbEntity
  8
0
370
     0
390
0
100
AcDbBlockReference
  2
BLOCK5
 10
0.0
 20
0.0
 30
0.0
210
0.0
220
0.0
230
1.0
  0
INSERT
  5
57B
100
AcDbEntity
  8
0
370
     0
390
0
100
AcDbBlockReference
  2
BLOCK6
 10
3.283566
 20
5.713163
 30
0.0
 41
0.970179
 42
0.970179
 43
0.970179
210
0.0
220
0.0
230
1.0
  0
INSERT
  5
57C
100
AcDbEntity
  8
0
370
     0
390
0
100
AcDbBlockReference
  2
BLOCK7
 10
3.283566
 20
5.713163
 30
0.0
 41
0.970179
 42
0.970179
 43
0.970179
210
0.0
220
0.0
230
1.0
  0
INSERT
  5
57D
100
AcDbEntity
  8
0
370
     0
390
0
100
AcDbBlockReference
  2
BLOCK8
 10
3.283566
 20
5.713163
 30
0.0
 41
0.970179
 42
0.970179
 43
0.970179
210
0.0
220
0.0
230
1.0
  0
INSERT
  5
57E
100
AcDbEntity
  8
0
370
     0
390
0
100
AcDbBlockReference
  2
BLOCK9
 10
3.283566
 20
5.713163
 30
0.0
 41
0.970179
 42
0.970179
 43
0.970179
210
0.0
220
0.0
230
1.0
  0
INSERT
  5
57F
100
AcDbEntity
  8
0
370
     0
390
0
100
AcDbBlockReference
  2
BLOCK10
 10
3.283566
 20
5.713163
 30
0.0
 41
0.970179
 42
0.970179
 43
0.970179
210
0.0
220
0.0
230
1.0
  0
INSERT
  5
580
100
AcDbEntity
  8
0
370
     0
390
0
100
AcDbBlockReference
  2
BLOCK11
 10
3.283566
 20
5.713163
 30
0.0
 41
0.970179
 42
0.970179
 43
0.970179
210
0.0
220
0.0
230
1.0
  0
INSERT
  5
581
100
AcDbEntity
  8
0
370
     0
390
0
100
AcDbBlockReference
  2
BLOCK12
 10
3.283566
 20
5.713163
 30
0.0
 41
0.970179
 42
0.970179
 43
0.970179
210
0.0
220
0.0
230
1.0
  0
INSERT
  5
582
100
AcDbEntity
  8
0
370
     0
390
0
100
AcDbBlockReference
  2
BLOCK13
 10
3.283566
 20
5.713163
 30
0.0
 41
0.970179
 42
0.970179
 43
0.970179
210
0.0
220
0.0
230
1.0
  0
INSERT
  5
583
100
AcDbEntity
  8
0
370
     0
390
0
100
AcDbBlockReference
  2
BLOCK14
 10
3.283566
 20
2.565801
 30
0.0
 41
0.970179
 42
0.970179
 43
0.970179
210
0.0
220
0.0
230
1.0
  0
INSERT
  5
584
100
AcDbEntity
  8
0
370
     0
390
0
100
AcDbBlockReference
  2
BLOCK15
 10
3.283566
 20
2.565801
 30
0.0
 41
0.970179
 42
0.970179
 43
0.970179
210
0.0
220
0.0
230
1.0
  0
INSERT
  5
585
100
AcDbEntity
  8
0
370
     0
390
0
100
AcDbBlockReference
  2
BLOCK16
 10
3.283566
 20
2.565801
 30
0.0
 41
0.970179
 42
0.970179
 43
0.970179
210
0.0
220
0.0
230
1.0
  0
INSERT
  5
586
100
AcDbEntity
  8
0
370
     0
390
0
100
AcDbBlockReference
  2
BLOCK17
 10
3.283566
 20
2.565801
 30
0.0
 41
0.970179
 42
0.970179
 43
0.970179
210
0.0
220
0.0
230
1.0
  0
INSERT
  5
587
100
AcDbEntity
  8
0
370
     0
390
0
100
AcDbBlockReference
  2
BLOCK18
 10
3.283566
 20
2.565801
 30
0.0
 41
0.970179
 42
0.970179
 43
0.970179
210
0.0
220
0.0
230
1.0
  0
INSERT
  5
588
100
AcDbEntity
  8
0
370
     0
390
0
100
AcDbBlockReference
  2
BLOCK19
 10
3.283566
 20
2.565801
 30
0.0
 41
0.970179
 42
0.970179
 43
0.970179
210
0.0
220
0.0
230
1.0
  0
ENDSEC
  0
SECTION
  2
OBJECTS
  0
DICTIONARY
  5
19
100
AcDbDictionary
280
     0
281
     1
  3
ACAD_GROUP
350
1A
  3
ACAD_MLINESTYLE
350
1B
  3
ACAD_LAYOUT
350
1E
  3
ACAD_PLOTSETTINGS
350
22
  3
ACAD_PLOTSTYLENAME
350
1F
  3
ACAD_WIPEOUT_VARS
350
23
  0
DICTIONARY
  5
1A
102
{ACAD_REACTORS
330
19
102
}
100
AcDbDictionary
280
     0
281
     1
  0
DICTIONARY
  5
1B
102
{ACAD_REACTORS
330
19
102
}
100
AcDbDictionary
280
     0
281
     1
  3
Standard
350
1C
  0
MLINESTYLE
  5
1C
102
{ACAD_REACTORS
330
1B
102
}
100
AcDbMlineStyle
  2
Standard
 70
     0
  3

 62
     0
 51
90.0
 52
90.0
 71
     2
 49
0.5
 62
   256
  6
ByLayer
 49
-0.5
 62
   256
  6
ByLayer
  0
ACDBDICTIONARYWDFLT
  5
1F
102
{ACAD_REACTORS
330
19
102
}
100
AcDbDictionary
281
     1
  3
Normal
350
1D
100
AcDbDictionaryWithDefault
340
1D
  0
ACDBPLACEHOLDER
  5
1D
102
{ACAD_REACTORS
330
1F
102
}
  0
LAYOUT
  5
20
102
{ACAD_REACTORS
330
1E
102
}
100
AcDbPlotSettings
  1

  2

  4

  6

 40
0.0
 41
0.0
 42
0.0
 43
0.0
 44
0.0
 45
0.0
 46
0.0
 47
0.0
 48
0.0
 49
0.0
140
0.0
141
0.0
142
1.0
143
1.0
 70
  1024
 72
     0
 73
     0
 74
     0
  7

 75
     0
147
1.0
148
0.0
149
0.0
100
AcDbLayout
  1
Model
 70
     0
 71
     0
 10
0.0
 20
0.0
 11
0.0
 21
0.0
 12
0.0
 22
0.0
 32
0.0
 14
0.0
 24
0.0
 34
0.0
 15
0.0
 25
0.0
 35
0.0
146
0.0
 13
0.0
 23
0.0
 33
0.0
 16
0.0
 26
0.0
 36
0.0
 17
0.0
 27
0.0
 37
0.0
 76
     0
330
A
331
0
345
0
346
0
  0
LAYOUT
  5
21
102
{ACAD_REACTORS
330
1E
102
}
100
AcDbPlotSettings
  1

  2

  4

  6

 40
0.0
 41
0.0
 42
0.0
 43
0.0
 44
0.0
 45
0.0
 46
0.0
 47
0.0
 48
0.0
 49
0.0
140
0.0
141
0.0
142
1.0
143
1.0
 70
     0
 72
     0
 73
     0
 74
     0
  7

 75
     0
147
1.0
148
0.0
149
0.0
100
AcDbLayout
  1
Layout1
 70
     0
 71
     0
 10
0.0
 20
0.0
 11
0.0
 21
0.0
 12
0.0
 22
0.0
 32
0.0
 14
0.0
 24
0.0
 34
0.0
 15
0.0
 25
0.0
 35
0.0
146
0.0
 13
0.0
 23
0.0
 33
0.0
 16
0.0
 26
0.0
 36
0.0
 17
0.0
 27
0.0
 37
0.0
 76
     0
330
B
331
0
345
0
346
0
  0
DICTIONARY
  5
1E
102
{ACAD_REACTORS
330
19
102
}
100
AcDbDictionary
280
     0
281
     1
  3
Layout1
350
21
  3
Model
350
20
  0
DICTIONARY
  5
22
102
{ACAD_REACTORS
330
19
102
}
100
AcDbDictionary
280
     0
281
     1
  0
WIPEOUTVARIABLES
  5
23
100
AcDbWipeoutVariables
 70
     1
  0
ENDSEC
  0
EOF
